  0
SECTION
  2
HEADER
  9
$EXTMIN
 10
0
 20
0
  9
$EXTMAX
 10
4200
 20
2970
  0
ENDSEC
  0
SECTION
  2
TABLES
  0
TABLE
  2
LTYPE
 70
     9
  0
LTYPE
  2
CONTINUOUS
 70
    64
  3
実線
 72
    65
 73
     0
 40
0.0
  0
LTYPE
  2
DASHED1
 70
    64
  3
--  --  --  --  --  --  --  --  
 72
    65
 73
     2
 40
2.5
 49
1.25
 49
-1.25
  0
LTYPE
  2
DASHED2
 70
    64
  3
----    ----    ----    ----    
 72
    65
 73
     2
 40
5.0
 49
2.5
 49
-2.5
  0
LTYPE
  2
DASHED3
 70
    64
  3
------  ------  ------  ------  
 72
    65
 73
     2
 40
5.0
 49
3.75
 49
-1.25
  0
LTYPE
  2
CENTER1
 70
    64
  3
----- - ----- - ----- - ----- - 
 72
    65
 73
     4
 40
10.0
 49
6.25
 49
-1.25
 49
1.25
 49
-1.25
  0
LTYPE
  2
CENTER2
 70
    64
  3
----------  --  ----------  --  
 72
    65
 73
     4
 40
20.0
 49
12.5
 49
-2.5
 49
2.5
 49
-2.5
  0
LTYPE
  2
PHANTOM1
 70
    64
  3
--- - - --- - - --- - - --- - - 
 72
    65
 73
     6
 40
10.0
 49
3.25
 49
-1.25
 49
1.25
 49
-1.25
 49
1.25
 49
-1.25
  0
LTYPE
  2
PHANTOM2
 70
    64
  3
--------  -  -  --------  -  -  
 72
    65
 73
     6
 40
20.0
 49
10.0
 49
-2.5
 49
1.25
 49
-2.5
 49
1.25
 49
-2.5
  0
LTYPE
  2
DOT
 70
    64
  3
-   -   -   -   -   -   -   -   
 72
    65
 73
     2
 40
2.5
 49
0.625
 49
-1.875
  0
ENDTAB
  0
TABLE
  2
STYLE
 70
    1
  0
STYLE
  2
STANDARD
 70
    64
 40
0.0
 41
1.0
 42
0.0
 50
0.0
 71
     0
  3
TXT
  4
BIGFONT
  0
ENDTAB
  0
TABLE
  2
LAYER
 70
    8
  0
LAYER
  2
0-1
 70
   64
 62
    7
  6
CONTINUOUS
  0
LAYER
  2
0-2
 70
   64
 62
    7
  6
CONTINUOUS
  0
LAYER
  2
0-3
 70
   64
 62
    7
  6
CONTINUOUS
  0
LAYER
  2
0-8
 70
   64
 62
    7
  6
CONTINUOUS
  0
LAYER
  2
0-d
 70
   64
 62
    7
  6
CONTINUOUS
  0
LAYER
  2
1-2
 70
   64
 62
    7
  6
CONTINUOUS
  0
LAYER
  2
1-8
 70
   64
 62
    7
  6
CONTINUOUS
  0
LAYER
  2
ADD_LINE
 70
   64
 62
    7
  6
CONTINUOUS
  0
ENDTAB
  0
ENDSEC
  0
SECTION
  2
ENTITIES
  0
LINE
  8
0-d
  6
CONTINUOUS
 62
    7
 10
250.00003
 20
2757.7013
 11
1850.0001
 21
2757.7013
  0
LINE
  8
0-d
  6
CONTINUOUS
 62
    7
 10
250.00003
 20
2767.7014
 11
1850.0001
 21
2767.7014
  0
LINE
  8
0-8
  6
CONTINUOUS
 62
    7
 10
1490.6985
 20
2231.0722
 11
1865.9994
 21
2231.0722
  0
LINE
  8
0-8
  6
CONTINUOUS
 62
    7
 10
1490.6985
 20
2301.0721
 11
1865.9994
 21
2301.0721
  0
LINE
  8
0-2
  6
CONTINUOUS
 62
    3
 10
749.99979
 20
747.00013
 11
749.99979
 21
1346.9999
  0
LINE
  8
0-2
  6
CONTINUOUS
 62
    3
 10
749.99979
 20
1346.9999
 11
1350.0003
 21
1346.9999
  0
LINE
  8
0-2
  6
CONTINUOUS
 62
    3
 10
1350.0003
 20
1346.9999
 11
1350.0003
 21
747.00007
  0
LINE
  8
0-2
  6
CONTINUOUS
 62
    3
 10
1350.0003
 20
747.00007
 11
749.99979
 21
747.00013
  0
LINE
  8
0-8
  6
CONTINUOUS
 62
    7
 10
749.99979
 20
1868.126
 11
1350.0003
 21
1868.126
  0
LINE
  8
0-2
  6
CONTINUOUS
 62
    3
 10
749.99979
 20
1346.9999
 11
832.73154
 21
1264.2683
  0
LINE
  8
0-2
  6
CONTINUOUS
 62
    3
 10
1350.0003
 20
1346.9999
 11
1267.2685
 21
1264.2683
  0
LINE
  8
0-2
  6
CONTINUOUS
 62
    3
 10
749.99979
 20
747.00013
 11
832.73154
 21
829.73133
  0
LINE
  8
0-2
  6
CONTINUOUS
 62
    3
 10
1350.0003
 20
747.00007
 11
1267.2685
 21
829.73127
  0
LINE
  8
0-2
  6
CONTINUOUS
 62
    3
 10
797.50007
 20
2231.0722
 11
1302.4997
 21
2231.0722
  0
LINE
  8
0-2
  6
CONTINUOUS
 62
    3
 10
797.50007
 20
2285.472
 11
1302.4997
 21
2285.472
  0
LINE
  8
0-2
  6
CONTINUOUS
 62
    3
 10
797.50007
 20
2269.8722
 11
797.50007
 21
2231.0722
  0
LINE
  8
0-2
  6
CONTINUOUS
 62
    3
 10
797.50007
 20
2269.8722
 11
1302.4997
 21
2269.8722
  0
LINE
  8
0-2
  6
CONTINUOUS
 62
    3
 10
1302.4997
 20
2269.8722
 11
1302.4997
 21
2231.0722
  0
LINE
  8
0-2
  6
CONTINUOUS
 62
    3
 10
1302.5
 20
2301.0721
 11
1302.5
 21
2285.472
  0
LINE
  8
0-d
  6
CONTINUOUS
 62
    7
 10
525.50554
 20
2080.1507
 11
634.39392
 21
2080.1507
  0
LINE
  8
0-d
  6
CONTINUOUS
 62
    7
 10
525.50554
 20
2080.1507
 11
634.39392
 21
2112.816
  0
LINE
  8
0-d
  6
CONTINUOUS
 62
    7
 10
634.39392
 20
2080.1507
 11
634.39392
 21
2112.816
  0
LINE
  8
0-8
  6
CONTINUOUS
 62
    7
 10
797.50007
 20
2325.6253
 11
797.50007
 21
2377.4472
  0
LINE
  8
0-8
  6
CONTINUOUS
 62
    7
 10
1302.5
 20
2325.6253
 11
1302.5
 21
2377.4472
  0
LINE
  8
0-2
  6
CONTINUOUS
 62
    3
 10
797.50007
 20
2231.0722
 11
750.00003
 21
1991.2593
  0
LINE
  8
0-2
  6
CONTINUOUS
 62
    3
 10
1302.4997
 20
2231.0722
 11
1350
 21
1991.0722
  0
LINE
  8
0-2
  6
CONTINUOUS
 62
    3
 10
1600.0001
 20
496.99982
 11
1600.0001
 21
1596.9997
  0
LINE
  8
0-2
  6
CONTINUOUS
 62
    3
 10
1600.0001
 20
1596.9997
 11
499.99994
 21
1596.9997
  0
LINE
  8
0-2
  6
CONTINUOUS
 62
    3
 10
499.99994
 20
1596.9997
 11
499.99994
 21
496.99982
  0
LINE
  8
0-2
  6
CONTINUOUS
 62
    3
 10
499.99994
 20
496.99982
 11
1600.0001
 21
496.99982
  0
LINE
  8
0-8
  6
CONTINUOUS
 62
    7
 10
811.69569
 20
963.52929
 11
1288.3044
 21
1130.4703
  0
LINE
  8
0-2
  6
CONTINUOUS
 62
    3
 10
797.50007
 20
2301.0721
 11
797.50007
 21
2285.472
  0
LINE
  8
0-2
  6
CONTINUOUS
 62
    3
 10
797.50007
 20
2301.0721
 11
1302.5
 21
2301.0721
  0
LINE
  8
0-8
  6
CONTINUOUS
 62
    7
 10
234.00063
 20
496.99982
 11
234.00063
 21
1596.9997
  0
LINE
  8
0-8
  6
CONTINUOUS
 62
    7
 10
440.13335
 20
496.99982
 11
234.00063
 21
496.99982
  0
LINE
  8
0-8
  6
CONTINUOUS
 62
    7
 10
440.13335
 20
1596.9997
 11
234.00063
 21
1596.9997
  0
LINE
  8
0-8
  6
CONTINUOUS
 62
    7
 10
1818.5118
 20
747.00007
 11
1818.5118
 21
1346.9999
  0
LINE
  8
0-8
  6
CONTINUOUS
 62
    7
 10
1688.782
 20
747.00007
 11
1818.5118
 21
747.00007
  0
LINE
  8
0-8
  6
CONTINUOUS
 62
    7
 10
1688.782
 20
1346.9999
 11
1818.5118
 21
1346.9999
  0
LINE
  8
0-1
  6
CENTER2
 62
    7
 10
1600.0001
 20
1047
 11
499.99994
 21
1047
  0
LINE
  8
0-8
  6
CONTINUOUS
 62
    7
 10
797.50007
 20
2377.4472
 11
1302.5
 21
2377.4472
  0
LINE
  8
1-2
  6
CONTINUOUS
 62
    3
 10
489.5748
 20
2677.0345
 11
489.5748
 21
2577.0344
  0
LINE
  8
1-2
  6
CONTINUOUS
 62
    3
 10
489.5748
 20
2477.034
 11
489.5748
 21
2372.683
  0
LINE
  8
1-8
  6
CONTINUOUS
 62
    7
 10
382.57662
 20
2477.034
 11
382.57662
 21
2577.0344
  0
LINE
  8
1-8
  6
CONTINUOUS
 62
    7
 10
450.71116
 20
2477.034
 11
382.57662
 21
2477.034
  0
LINE
  8
1-8
  6
CONTINUOUS
 62
    7
 10
450.71116
 20
2577.0344
 11
382.57662
 21
2577.0344
  0
LINE
  8
1-8
  6
CONTINUOUS
 62
    7
 10
382.57662
 20
2577.0344
 11
382.57662
 21
2677.0345
  0
LINE
  8
1-8
  6
CONTINUOUS
 62
    7
 10
450.71116
 20
2677.0345
 11
382.57662
 21
2677.0345
  0
LINE
  8
1-2
  6
CONTINUOUS
 62
    3
 10
489.5748
 20
2577.0316
 11
607.4912
 21
2577.0316
  0
LINE
  8
1-2
  6
CONTINUOUS
 62
    3
 10
489.5748
 20
2677.0345
 11
607.4912
 21
2677.0345
  0
LINE
  8
1-2
  6
CONTINUOUS
 62
    3
 10
489.5748
 20
2477.034
 11
607.4912
 21
2477.034
  0
LINE
  8
0-8
  6
CONTINUOUS
 62
    7
 10
1818.5118
 20
496.99982
 11
1818.5118
 21
747.00007
  0
LINE
  8
0-8
  6
CONTINUOUS
 62
    7
 10
1688.782
 20
496.99982
 11
1818.5118
 21
496.99982
  0
LINE
  8
0-8
  6
CONTINUOUS
 62
    7
 10
1818.5118
 20
1346.9999
 11
1818.5118
 21
1596.9997
  0
LINE
  8
0-8
  6
CONTINUOUS
 62
    7
 10
1688.782
 20
1596.9997
 11
1818.5118
 21
1596.9997
  0
LINE
  8
0-d
  6
CONTINUOUS
 62
    7
 10
250.00003
 20
216.99984
 11
1850
 21
216.99984
  0
LINE
  8
0-d
  6
CONTINUOUS
 62
    7
 10
250.00003
 20
116.99982
 11
250.00003
 21
296.9998
  0
LINE
  8
0-d
  6
CONTINUOUS
 62
    7
 10
250.00003
 20
116.99982
 11
1850
 21
116.99982
  0
LINE
  8
0-d
  6
CONTINUOUS
 62
    7
 10
1850
 20
296.9998
 11
1850
 21
116.99982
  0
LINE
  8
0-d
  6
CONTINUOUS
 62
    7
 10
250.00003
 20
296.9998
 11
1850
 21
296.9998
  0
LINE
  8
0-d
  6
CONTINUOUS
 62
    7
 10
1050
 20
296.9998
 11
1050
 21
116.99982
  0
LINE
  8
0-d
  6
CONTINUOUS
 62
    7
 10
650.00007
 20
116.99982
 11
650.00007
 21
216.99984
  0
LINE
  8
0-d
  6
CONTINUOUS
 62
    7
 10
1050
 20
216.99984
 11
1050
 21
296.9998
  0
LINE
  8
0-d
  6
CONTINUOUS
 62
    7
 10
850.00012
 20
116.99982
 11
850.00012
 21
216.99984
  0
LINE
  8
0-d
  6
CONTINUOUS
 62
    7
 10
284.99996
 20
116.99982
 11
284.99996
 21
216.99984
  0
LINE
  8
0-d
  6
CONTINUOUS
 62
    7
 10
684.99994
 20
116.99982
 11
684.99994
 21
216.99984
  0
LINE
  8
0-d
  6
CONTINUOUS
 62
    7
 10
884.99987
 20
116.99982
 11
884.99987
 21
216.99984
  0
LINE
  8
0-d
  6
CONTINUOUS
 62
    7
 10
1015
 20
216.99984
 11
1015
 21
296.9998
  0
LINE
  8
0-d
  6
CONTINUOUS
 62
    7
 10
1549.9999
 20
216.99984
 11
1549.9999
 21
296.9998
  0
LINE
  8
0-d
  6
CONTINUOUS
 62
    7
 10
1584.9998
 20
216.99984
 11
1584.9998
 21
296.9998
  0
LINE
  8
0-1
  6
CENTER2
 62
    7
 10
1050
 20
372.97299
 11
1050
 21
2497.2974
  0
LINE
  8
0-2
  6
CONTINUOUS
 62
    3
 10
1050
 20
2081.2557
 11
499.99994
 21
1916.2624
  0
LINE
  8
0-2
  6
CONTINUOUS
 62
    3
 10
1600.0001
 20
1915.9194
 11
1050
 21
2081.2557
  0
LINE
  8
0-8
  6
CONTINUOUS
 62
    7
 10
1865.9994
 20
1991.0722
 11
1865.9994
 21
2301.0721
  0
LINE
  8
0-8
  6
CONTINUOUS
 62
    7
 10
1490.6985
 20
1991.0722
 11
1865.9994
 21
1991.0722
  0
LINE
  8
0-8
  6
CONTINUOUS
 62
    7
 10
1350.0003
 20
1948.1217
 11
1350.0003
 21
1868.126
  0
LINE
  8
0-8
  6
CONTINUOUS
 62
    7
 10
749.99979
 20
1950.6888
 11
749.99979
 21
1868.126
  0
ARC
  8
0-2
  6
CONTINUOUS
 62
    3
 10
1302.5
 20
2277.672
 40
7.7996399
 50
90
 51
270
  0
ARC
  8
0-2
  6
CONTINUOUS
 62
    3
 10
797.49982
 20
2277.672
 40
7.7996399
 50
270
 51
90
  0
CIRCLE
  8
0-2
  6
CONTINUOUS
 62
    3
 10
1050
 20
1046.9999
 40
252.49999
  0
ARC
  8
1-2
  6
CONTINUOUS
 62
    3
 10
489.57307
 20
2527.034
 40
49.997681
 50
270
 51
90
  0
CIRCLE
  8
0-3
  6
DASHED1
 62
    3
 10
797.49982
 20
2287.4714
 40
44.999999
  0
TEXT
  8
0-d
 10
654.34103
 20
2080.4486
 40
30
 41
1
 50
0
  1
3
  0
TEXT
  8
0-d
 10
566.74906
 20
2037.553
 40
30
 41
1
 50
0
  1
10
  0
TEXT
  8
0-8
 10
1008.6523
 20
2341.5375
 40
30
 41
1
 50
0
  1
505φ
  0
TEXT
  8
0-8
 10
1919.3995
 20
2246.6225
 40
30
 41
1
 50
90
  1
70
  0
TEXT
  8
0-8
 10
1919.3995
 20
2087.0971
 40
30
 41
1
 50
90
  1
240
  0
TEXT
  8
0-8
 10
1016.824
 20
1883.726
 40
30
 41
1
 50
0
  1
600
  0
TEXT
  8
0-8
 10
1808.5117
 20
1025.75
 40
30
 41
1
 50
90
  1
600
  0
TEXT
  8
1-8
 10
374.88446
 20
2516.4576
 40
25
 41
1
 50
90
  1
10
  0
TEXT
  8
1-8
 10
374.88446
 20
2616.4577
 40
25
 41
1
 50
90
  1
10
  0
TEXT
  8
0-8
 10
993.31307
 20
1043.6732
 40
30
 41
1
 50
19.303787
  1
505φ
  0
TEXT
  8
0-8
 10
1808.5117
 20
600.74995
 40
30
 41
1
 50
90
  1
250
  0
TEXT
  8
0-8
 10
1808.5117
 20
1450.7498
 40
30
 41
1
 50
90
  1
250
  0
TEXT
  8
0-d
 10
255.00003
 20
2772.7014
 40
40
 41
1
 50
0
  1
ＳＴ－５０・ＳＦ－５０・ＤＳ－５００・ＡＳ－５００　直付型　切妻　(1/10)
  0
TEXT
  8
0-d
 10
254.99998
 20
184.4998
 40
25
 41
1
 50
0
  1
図
  0
TEXT
  8
0-d
 10
254.99998
 20
124.49984
 40
25
 41
1
 50
0
  1
番
  0
TEXT
  8
0-d
 10
654.99996
 20
184.4998
 40
25
 41
1
 50
0
  1
承
  0
TEXT
  8
0-d
 10
654.99996
 20
124.49984
 40
25
 41
1
 50
0
  1
認
  0
TEXT
  8
0-d
 10
1019.9999
 20
264.49982
 40
25
 41
1
 50
0
  1
尺
  0
TEXT
  8
0-d
 10
1019.9999
 20
224.49987
 40
25
 41
1
 50
359.99986
  1
度
  0
TEXT
  8
0-d
 10
855.00001
 20
184.4998
 40
25
 41
1
 50
0
  1
製
  0
TEXT
  8
0-d
 10
855.00001
 20
124.49984
 40
25
 41
1
 50
0
  1
図
  0
TEXT
  8
0-d
 10
1555
 20
264.49982
 40
25
 41
1
 50
0
  1
日
  0
TEXT
  8
0-d
 10
1555
 20
224.49987
 40
25
 41
1
 50
359.99986
  1
付
  0
TEXT
  8
0-d
 10
1111.4261
 20
190.48209
 40
20
 41
1
 50
0
  1
株式
  0
TEXT
  8
0-d
 10
1111.4261
 20
168.85167
 40
20
 41
1
 50
0.0000457
  1
会社
  0
TEXT
  8
0-d
 10
1174.2242
 20
170.24717
 40
40
 41
1
 50
0
  1
スズキベンチレーター
  0
TEXT
  8
0-d
 10
1237.9177
 20
121.02418
 40
20
 41
1
 50
0
  1
TEL(054)296-7000  FAX(054)296-7001
  0
TEXT
  8
0-d
 10
1084.3487
 20
237.10056
 40
40
 41
1
 50
0
  1
１／１０　　１／１
  0
TEXT
  8
0-d
 10
312.01241
 20
171.24754
 40
30
 41
1
 50
0
  1
50-C15
  0
TEXT
  8
0-8
 10
224.0006
 20
1010.7497
 40
30
 41
1
 50
90
  1
≒ 1,100
  0
TEXT
  8
0-d
 10
1235.6792
 20
145.64593
 40
20
 41
1
 50
0
  1
〒421-2114　静岡市葵区安倍口新田１５２番地
  0
POINT
  8
0-8
 62
    2
 10
1865.9994
 20
1991.0722
  0
POINT
  8
0-8
 62
    2
 10
1865.9994
 20
2231.0722
  0
POINT
  8
0-8
 62
    2
 10
1865.9994
 20
2301.0721
  0
POINT
  8
0-8
 62
    2
 10
749.99979
 20
1868.126
  0
POINT
  8
0-8
 62
    2
 10
1350.0003
 20
1868.126
  0
POINT
  8
0-8
 62
    2
 10
811.69569
 20
963.52929
  0
POINT
  8
0-8
 62
    2
 10
1288.3044
 20
1130.4703
  0
POINT
  8
0-8
 62
    2
 10
797.50007
 20
2377.4472
  0
POINT
  8
0-8
 62
    2
 10
1302.5
 20
2377.4472
  0
POINT
  8
0-8
 62
    2
 10
234.00063
 20
496.99982
  0
POINT
  8
0-8
 62
    2
 10
234.00063
 20
1596.9997
  0
POINT
  8
0-8
 62
    2
 10
1818.5118
 20
747.00007
  0
POINT
  8
0-8
 62
    2
 10
1818.5118
 20
1346.9999
  0
POINT
  8
1-8
 62
    2
 10
382.57662
 20
2477.034
  0
POINT
  8
1-8
 62
    2
 10
382.57662
 20
2577.0344
  0
POINT
  8
1-8
 62
    2
 10
382.57662
 20
2677.0345
  0
POINT
  8
0-8
 62
    2
 10
1818.5118
 20
496.99982
  0
POINT
  8
0-8
 62
    2
 10
1818.5118
 20
1596.9997
  0
ENDSEC
  0
EOF
