  0
SECTION
  2
HEADER
  9
$EXTMIN
 10
0
 20
0
  9
$EXTMAX
 10
2520
 20
1782
  0
ENDSEC
  0
SECTION
  2
TABLES
  0
TABLE
  2
LTYPE
 70
     9
  0
LTYPE
  2
CONTINUOUS
 70
    64
  3
実線
 72
    65
 73
     0
 40
0.0
  0
LTYPE
  2
DASHED1
 70
    64
  3
--  --  --  --  --  --  --  --  
 72
    65
 73
     2
 40
2.5
 49
1.25
 49
-1.25
  0
LTYPE
  2
DASHED2
 70
    64
  3
----    ----    ----    ----    
 72
    65
 73
     2
 40
5.0
 49
2.5
 49
-2.5
  0
LTYPE
  2
DASHED3
 70
    64
  3
------  ------  ------  ------  
 72
    65
 73
     2
 40
5.0
 49
3.75
 49
-1.25
  0
LTYPE
  2
CENTER1
 70
    64
  3
----- - ----- - ----- - ----- - 
 72
    65
 73
     4
 40
10.0
 49
6.25
 49
-1.25
 49
1.25
 49
-1.25
  0
LTYPE
  2
CENTER2
 70
    64
  3
----------  --  ----------  --  
 72
    65
 73
     4
 40
20.0
 49
12.5
 49
-2.5
 49
2.5
 49
-2.5
  0
LTYPE
  2
PHANTOM1
 70
    64
  3
--- - - --- - - --- - - --- - - 
 72
    65
 73
     6
 40
10.0
 49
3.25
 49
-1.25
 49
1.25
 49
-1.25
 49
1.25
 49
-1.25
  0
LTYPE
  2
PHANTOM2
 70
    64
  3
--------  -  -  --------  -  -  
 72
    65
 73
     6
 40
20.0
 49
10.0
 49
-2.5
 49
1.25
 49
-2.5
 49
1.25
 49
-2.5
  0
LTYPE
  2
DOT
 70
    64
  3
-   -   -   -   -   -   -   -   
 72
    65
 73
     2
 40
2.5
 49
0.625
 49
-1.875
  0
ENDTAB
  0
TABLE
  2
STYLE
 70
    1
  0
STYLE
  2
STANDARD
 70
    64
 40
0.0
 41
1.0
 42
0.0
 50
0.0
 71
     0
  3
TXT
  4
BIGFONT
  0
ENDTAB
  0
TABLE
  2
LAYER
 70
    7
  0
LAYER
  2
0-1
 70
   64
 62
    7
  6
CONTINUOUS
  0
LAYER
  2
0-2
 70
   64
 62
    7
  6
CONTINUOUS
  0
LAYER
  2
0-3
 70
   64
 62
    7
  6
CONTINUOUS
  0
LAYER
  2
0-8
 70
   64
 62
    7
  6
CONTINUOUS
  0
LAYER
  2
0-d
 70
   64
 62
    7
  6
CONTINUOUS
  0
LAYER
  2
1-0
 70
   64
 62
    7
  6
CONTINUOUS
  0
LAYER
  2
ADD_LINE
 70
   64
 62
    7
  6
CONTINUOUS
  0
ENDTAB
  0
ENDSEC
  0
SECTION
  2
ENTITIES
  0
LINE
  8
0-d
  6
CONTINUOUS
 62
    7
 10
150.00001
 20
1654.6207
 11
1110
 21
1654.6207
  0
LINE
  8
0-d
  6
CONTINUOUS
 62
    7
 10
150.00001
 20
1660.6207
 11
1110
 21
1660.6207
  0
LINE
  8
0-8
  6
CONTINUOUS
 62
    7
 10
1129.9997
 20
1230.9303
 11
1129.9997
 21
1460.9301
  0
LINE
  8
0-8
  6
CONTINUOUS
 62
    7
 10
912.49909
 20
1410.9303
 11
1129.9997
 21
1410.9303
  0
LINE
  8
0-8
  6
CONTINUOUS
 62
    7
 10
912.49909
 20
1460.9301
 11
1129.9997
 21
1460.9301
  0
LINE
  8
0-2
  6
CONTINUOUS
 62
    3
 10
404.99995
 20
378.50037
 11
404.99995
 21
828.50037
  0
LINE
  8
0-2
  6
CONTINUOUS
 62
    3
 10
404.99995
 20
828.50037
 11
854.99991
 21
828.50037
  0
LINE
  8
0-2
  6
CONTINUOUS
 62
    3
 10
854.99991
 20
828.50037
 11
854.99991
 21
378.50037
  0
LINE
  8
0-2
  6
CONTINUOUS
 62
    3
 10
854.99991
 20
378.50037
 11
404.99995
 21
378.50037
  0
LINE
  8
0-8
  6
CONTINUOUS
 62
    7
 10
130.00021
 20
193.50026
 11
130.00021
 21
1013.5002
  0
LINE
  8
0-8
  6
CONTINUOUS
 62
    7
 10
1130.0002
 20
378.50037
 11
1130.0002
 21
828.50037
  0
LINE
  8
0-2
  6
CONTINUOUS
 62
    3
 10
404.99995
 20
828.50037
 11
458.033
 21
775.46721
  0
LINE
  8
0-2
  6
CONTINUOUS
 62
    3
 10
854.99991
 20
828.50037
 11
801.96698
 21
775.46721
  0
LINE
  8
0-2
  6
CONTINUOUS
 62
    3
 10
404.99995
 20
378.50037
 11
458.033
 21
431.53327
  0
LINE
  8
0-2
  6
CONTINUOUS
 62
    3
 10
854.99991
 20
378.50037
 11
801.96698
 21
431.53327
  0
LINE
  8
0-8
  6
CONTINUOUS
 62
    7
 10
486.07371
 20
553.08716
 11
773.92645
 21
653.91285
  0
LINE
  8
0-2
  6
CONTINUOUS
 62
    3
 10
782.50002
 20
1410.9303
 11
477.5
 21
1410.9303
  0
LINE
  8
0-2
  6
CONTINUOUS
 62
    3
 10
782.50002
 20
1460.9301
 11
477.5
 21
1460.9301
  0
LINE
  8
0-8
  6
CONTINUOUS
 62
    7
 10
782.50002
 20
1566.8114
 11
477.5
 21
1566.8114
  0
LINE
  8
0-2
  6
CONTINUOUS
 62
    3
 10
782.50002
 20
1450.93
 11
477.5
 21
1450.93
  0
LINE
  8
0-8
  6
CONTINUOUS
 62
    7
 10
782.50002
 20
1487.4324
 11
782.50002
 21
1566.8114
  0
LINE
  8
0-8
  6
CONTINUOUS
 62
    7
 10
477.5
 20
1487.4324
 11
477.5
 21
1566.8114
  0
LINE
  8
0-2
  6
CONTINUOUS
 62
    3
 10
782.50002
 20
1460.9301
 11
782.50002
 21
1450.93
  0
LINE
  8
0-2
  6
CONTINUOUS
 62
    3
 10
782.50002
 20
1440.9299
 11
782.50002
 21
1410.9303
  0
LINE
  8
0-2
  6
CONTINUOUS
 62
    3
 10
782.50002
 20
1440.9301
 11
477.5
 21
1440.9301
  0
LINE
  8
0-2
  6
CONTINUOUS
 62
    3
 10
477.5
 20
1440.9301
 11
477.5
 21
1410.9303
  0
LINE
  8
0-2
  6
CONTINUOUS
 62
    3
 10
477.49992
 20
1460.9301
 11
477.49992
 21
1450.93
  0
LINE
  8
0-d
  6
CONTINUOUS
 62
    7
 10
330.71853
 20
1139.3073
 11
260.91831
 21
1118.3681
  0
LINE
  8
0-d
  6
CONTINUOUS
 62
    7
 10
260.91831
 20
1139.3073
 11
260.91831
 21
1118.3681
  0
LINE
  8
0-2
  6
CONTINUOUS
 62
    3
 10
219.99999
 20
1013.5002
 11
219.99999
 21
193.50026
  0
LINE
  8
0-2
  6
CONTINUOUS
 62
    3
 10
219.99999
 20
193.50026
 11
1039.9999
 21
193.50026
  0
LINE
  8
0-2
  6
CONTINUOUS
 62
    3
 10
1039.9999
 20
1013.5002
 11
1039.9999
 21
193.50026
  0
LINE
  8
0-2
  6
CONTINUOUS
 62
    3
 10
219.99999
 20
1013.5002
 11
1039.9999
 21
1013.5002
  0
LINE
  8
0-8
  6
CONTINUOUS
 62
    7
 10
189.72974
 20
1013.5002
 11
130.00021
 21
1013.5002
  0
LINE
  8
0-8
  6
CONTINUOUS
 62
    7
 10
194.59459
 20
193.50026
 11
130.00021
 21
193.50026
  0
LINE
  8
0-8
  6
CONTINUOUS
 62
    7
 10
1130.0002
 20
828.50037
 11
1130.0002
 21
1013.5002
  0
LINE
  8
0-8
  6
CONTINUOUS
 62
    7
 10
1065.4053
 20
1013.5002
 11
1130.0002
 21
1013.5002
  0
LINE
  8
0-8
  6
CONTINUOUS
 62
    7
 10
1130.0002
 20
193.50026
 11
1130.0002
 21
378.50037
  0
LINE
  8
0-8
  6
CONTINUOUS
 62
    7
 10
1065.4053
 20
193.50026
 11
1130.0002
 21
193.50026
  0
LINE
  8
0-8
  6
CONTINUOUS
 62
    7
 10
1065.4053
 20
828.50037
 11
1130.0002
 21
828.50037
  0
LINE
  8
0-8
  6
CONTINUOUS
 62
    7
 10
1065.4053
 20
378.50037
 11
1130.0002
 21
378.50037
  0
LINE
  8
1-0
  6
CONTINUOUS
 62
    3
 10
346.47619
 20
1572.5148
 11
239.62101
 21
1572.5148
  0
LINE
  8
1-0
  6
CONTINUOUS
 62
    3
 10
346.47619
 20
1452.5149
 11
239.62101
 21
1452.5149
  0
LINE
  8
1-0
  6
CONTINUOUS
 62
    3
 10
346.47619
 20
1512.5145
 11
239.62101
 21
1512.5145
  0
LINE
  8
1-0
  6
CONTINUOUS
 62
    3
 10
239.62101
 20
1572.5148
 11
239.62101
 21
1512.5145
  0
LINE
  8
1-0
  6
CONTINUOUS
 62
    3
 10
239.62101
 20
1452.5149
 11
239.62101
 21
1313.5268
  0
LINE
  8
1-0
  6
CONTINUOUS
 62
    7
 10
154.49909
 20
1452.5149
 11
154.49909
 21
1512.5145
  0
LINE
  8
1-0
  6
CONTINUOUS
 62
    7
 10
214.26561
 20
1452.5149
 11
154.49909
 21
1452.5149
  0
LINE
  8
1-0
  6
CONTINUOUS
 62
    7
 10
214.26561
 20
1512.5145
 11
154.49909
 21
1512.5145
  0
LINE
  8
1-0
  6
CONTINUOUS
 62
    7
 10
154.49909
 20
1512.5145
 11
154.49909
 21
1572.5148
  0
LINE
  8
1-0
  6
CONTINUOUS
 62
    7
 10
214.26561
 20
1572.5148
 11
154.49909
 21
1572.5148
  0
LINE
  8
0-1
  6
CENTER2
 62
    7
 10
219.99999
 20
603.50026
 11
1039.9999
 21
603.50026
  0
LINE
  8
0-1
  6
CENTER2
 62
    7
 10
629.99999
 20
1460.9301
 11
629.99999
 21
193.50026
  0
LINE
  8
0-d
  6
CONTINUOUS
 62
    7
 10
150.00004
 20
89.999999
 11
1110.0003
 21
89.999999
  0
LINE
  8
0-d
  6
CONTINUOUS
 62
    7
 10
150.00004
 20
30.000005
 11
150.00004
 21
137.99999
  0
LINE
  8
0-d
  6
CONTINUOUS
 62
    7
 10
150.00004
 20
30.000005
 11
1110.0003
 21
30.000005
  0
LINE
  8
0-d
  6
CONTINUOUS
 62
    7
 10
1110.0003
 20
137.99999
 11
1110.0003
 21
30.000005
  0
LINE
  8
0-d
  6
CONTINUOUS
 62
    7
 10
150.00004
 20
137.99999
 11
1110.0003
 21
137.99999
  0
LINE
  8
0-d
  6
CONTINUOUS
 62
    7
 10
630.00014
 20
137.99999
 11
630.00014
 21
30.000005
  0
LINE
  8
0-d
  6
CONTINUOUS
 62
    7
 10
390.00024
 20
30.000005
 11
390.00024
 21
89.999999
  0
LINE
  8
0-d
  6
CONTINUOUS
 62
    7
 10
630.00014
 20
89.999999
 11
630.00014
 21
138
  0
LINE
  8
0-d
  6
CONTINUOUS
 62
    7
 10
510.00004
 20
30.000005
 11
510.00004
 21
89.999999
  0
LINE
  8
0-d
  6
CONTINUOUS
 62
    7
 10
171.00026
 20
30.000005
 11
171.00026
 21
89.999999
  0
LINE
  8
0-d
  6
CONTINUOUS
 62
    7
 10
411.00016
 20
30.000005
 11
411.00016
 21
89.999999
  0
LINE
  8
0-d
  6
CONTINUOUS
 62
    7
 10
531.00011
 20
30.000005
 11
531.00011
 21
89.999999
  0
LINE
  8
0-d
  6
CONTINUOUS
 62
    7
 10
609.00022
 20
89.999999
 11
609.00022
 21
138
  0
LINE
  8
0-d
  6
CONTINUOUS
 62
    7
 10
930.00038
 20
89.999999
 11
930.00038
 21
138
  0
LINE
  8
0-d
  6
CONTINUOUS
 62
    7
 10
951.0003
 20
89.999999
 11
951.0003
 21
138
  0
LINE
  8
0-d
  6
CONTINUOUS
 62
    7
 10
330.71853
 20
1139.3073
 11
260.91831
 21
1139.3073
  0
LINE
  8
0-2
  6
CONTINUOUS
 62
    3
 10
219.99999
 20
1175.307
 11
629.99999
 21
1298.5576
  0
LINE
  8
0-2
  6
CONTINUOUS
 62
    3
 10
477.5
 20
1410.9303
 11
405.03392
 21
1230.9303
  0
LINE
  8
0-2
  6
CONTINUOUS
 62
    3
 10
1039.9999
 20
1175.307
 11
629.99999
 21
1298.5576
  0
LINE
  8
0-2
  6
CONTINUOUS
 62
    3
 10
782.50002
 20
1410.9303
 11
854.96606
 21
1230.9303
  0
LINE
  8
0-8
  6
CONTINUOUS
 62
    7
 10
912.49909
 20
1230.9303
 11
1129.9997
 21
1230.9303
  0
LINE
  8
0-8
  6
CONTINUOUS
 62
    7
 10
405.03392
 20
1104.3243
 11
854.96606
 21
1104.3243
  0
LINE
  8
0-8
  6
CONTINUOUS
 62
    7
 10
405.03392
 20
1191.8918
 11
405.03392
 21
1104.3243
  0
LINE
  8
0-8
  6
CONTINUOUS
 62
    7
 10
854.96606
 20
1191.8918
 11
854.96606
 21
1104.3243
  0
ARC
  8
0-2
  6
CONTINUOUS
 62
    3
 10
477.49992
 20
1445.93
 40
4.9997692
 50
270
 51
90
  0
ARC
  8
0-2
  6
CONTINUOUS
 62
    3
 10
782.50002
 20
1445.93
 40
4.9997692
 50
90
 51
270
  0
CIRCLE
  8
0-2
  6
CONTINUOUS
 62
    3
 10
629.99999
 20
603.50026
 40
152.49998
  0
ARC
  8
1-0
  6
CONTINUOUS
 62
    3
 10
239.62101
 20
1482.5147
 40
29.999954
 50
270
 51
90
  0
CIRCLE
  8
0-3
  6
DASHED1
 62
    3
 10
477.49992
 20
1450.93
 40
24.999999
  0
TEXT
  8
0-8
 10
598.99991
 20
1576.8115
 40
18
 41
1
 50
0
  1
305φ
  0
TEXT
  8
0-8
 10
1162.9997
 20
1428.6802
 40
18
 41
1
 50
90
  1
55
  0
TEXT
  8
0-8
 10
1162.9997
 20
1307.1801
 40
18
 41
1
 50
90
  1
180
  0
TEXT
  8
0-8
 10
1120
 20
592.2503
 40
18
 41
1
 50
90
  1
450
  0
TEXT
  8
0-8
 10
609.23438
 20
606.8221
 40
18
 41
1
 50
19.303771
  1
305φ
  0
TEXT
  8
0-d
 10
243.60423
 20
1120.4008
 40
18
 41
1
 50
0
  1
3
  0
TEXT
  8
0-d
 10
281.33031
 20
1147.4863
 40
18
 41
1
 50
0
  1
10
  0
TEXT
  8
0-8
 10
1124.0003
 20
908.25035
 40
18
 41
1
 50
90
  1
185
  0
TEXT
  8
0-8
 10
1124.0003
 20
273.25033
 40
18
 41
1
 50
90
  1
185
  0
TEXT
  8
1-0
 10
178.4991
 20
1474.2647
 40
18
 41
1
 50
90
  1
10
  0
TEXT
  8
1-0
 10
178.4991
 20
1534.2649
 40
18
 41
1
 50
90
  1
10
  0
TEXT
  8
0-d
 10
153.00002
 20
1663.6207
 40
30
 41
1
 50
0
  1
ＳＴ－３０・ＤＳ－３０・ＡＳ－３００　直付型　切妻　 (1/6)
  0
TEXT
  8
0-d
 10
153.00005
 20
70.49999
 40
15
 41
1
 50
0
  1
図
  0
TEXT
  8
0-d
 10
153.00005
 20
34.500002
 40
15
 41
1
 50
0
  1
番
  0
TEXT
  8
0-d
 10
393.00025
 20
70.49999
 40
15
 41
1
 50
0
  1
承
  0
TEXT
  8
0-d
 10
393.00025
 20
34.500002
 40
15
 41
1
 50
0
  1
認
  0
TEXT
  8
0-d
 10
612.00023
 20
118.50001
 40
15
 41
1
 50
0
  1
尺
  0
TEXT
  8
0-d
 10
612.00023
 20
94.500014
 40
15
 41
1
 50
0
  1
度
  0
TEXT
  8
0-d
 10
513.0002
 20
70.49999
 40
15
 41
1
 50
0
  1
製
  0
TEXT
  8
0-d
 10
513.0002
 20
34.500002
 40
15
 41
1
 50
0
  1
図
  0
TEXT
  8
0-d
 10
933.00024
 20
118.50001
 40
15
 41
1
 50
0
  1
日
  0
TEXT
  8
0-d
 10
933.00024
 20
94.500014
 40
15
 41
1
 50
0
  1
付
  0
TEXT
  8
0-d
 10
666.85585
 20
74.089365
 40
12
 41
1
 50
0
  1
株式
  0
TEXT
  8
0-d
 10
666.85585
 20
61.111115
 40
12
 41
1
 50
0
  1
会社
  0
TEXT
  8
0-d
 10
650.6096
 20
102.06046
 40
24
 41
1
 50
0
  1
１／６　　１／１
  0
TEXT
  8
0-d
 10
742.75089
 20
32.414594
 40
12
 41
1
 50
0
  1
TEL(054)296-7000  FAX(054)296-7001
  0
TEXT
  8
0-d
 10
182.15474
 20
63.341228
 40
18
 41
1
 50
0
  1
30-A10
  0
TEXT
  8
0-8
 10
120.00026
 20
592.2503
 40
18
 41
1
 50
90
  1
≒ 820
  0
TEXT
  8
0-8
 10
617.24999
 20
1110.3243
 40
15
 41
1
 50
0
  1
450
  0
TEXT
  8
0-d
 10
741.40774
 20
47.187652
 40
12
 41
1
 50
0
  1
〒421-2114　静岡市葵区安倍口新田１５２番地
  0
TEXT
  8
0-d
 10
704.5348
 20
61.948414
 40
24
 41
1
 50
0
  1
スズキベンチレーター
  0
POINT
  8
0-8
 62
    2
 10
1129.9997
 20
1230.9303
  0
POINT
  8
0-8
 62
    2
 10
1129.9997
 20
1410.9303
  0
POINT
  8
0-8
 62
    2
 10
1129.9997
 20
1460.9301
  0
POINT
  8
0-8
 62
    2
 10
130.00021
 20
193.50026
  0
POINT
  8
0-8
 62
    2
 10
130.00021
 20
1013.5002
  0
POINT
  8
0-8
 62
    2
 10
1130.0002
 20
378.50037
  0
POINT
  8
0-8
 62
    2
 10
1130.0002
 20
828.50037
  0
POINT
  8
0-8
 62
    2
 10
486.07371
 20
553.08716
  0
POINT
  8
0-8
 62
    2
 10
773.92645
 20
653.91285
  0
POINT
  8
0-8
 62
    2
 10
782.50002
 20
1566.8114
  0
POINT
  8
0-8
 62
    2
 10
477.5
 20
1566.8114
  0
POINT
  8
0-8
 62
    2
 10
1130.0002
 20
1013.5002
  0
POINT
  8
0-8
 62
    2
 10
1130.0002
 20
193.50026
  0
POINT
  8
1-0
 62
    2
 10
154.49909
 20
1452.5149
  0
POINT
  8
1-0
 62
    2
 10
154.49909
 20
1512.5145
  0
POINT
  8
1-0
 62
    2
 10
154.49909
 20
1572.5148
  0
POINT
  8
0-8
 62
    2
 10
405.03392
 20
1104.3243
  0
POINT
  8
0-8
 62
    2
 10
854.96606
 20
1104.3243
  0
ENDSEC
  0
EOF
