  0
SECTION
  2
HEADER
  9
$EXTMIN
 10
0
 20
0
  9
$EXTMAX
 10
8400
 20
5940
  0
ENDSEC
  0
SECTION
  2
TABLES
  0
TABLE
  2
LTYPE
 70
     9
  0
LTYPE
  2
CONTINUOUS
 70
    64
  3
実線
 72
    65
 73
     0
 40
0.0
  0
LTYPE
  2
DASHED1
 70
    64
  3
--  --  --  --  --  --  --  --  
 72
    65
 73
     2
 40
2.5
 49
1.25
 49
-1.25
  0
LTYPE
  2
DASHED2
 70
    64
  3
----    ----    ----    ----    
 72
    65
 73
     2
 40
5.0
 49
2.5
 49
-2.5
  0
LTYPE
  2
DASHED3
 70
    64
  3
------  ------  ------  ------  
 72
    65
 73
     2
 40
5.0
 49
3.75
 49
-1.25
  0
LTYPE
  2
CENTER1
 70
    64
  3
----- - ----- - ----- - ----- - 
 72
    65
 73
     4
 40
10.0
 49
6.25
 49
-1.25
 49
1.25
 49
-1.25
  0
LTYPE
  2
CENTER2
 70
    64
  3
----------  --  ----------  --  
 72
    65
 73
     4
 40
20.0
 49
12.5
 49
-2.5
 49
2.5
 49
-2.5
  0
LTYPE
  2
PHANTOM1
 70
    64
  3
--- - - --- - - --- - - --- - - 
 72
    65
 73
     6
 40
10.0
 49
3.25
 49
-1.25
 49
1.25
 49
-1.25
 49
1.25
 49
-1.25
  0
LTYPE
  2
PHANTOM2
 70
    64
  3
--------  -  -  --------  -  -  
 72
    65
 73
     6
 40
20.0
 49
10.0
 49
-2.5
 49
1.25
 49
-2.5
 49
1.25
 49
-2.5
  0
LTYPE
  2
DOT
 70
    64
  3
-   -   -   -   -   -   -   -   
 72
    65
 73
     2
 40
2.5
 49
0.625
 49
-1.875
  0
ENDTAB
  0
TABLE
  2
STYLE
 70
    1
  0
STYLE
  2
STANDARD
 70
    64
 40
0.0
 41
1.0
 42
0.0
 50
0.0
 71
     0
  3
TXT
  4
BIGFONT
  0
ENDTAB
  0
TABLE
  2
LAYER
 70
    7
  0
LAYER
  2
0-1
 70
   64
 62
    7
  6
CONTINUOUS
  0
LAYER
  2
0-2
 70
   64
 62
    7
  6
CONTINUOUS
  0
LAYER
  2
0-8
 70
   64
 62
    7
  6
CONTINUOUS
  0
LAYER
  2
0-d
 70
   64
 62
    7
  6
CONTINUOUS
  0
LAYER
  2
3-2
 70
   64
 62
    7
  6
CONTINUOUS
  0
LAYER
  2
3-8
 70
   64
 62
    7
  6
CONTINUOUS
  0
LAYER
  2
ADD_LINE
 70
   64
 62
    7
  6
CONTINUOUS
  0
ENDTAB
  0
ENDSEC
  0
SECTION
  2
ENTITIES
  0
LINE
  8
0-8
  6
CONTINUOUS
 62
    7
 10
3289.9397
 20
3743.8379
 11
3289.9397
 21
4393.8386
  0
LINE
  8
0-8
  6
CONTINUOUS
 62
    7
 10
2861.5407
 20
4393.8386
 11
3289.9397
 21
4393.8386
  0
LINE
  8
0-8
  6
CONTINUOUS
 62
    7
 10
1255.4112
 20
3517.5633
 11
2655.4114
 21
3517.5633
  0
LINE
  8
0-2
  6
CONTINUOUS
 62
    3
 10
1352.9114
 20
4273.8382
 11
2557.9112
 21
4273.8382
  0
LINE
  8
0-2
  6
CONTINUOUS
 62
    3
 10
1352.9114
 20
4393.8386
 11
2557.9112
 21
4393.8386
  0
LINE
  8
0-8
  6
CONTINUOUS
 62
    7
 10
1352.9114
 20
4563.1617
 11
2557.9112
 21
4563.1617
  0
LINE
  8
0-8
  6
CONTINUOUS
 62
    7
 10
827.69614
 20
3204.1219
 11
620.88147
 21
3204.1219
  0
LINE
  8
0-8
  6
CONTINUOUS
 62
    7
 10
827.69614
 20
1204.1217
 11
620.88147
 21
1204.1217
  0
LINE
  8
0-8
  6
CONTINUOUS
 62
    7
 10
3079.1526
 20
2904.1219
 11
3427.4227
 21
2904.1219
  0
LINE
  8
0-8
  6
CONTINUOUS
 62
    7
 10
3079.1526
 20
1504.1218
 11
3427.4227
 21
1504.1218
  0
LINE
  8
0-8
  6
CONTINUOUS
 62
    7
 10
1352.9114
 20
4423.8456
 11
1352.9114
 21
4563.1617
  0
LINE
  8
0-8
  6
CONTINUOUS
 62
    7
 10
2557.9112
 20
4423.8456
 11
2557.9112
 21
4563.1617
  0
LINE
  8
0-d
  6
CONTINUOUS
 62
    7
 10
942.98727
 20
3835.8825
 11
1107.269
 21
3835.8825
  0
LINE
  8
0-d
  6
CONTINUOUS
 62
    7
 10
942.98727
 20
3835.8825
 11
1107.269
 21
3885.1646
  0
LINE
  8
0-d
  6
CONTINUOUS
 62
    7
 10
1107.269
 20
3835.8825
 11
1107.269
 21
3885.1646
  0
LINE
  8
0-2
  6
CONTINUOUS
 62
    3
 10
1352.9114
 20
4393.8386
 11
1352.9114
 21
4369.7815
  0
LINE
  8
0-2
  6
CONTINUOUS
 62
    3
 10
1352.9114
 20
4345.7254
 11
1352.9114
 21
4273.8382
  0
LINE
  8
0-2
  6
CONTINUOUS
 62
    3
 10
1352.9114
 20
4345.7254
 11
2557.9112
 21
4345.7254
  0
LINE
  8
0-2
  6
CONTINUOUS
 62
    3
 10
2557.9112
 20
4345.7254
 11
2557.9112
 21
4273.8382
  0
LINE
  8
0-2
  6
CONTINUOUS
 62
    3
 10
1352.9114
 20
4369.7815
 11
2557.9127
 21
4369.7815
  0
LINE
  8
0-2
  6
CONTINUOUS
 62
    3
 10
2557.9127
 20
4393.8386
 11
2557.9127
 21
4369.7815
  0
LINE
  8
0-2
  6
CONTINUOUS
 62
    3
 10
955.41073
 20
3204.1219
 11
2955.4105
 21
3204.1219
  0
LINE
  8
0-2
  6
CONTINUOUS
 62
    3
 10
955.41073
 20
3204.1219
 11
955.41073
 21
1204.1217
  0
LINE
  8
0-2
  6
CONTINUOUS
 62
    3
 10
955.41073
 20
1204.1217
 11
2955.4105
 21
1204.1217
  0
LINE
  8
0-2
  6
CONTINUOUS
 62
    3
 10
2955.4105
 20
3204.1219
 11
2955.4105
 21
1204.1217
  0
LINE
  8
0-2
  6
CONTINUOUS
 62
    3
 10
2655.4114
 20
2904.1219
 11
2655.4114
 21
1504.1218
  0
LINE
  8
0-2
  6
CONTINUOUS
 62
    3
 10
1255.4117
 20
2904.1219
 11
1255.4117
 21
1504.1218
  0
LINE
  8
0-2
  6
CONTINUOUS
 62
    3
 10
1255.4117
 20
2904.1219
 11
1415.7804
 21
2743.7526
  0
LINE
  8
0-2
  6
CONTINUOUS
 62
    3
 10
2655.4114
 20
2904.1219
 11
1255.4117
 21
2904.1219
  0
LINE
  8
0-2
  6
CONTINUOUS
 62
    3
 10
2655.4114
 20
2904.1219
 11
2495.0422
 21
2743.7526
  0
LINE
  8
0-2
  6
CONTINUOUS
 62
    3
 10
2655.4114
 20
1504.1218
 11
2495.0422
 21
1664.4902
  0
LINE
  8
0-2
  6
CONTINUOUS
 62
    3
 10
2655.4114
 20
1504.1218
 11
1255.4117
 21
1504.1218
  0
LINE
  8
0-2
  6
CONTINUOUS
 62
    3
 10
1255.4117
 20
1504.1218
 11
1415.7804
 21
1664.4902
  0
LINE
  8
0-1
  6
CENTER2
 62
    7
 10
955.41073
 20
2204.122
 11
2955.4105
 21
2204.122
  0
LINE
  8
0-8
  6
CONTINUOUS
 62
    7
 10
620.88147
 20
1204.1217
 11
620.88147
 21
3204.1219
  0
LINE
  8
0-8
  6
CONTINUOUS
 62
    7
 10
1388.1711
 20
2001.0407
 11
2522.657
 21
2407.2028
  0
LINE
  8
0-8
  6
CONTINUOUS
 62
    7
 10
3427.4227
 20
1504.1218
 11
3427.4227
 21
2904.1219
  0
LINE
  8
3-2
  6
CONTINUOUS
 62
    3
 10
759.57459
 20
5313.9436
 11
1056.1817
 21
5313.9436
  0
LINE
  8
3-2
  6
CONTINUOUS
 62
    3
 10
759.57459
 20
4813.9429
 11
1056.1817
 21
4813.9429
  0
LINE
  8
3-2
  6
CONTINUOUS
 62
    3
 10
759.57459
 20
4573.9426
 11
1056.1817
 21
4573.9426
  0
LINE
  8
3-2
  6
CONTINUOUS
 62
    3
 10
759.57459
 20
5313.9436
 11
759.57459
 21
4813.9429
  0
LINE
  8
3-2
  6
CONTINUOUS
 62
    3
 10
759.57459
 20
4573.9426
 11
759.57459
 21
4446.5072
  0
LINE
  8
3-8
  6
CONTINUOUS
 62
    7
 10
490.94995
 20
4573.9426
 11
490.94995
 21
4813.9429
  0
LINE
  8
3-8
  6
CONTINUOUS
 62
    7
 10
647.64766
 20
4573.9426
 11
490.94995
 21
4573.9426
  0
LINE
  8
3-8
  6
CONTINUOUS
 62
    7
 10
647.64766
 20
4813.9429
 11
490.94995
 21
4813.9429
  0
LINE
  8
3-8
  6
CONTINUOUS
 62
    7
 10
490.94995
 20
4813.9429
 11
490.94995
 21
5313.9436
  0
LINE
  8
3-8
  6
CONTINUOUS
 62
    7
 10
647.64766
 20
5313.9436
 11
490.94995
 21
5313.9436
  0
LINE
  8
0-8
  6
CONTINUOUS
 62
    7
 10
3427.4227
 20
1204.1217
 11
3427.4227
 21
1504.1218
  0
LINE
  8
0-8
  6
CONTINUOUS
 62
    7
 10
3079.1526
 20
1204.1217
 11
3427.4227
 21
1204.1217
  0
LINE
  8
0-8
  6
CONTINUOUS
 62
    7
 10
3427.4227
 20
2904.1219
 11
3427.4227
 21
3204.1219
  0
LINE
  8
0-8
  6
CONTINUOUS
 62
    7
 10
3079.1526
 20
3204.1219
 11
3427.4227
 21
3204.1219
  0
LINE
  8
0-d
  6
CONTINUOUS
 62
    7
 10
355.4107
 20
484.39143
 11
3555.4115
 21
484.39143
  0
LINE
  8
0-d
  6
CONTINUOUS
 62
    7
 10
355.4107
 20
284.39138
 11
355.4107
 21
644.39135
  0
LINE
  8
0-d
  6
CONTINUOUS
 62
    7
 10
355.4107
 20
284.39138
 11
3555.4115
 21
284.39138
  0
LINE
  8
0-d
  6
CONTINUOUS
 62
    7
 10
1955.4111
 20
644.39135
 11
1955.4111
 21
284.39138
  0
LINE
  8
0-d
  6
CONTINUOUS
 62
    7
 10
1155.4109
 20
284.39138
 11
1155.4109
 21
484.39143
  0
LINE
  8
0-d
  6
CONTINUOUS
 62
    7
 10
1955.4111
 20
484.39143
 11
1955.4111
 21
644.39135
  0
LINE
  8
0-d
  6
CONTINUOUS
 62
    7
 10
1555.4107
 20
284.39138
 11
1555.4107
 21
484.39143
  0
LINE
  8
0-d
  6
CONTINUOUS
 62
    7
 10
425.41044
 20
284.39138
 11
425.41044
 21
484.39143
  0
LINE
  8
0-d
  6
CONTINUOUS
 62
    7
 10
1225.4106
 20
284.39138
 11
1225.4106
 21
484.39143
  0
LINE
  8
0-d
  6
CONTINUOUS
 62
    7
 10
1625.4105
 20
284.39138
 11
1625.4105
 21
484.39143
  0
LINE
  8
0-d
  6
CONTINUOUS
 62
    7
 10
1885.4108
 20
484.39143
 11
1885.4108
 21
644.39135
  0
LINE
  8
0-d
  6
CONTINUOUS
 62
    7
 10
2955.4109
 20
484.39143
 11
2955.4109
 21
644.39135
  0
LINE
  8
0-d
  6
CONTINUOUS
 62
    7
 10
3025.4107
 20
484.39143
 11
3025.4107
 21
644.39135
  0
LINE
  8
0-d
  6
CONTINUOUS
 62
    7
 10
355.41119
 20
5624.6593
 11
3555.4115
 21
5624.6593
  0
LINE
  8
0-d
  6
CONTINUOUS
 62
    7
 10
355.41119
 20
5644.6593
 11
3555.4115
 21
5644.6593
  0
LINE
  8
0-d
  6
CONTINUOUS
 62
    7
 10
3555.4115
 20
644.39135
 11
3555.4115
 21
284.39138
  0
LINE
  8
0-d
  6
CONTINUOUS
 62
    7
 10
355.4107
 20
644.39135
 11
3555.4115
 21
644.39135
  0
LINE
  8
0-1
  6
CENTER2
 62
    7
 10
1955.4111
 20
804.12181
 11
1955.4111
 21
4990.3378
  0
LINE
  8
0-2
  6
CONTINUOUS
 62
    3
 10
2655.4114
 20
3743.8379
 11
2557.9112
 21
4273.8382
  0
LINE
  8
0-2
  6
CONTINUOUS
 62
    3
 10
1352.9114
 20
4273.8382
 11
1255.4112
 21
3743.8379
  0
LINE
  8
0-2
  6
CONTINUOUS
 62
    3
 10
955.41073
 20
3652.1186
 11
1955.4111
 21
3957.8494
  0
LINE
  8
0-2
  6
CONTINUOUS
 62
    3
 10
2955.4114
 20
3652.1186
 11
1955.4111
 21
3957.8494
  0
LINE
  8
0-8
  6
CONTINUOUS
 62
    7
 10
2861.5407
 20
4273.8382
 11
3289.9397
 21
4273.8382
  0
LINE
  8
0-8
  6
CONTINUOUS
 62
    7
 10
2861.5407
 20
3743.8379
 11
3289.9397
 21
3743.8379
  0
LINE
  8
0-8
  6
CONTINUOUS
 62
    7
 10
2655.4114
 20
3667.1189
 11
2655.4114
 21
3517.5633
  0
LINE
  8
0-8
  6
CONTINUOUS
 62
    7
 10
1255.4112
 20
3667.1189
 11
1255.4112
 21
3517.5633
  0
ARC
  8
0-2
  6
CONTINUOUS
 62
    3
 10
1352.9114
 20
4357.7539
 40
12.028151
 50
270
 51
90
  0
ARC
  8
0-2
  6
CONTINUOUS
 62
    3
 10
2557.9127
 20
4357.7539
 40
12.028151
 50
90
 51
270
  0
CIRCLE
  8
0-2
  6
CONTINUOUS
 62
    3
 10
1955.4081
 20
2204.122
 40
602.50003
  0
CIRCLE
  8
0-2
  6
DASHED1
 62
    3
 10
1352.9114
 20
4369.7815
 40
92.401736
  0
ARC
  8
3-2
  6
CONTINUOUS
 62
    3
 10
759.57459
 20
4693.943
 40
119.99991
 50
270
 51
90
  0
TEXT
  8
0-d
 10
1152.0729
 20
3865.7505
 40
50
 41
1
 50
0.0011291
  1
3
  0
TEXT
  8
0-d
 10
992.01351
 20
3760.019
 40
50
 41
1
 50
0
  1
10
  0
TEXT
  8
0-8
 10
3541.7808
 20
2140.8779
 40
60
 41
1
 50
90
  1
1,400
  0
TEXT
  8
0-8
 10
1852.7597
 20
2188.613
 40
60
 41
1
 50
19.698059
  1
1,205φ
  0
TEXT
  8
0-8
 10
1853.5361
 20
4583.1617
 40
60
 41
1
 50
0
  1
1,205φ
  0
TEXT
  8
0-8
 10
1861.6611
 20
3537.5634
 40
60
 41
1
 50
0
  1
1,400
  0
TEXT
  8
3-8
 10
470.94964
 20
4674.5675
 40
60
 41
1
 50
90
  1
12
  0
TEXT
  8
3-8
 10
470.94964
 20
5044.5677
 40
60
 41
1
 50
90
  1
25
  0
TEXT
  8
0-8
 10
3525.5645
 20
1346.2831
 40
60
 41
1
 50
90
  1
300
  0
TEXT
  8
0-8
 10
3541.7808
 20
3000.3374
 40
60
 41
1
 50
90
  1
300
  0
TEXT
  8
0-8
 10
3369.9392
 20
4274.1143
 40
60
 41
1
 50
90
  1
120
  0
TEXT
  8
0-8
 10
3369.9397
 20
3973.6224
 40
60
 41
1
 50
90
  1
530
  0
TEXT
  8
0-d
 10
365.41073
 20
419.39134
 40
50
 41
1
 50
0
  1
図
  0
TEXT
  8
0-d
 10
365.41073
 20
299.3914
 40
50
 41
1
 50
0
  1
番
  0
TEXT
  8
0-d
 10
1165.4109
 20
419.39134
 40
50
 41
1
 50
0
  1
承
  0
TEXT
  8
0-d
 10
1165.4109
 20
299.3914
 40
50
 41
1
 50
0
  1
認
  0
TEXT
  8
0-d
 10
1895.4109
 20
579.39144
 40
50
 41
1
 50
0
  1
尺
  0
TEXT
  8
0-d
 10
1895.4109
 20
499.39148
 40
50
 41
1
 50
359.99986
  1
度
  0
TEXT
  8
0-d
 10
1565.4107
 20
419.39134
 40
50
 41
1
 50
0
  1
製
  0
TEXT
  8
0-d
 10
1565.4107
 20
299.3914
 40
50
 41
1
 50
0
  1
図
  0
TEXT
  8
0-d
 10
2965.411
 20
579.39144
 40
50
 41
1
 50
0
  1
日
  0
TEXT
  8
0-d
 10
2965.411
 20
499.39148
 40
50
 41
1
 50
359.99986
  1
付
  0
TEXT
  8
0-d
 10
2078.263
 20
431.35595
 40
40
 41
1
 50
0
  1
株式
  0
TEXT
  8
0-d
 10
2078.263
 20
388.09509
 40
40
 41
1
 50
0.0000152
  1
会社
  0
TEXT
  8
0-d
 10
2203.8595
 20
390.88608
 40
80
 41
1
 50
0
  1
スズキベンチレーター
  0
TEXT
  8
0-d
 10
2331.2464
 20
292.44017
 40
40
 41
1
 50
0
  1
TEL(054)296-7000  FAX(054)296-7001
  0
TEXT
  8
0-d
 10
365.41123
 20
5654.6594
 40
100
 41
1
 50
0
  1
ＳＴ－１２０・ＤＳ－１２００　 直付型　切妻　   (1/20)
  0
TEXT
  8
0-d
 10
452.08643
 20
397.16295
 40
60
 41
1
 50
0
  1
120-H07
  0
TEXT
  8
0-d
 10
2024.1088
 20
524.59286
 40
80
 41
1
 50
0
  1
１／２０　　１／１
  0
TEXT
  8
0-8
 10
615.88146
 20
2110.3717
 40
60
 41
1
 50
90
  1
≒ 2,000
  0
TEXT
  8
0-d
 10
2326.7693
 20
341.68357
 40
40
 41
1
 50
0
  1
〒421-2114　静岡市葵区安倍口新田１５２番地
  0
POINT
  8
0-8
 62
    2
 10
3289.9397
 20
3743.8379
  0
POINT
  8
0-8
 62
    2
 10
3289.9397
 20
4273.8382
  0
POINT
  8
0-8
 62
    2
 10
3289.9397
 20
4393.8386
  0
POINT
  8
0-8
 62
    2
 10
620.88147
 20
1204.1217
  0
POINT
  8
0-8
 62
    2
 10
620.88147
 20
3204.1219
  0
POINT
  8
0-8
 62
    2
 10
3427.4227
 20
1504.1218
  0
POINT
  8
0-8
 62
    2
 10
3427.4227
 20
2904.1219
  0
POINT
  8
0-8
 62
    2
 10
1255.4112
 20
3517.5633
  0
POINT
  8
0-8
 62
    2
 10
2655.4114
 20
3517.5633
  0
POINT
  8
0-8
 62
    2
 10
1388.1711
 20
2001.0407
  0
POINT
  8
0-8
 62
    2
 10
2522.657
 20
2407.2028
  0
POINT
  8
0-8
 62
    2
 10
1352.9114
 20
4563.1617
  0
POINT
  8
0-8
 62
    2
 10
2557.9112
 20
4563.1617
  0
POINT
  8
3-8
 62
    2
 10
490.94995
 20
4573.9426
  0
POINT
  8
3-8
 62
    2
 10
490.94995
 20
4813.9429
  0
POINT
  8
3-8
 62
    2
 10
490.94995
 20
5313.9436
  0
POINT
  8
0-8
 62
    2
 10
3427.4227
 20
1204.1217
  0
POINT
  8
0-8
 62
    2
 10
3427.4227
 20
3204.1219
  0
ENDSEC
  0
EOF
