  0
SECTION
  2
HEADER
  9
$EXTMIN
 10
0
 20
0
  9
$EXTMAX
 10
8400
 20
5940
  0
ENDSEC
  0
SECTION
  2
TABLES
  0
TABLE
  2
LTYPE
 70
     9
  0
LTYPE
  2
CONTINUOUS
 70
    64
  3
実線
 72
    65
 73
     0
 40
0.0
  0
LTYPE
  2
DASHED1
 70
    64
  3
--  --  --  --  --  --  --  --  
 72
    65
 73
     2
 40
2.5
 49
1.25
 49
-1.25
  0
LTYPE
  2
DASHED2
 70
    64
  3
----    ----    ----    ----    
 72
    65
 73
     2
 40
5.0
 49
2.5
 49
-2.5
  0
LTYPE
  2
DASHED3
 70
    64
  3
------  ------  ------  ------  
 72
    65
 73
     2
 40
5.0
 49
3.75
 49
-1.25
  0
LTYPE
  2
CENTER1
 70
    64
  3
----- - ----- - ----- - ----- - 
 72
    65
 73
     4
 40
10.0
 49
6.25
 49
-1.25
 49
1.25
 49
-1.25
  0
LTYPE
  2
CENTER2
 70
    64
  3
----------  --  ----------  --  
 72
    65
 73
     4
 40
20.0
 49
12.5
 49
-2.5
 49
2.5
 49
-2.5
  0
LTYPE
  2
PHANTOM1
 70
    64
  3
--- - - --- - - --- - - --- - - 
 72
    65
 73
     6
 40
10.0
 49
3.25
 49
-1.25
 49
1.25
 49
-1.25
 49
1.25
 49
-1.25
  0
LTYPE
  2
PHANTOM2
 70
    64
  3
--------  -  -  --------  -  -  
 72
    65
 73
     6
 40
20.0
 49
10.0
 49
-2.5
 49
1.25
 49
-2.5
 49
1.25
 49
-2.5
  0
LTYPE
  2
DOT
 70
    64
  3
-   -   -   -   -   -   -   -   
 72
    65
 73
     2
 40
2.5
 49
0.625
 49
-1.875
  0
ENDTAB
  0
TABLE
  2
STYLE
 70
    1
  0
STYLE
  2
STANDARD
 70
    64
 40
0.0
 41
1.0
 42
0.0
 50
0.0
 71
     0
  3
TXT
  4
BIGFONT
  0
ENDTAB
  0
TABLE
  2
LAYER
 70
    8
  0
LAYER
  2
1-1
 70
   64
 62
    7
  6
CONTINUOUS
  0
LAYER
  2
1-2
 70
   64
 62
    7
  6
CONTINUOUS
  0
LAYER
  2
1-8
 70
   64
 62
    7
  6
CONTINUOUS
  0
LAYER
  2
1-d
 70
   64
 62
    7
  6
CONTINUOUS
  0
LAYER
  2
2-2
 70
   64
 62
    7
  6
CONTINUOUS
  0
LAYER
  2
2-7
 70
   64
 62
    7
  6
CONTINUOUS
  0
LAYER
  2
2-8
 70
   64
 62
    7
  6
CONTINUOUS
  0
LAYER
  2
ADD_LINE
 70
   64
 62
    7
  6
CONTINUOUS
  0
ENDTAB
  0
ENDSEC
  0
SECTION
  2
ENTITIES
  0
LINE
  8
1-d
  6
CONTINUOUS
 62
    7
 10
500.00006
 20
5515.4027
 11
3700.0002
 21
5515.4027
  0
LINE
  8
1-d
  6
CONTINUOUS
 62
    7
 10
500.00006
 20
5535.4028
 11
3700.0002
 21
5535.4028
  0
LINE
  8
1-8
  6
CONTINUOUS
 62
    7
 10
3632.7622
 20
3830.1937
 11
3632.7622
 21
4630.1936
  0
LINE
  8
1-8
  6
CONTINUOUS
 62
    7
 10
3198.3395
 20
4470.1936
 11
3632.7622
 21
4470.1936
  0
LINE
  8
1-8
  6
CONTINUOUS
 62
    7
 10
3198.3395
 20
4630.1936
 11
3632.7622
 21
4630.1936
  0
LINE
  8
1-8
  6
CONTINUOUS
 62
    7
 10
1429.9164
 20
1693.4887
 11
2770.0837
 21
2162.9067
  0
LINE
  8
1-d
  6
CONTINUOUS
 62
    7
 10
683.4741
 20
3920.312
 11
902.51626
 21
3920.312
  0
LINE
  8
1-d
  6
CONTINUOUS
 62
    7
 10
683.4741
 20
3920.312
 11
902.51626
 21
3986.0219
  0
LINE
  8
1-d
  6
CONTINUOUS
 62
    7
 10
902.51626
 20
3920.312
 11
902.51626
 21
3986.0219
  0
LINE
  8
1-2
  6
CONTINUOUS
 62
    3
 10
3233.3334
 20
3061.5322
 11
966.66701
 21
3061.5322
  0
LINE
  8
1-2
  6
CONTINUOUS
 62
    3
 10
3233.3334
 20
3061.5322
 11
3233.3334
 21
794.86558
  0
LINE
  8
1-2
  6
CONTINUOUS
 62
    3
 10
966.66701
 20
3061.5322
 11
966.66701
 21
794.86558
  0
LINE
  8
1-2
  6
CONTINUOUS
 62
    3
 10
2933.3334
 20
2761.5324
 11
2738.9466
 21
2567.1454
  0
LINE
  8
1-8
  6
CONTINUOUS
 62
    7
 10
567.238
 20
794.86558
 11
567.238
 21
3061.5322
  0
LINE
  8
1-1
  6
CENTER2
 62
    7
 10
3233.3334
 20
1928.199
 11
966.66701
 21
1928.199
  0
LINE
  8
2-2
  6
CONTINUOUS
 62
    3
 10
1054.0541
 20
5289.1892
 11
762.1622
 21
5289.1892
  0
LINE
  8
2-2
  6
CONTINUOUS
 62
    3
 10
1054.0541
 20
4789.1895
 11
762.1622
 21
4789.1895
  0
LINE
  8
2-2
  6
CONTINUOUS
 62
    3
 10
1054.0541
 20
4549.1892
 11
762.1622
 21
4549.1892
  0
LINE
  8
2-2
  6
CONTINUOUS
 62
    3
 10
762.1622
 20
5289.1892
 11
762.1622
 21
4789.1895
  0
LINE
  8
2-2
  6
CONTINUOUS
 62
    3
 10
762.1622
 20
4549.1892
 11
762.1622
 21
4230.1121
  0
LINE
  8
2-8
  6
CONTINUOUS
 62
    7
 10
405.40542
 20
4549.1892
 11
405.40542
 21
4789.1895
  0
LINE
  8
2-8
  6
CONTINUOUS
 62
    7
 10
648.64868
 20
4549.1892
 11
405.40542
 21
4549.1892
  0
LINE
  8
2-8
  6
CONTINUOUS
 62
    7
 10
648.64868
 20
4789.1895
 11
405.40542
 21
4789.1895
  0
LINE
  8
2-8
  6
CONTINUOUS
 62
    7
 10
405.40542
 20
4789.1895
 11
405.40542
 21
5289.1892
  0
LINE
  8
2-8
  6
CONTINUOUS
 62
    7
 10
648.64868
 20
5289.1892
 11
405.40542
 21
5289.1892
  0
LINE
  8
1-2
  6
CONTINUOUS
 62
    3
 10
2803.3334
 20
4630.1936
 11
2803.3334
 21
4596.8605
  0
LINE
  8
1-2
  6
CONTINUOUS
 62
    3
 10
2803.3334
 20
4580.8601
 11
2803.3334
 21
4467.0996
  0
LINE
  8
1-8
  6
CONTINUOUS
 62
    3
 10
2803.3334
 20
4467.0996
 11
2933.3334
 21
3830.1937
  0
LINE
  8
1-2
  6
CONTINUOUS
 62
    3
 10
1396.6667
 20
4630.1936
 11
1396.6667
 21
4596.8605
  0
LINE
  8
1-2
  6
CONTINUOUS
 62
    3
 10
1396.6667
 20
4580.8601
 11
1396.6667
 21
4467.0996
  0
LINE
  8
1-8
  6
CONTINUOUS
 62
    3
 10
2803.3334
 20
4596.8605
 11
1396.6667
 21
4596.8605
  0
LINE
  8
1-8
  6
CONTINUOUS
 62
    3
 10
2803.3334
 20
4580.8601
 11
1396.6667
 21
4580.8601
  0
LINE
  8
1-8
  6
CONTINUOUS
 62
    7
 10
2803.3334
 20
4896.04
 11
1396.6667
 21
4896.04
  0
LINE
  8
1-2
  6
CONTINUOUS
 62
    3
 10
2803.3334
 20
4630.1936
 11
1396.6667
 21
4630.1936
  0
LINE
  8
1-2
  6
CONTINUOUS
 62
    3
 10
2803.3334
 20
4467.0996
 11
1396.6667
 21
4467.0996
  0
LINE
  8
1-8
  6
CONTINUOUS
 62
    3
 10
1396.6667
 20
4467.0996
 11
1266.6667
 21
3830.1937
  0
LINE
  8
1-8
  6
CONTINUOUS
 62
    7
 10
3632.7622
 20
794.86551
 11
3632.7622
 21
1094.8657
  0
LINE
  8
1-8
  6
CONTINUOUS
 62
    7
 10
3308.1082
 20
794.86551
 11
3632.7622
 21
794.86551
  0
LINE
  8
1-8
  6
CONTINUOUS
 62
    7
 10
3308.1082
 20
1094.8657
 11
3632.7622
 21
1094.8657
  0
LINE
  8
1-8
  6
CONTINUOUS
 62
    7
 10
3632.7622
 20
1094.8657
 11
3632.7622
 21
2761.5324
  0
LINE
  8
1-8
  6
CONTINUOUS
 62
    7
 10
3308.1082
 20
2761.5324
 11
3632.7622
 21
2761.5324
  0
LINE
  8
1-8
  6
CONTINUOUS
 62
    7
 10
3632.7622
 20
2761.5324
 11
3632.7622
 21
3061.5322
  0
LINE
  8
1-8
  6
CONTINUOUS
 62
    7
 10
3308.1082
 20
3061.5322
 11
3632.7622
 21
3061.5322
  0
LINE
  8
1-d
  6
CONTINUOUS
 62
    7
 10
499.99981
 20
375.13524
 11
3700
 21
375.13524
  0
LINE
  8
1-d
  6
CONTINUOUS
 62
    7
 10
499.99981
 20
175.13519
 11
499.99981
 21
535.13516
  0
LINE
  8
1-d
  6
CONTINUOUS
 62
    7
 10
499.99981
 20
175.13519
 11
3700
 21
175.13519
  0
LINE
  8
1-d
  6
CONTINUOUS
 62
    7
 10
2100.0001
 20
535.13516
 11
2100.0001
 21
175.13519
  0
LINE
  8
1-d
  6
CONTINUOUS
 62
    7
 10
1300
 20
175.13519
 11
1300
 21
375.13524
  0
LINE
  8
1-d
  6
CONTINUOUS
 62
    7
 10
2100.0001
 20
375.13524
 11
2100.0001
 21
535.13516
  0
LINE
  8
1-d
  6
CONTINUOUS
 62
    7
 10
1700
 20
175.13519
 11
1700
 21
375.13524
  0
LINE
  8
1-d
  6
CONTINUOUS
 62
    7
 10
569.99968
 20
175.13519
 11
569.99968
 21
375.13524
  0
LINE
  8
1-d
  6
CONTINUOUS
 62
    7
 10
1369.9996
 20
175.13519
 11
1369.9996
 21
375.13524
  0
LINE
  8
1-d
  6
CONTINUOUS
 62
    7
 10
1769.9996
 20
175.13519
 11
1769.9996
 21
375.13524
  0
LINE
  8
1-d
  6
CONTINUOUS
 62
    7
 10
2029.9999
 20
375.13524
 11
2029.9999
 21
535.13516
  0
LINE
  8
1-d
  6
CONTINUOUS
 62
    7
 10
3099.9999
 20
375.13524
 11
3099.9999
 21
535.13516
  0
LINE
  8
1-d
  6
CONTINUOUS
 62
    7
 10
3169.9997
 20
375.13524
 11
3169.9997
 21
535.13516
  0
LINE
  8
1-8
  6
CONTINUOUS
 62
    7
 10
2933.3334
 20
3448.0216
 11
1266.6667
 21
3448.0216
  0
LINE
  8
1-d
  6
CONTINUOUS
 62
    7
 10
499.99981
 20
535.13516
 11
3700
 21
535.13516
  0
LINE
  8
1-d
  6
CONTINUOUS
 62
    7
 10
3700
 20
535.13516
 11
3700
 21
175.13519
  0
LINE
  8
1-2
  6
CONTINUOUS
 62
    3
 10
2100.0001
 20
4082.4019
 11
3233.3334
 21
3739.3986
  0
LINE
  8
1-8
  6
CONTINUOUS
 62
    7
 10
1396.6667
 20
4674.5007
 11
1396.6667
 21
4896.04
  0
LINE
  8
1-8
  6
CONTINUOUS
 62
    7
 10
2803.3334
 20
4674.5007
 11
2803.3334
 21
4896.04
  0
LINE
  8
1-8
  6
CONTINUOUS
 62
    7
 10
827.02706
 20
3061.5322
 11
567.238
 21
3061.5322
  0
LINE
  8
1-2
  6
CONTINUOUS
 62
    3
 10
3233.3334
 20
794.86558
 11
966.66701
 21
794.86558
  0
LINE
  8
1-8
  6
CONTINUOUS
 62
    7
 10
778.37841
 20
794.86558
 11
567.238
 21
794.86558
  0
LINE
  8
1-2
  6
CONTINUOUS
 62
    3
 10
1266.6667
 20
2761.5324
 11
2933.3334
 21
2761.5324
  0
LINE
  8
1-2
  6
CONTINUOUS
 62
    3
 10
1266.6667
 20
1094.8657
 11
2933.3334
 21
1094.8657
  0
LINE
  8
1-2
  6
CONTINUOUS
 62
    3
 10
2933.3334
 20
2761.5324
 11
2933.3334
 21
1094.8657
  0
LINE
  8
1-d
  6
CENTER2
 62
    7
 10
2100.0001
 20
664.86489
 11
2100.0001
 21
5009.5273
  0
LINE
  8
1-2
  6
CONTINUOUS
 62
    3
 10
2933.3334
 20
1094.8655
 11
2738.9466
 21
1289.2524
  0
LINE
  8
1-2
  6
CONTINUOUS
 62
    3
 10
1266.6667
 20
2761.5324
 11
1461.0535
 21
2567.1454
  0
LINE
  8
1-2
  6
CONTINUOUS
 62
    3
 10
1266.6667
 20
2761.5324
 11
1266.6667
 21
1094.8657
  0
LINE
  8
1-2
  6
CONTINUOUS
 62
    3
 10
1266.6667
 20
1094.8655
 11
1461.0535
 21
1289.2524
  0
LINE
  8
1-2
  6
CONTINUOUS
 62
    3
 10
2100.0001
 20
4082.4019
 11
966.66677
 21
3739.3986
  0
LINE
  8
1-8
  6
CONTINUOUS
 62
    7
 10
3198.3395
 20
3830.1937
 11
3632.7622
 21
3830.1937
  0
LINE
  8
1-8
  6
CONTINUOUS
 62
    7
 10
2933.3334
 20
3681.0812
 11
2933.3334
 21
3448.0216
  0
LINE
  8
1-8
  6
CONTINUOUS
 62
    7
 10
1266.6667
 20
3681.0812
 11
1266.6667
 21
3448.0216
  0
CIRCLE
  8
1-2
  6
CONTINUOUS
 62
    3
 10
2100.0001
 20
1928.198
 40
710.00002
  0
ARC
  8
2-2
  6
CONTINUOUS
 62
    3
 10
762.1622
 20
4669.1891
 40
119.99991
 50
270
 51
90
  0
CIRCLE
  8
2-7
  6
DASHED1
 62
    3
 10
1396.6667
 20
4601.0343
 40
104.43297
  0
ARC
  8
1-2
  6
CONTINUOUS
 62
    3
 10
2803.3334
 20
4588.8603
 40
7.9999773
 50
90
 51
270
  0
ARC
  8
1-2
  6
CONTINUOUS
 62
    3
 10
1396.6667
 20
4588.8603
 40
7.9999773
 50
270
 51
90
  0
TEXT
  8
1-d
 10
962.25491
 20
3960.1369
 40
60
 41
1
 50
0.000473
  1
3
  0
TEXT
  8
1-d
 10
748.84226
 20
3819.1611
 40
60
 41
1
 50
0
  1
10
  0
TEXT
  8
1-8
 10
1961.9113
 20
4916.8512
 40
60
 41
1
 50
0
  1
1,055φ
  0
TEXT
  8
1-8
 10
3721.1165
 20
4099.761
 40
60
 41
1
 50
90
  1
480
  0
TEXT
  8
1-8
 10
3721.1165
 20
4501.6407
 40
60
 41
1
 50
90
  1
120
  0
TEXT
  8
1-8
 10
2001.081
 20
3470.5013
 40
60
 41
1
 50
0
  1
1,250
  0
TEXT
  8
1-8
 10
2157.2485
 20
1976.7697
 40
60
 41
1
 50
19.303771
  1
1,055φ
  0
TEXT
  8
2-8
 10
485.40544
 20
4641.6892
 40
60
 41
1
 50
90
  1
12
  0
TEXT
  8
2-8
 10
485.40544
 20
5011.6894
 40
60
 41
1
 50
90
  1
25
  0
TEXT
  8
1-8
 10
3712.7622
 20
902.36563
 40
60
 41
1
 50
90
  1
225
  0
TEXT
  8
1-8
 10
3712.7622
 20
1855.6989
 40
60
 41
1
 50
90
  1
1,250
  0
TEXT
  8
1-8
 10
3712.7622
 20
2869.0324
 40
60
 41
1
 50
90
  1
225
  0
TEXT
  8
1-d
 10
510.00006
 20
5545.4028
 40
80
 41
1
 50
0
  1
ＳＴ－１０５・ＳＦ－１０５・ＤＳ－１０５０　 直付型　切妻　   (1/15)
  0
TEXT
  8
1-d
 10
509.99972
 20
310.13515
 40
50
 41
1
 50
0
  1
図
  0
TEXT
  8
1-d
 10
509.99972
 20
190.13521
 40
50
 41
1
 50
0
  1
番
  0
TEXT
  8
1-d
 10
1309.9998
 20
310.13515
 40
50
 41
1
 50
0
  1
承
  0
TEXT
  8
1-d
 10
1309.9998
 20
190.13521
 40
50
 41
1
 50
0
  1
認
  0
TEXT
  8
1-d
 10
2039.9997
 20
470.13525
 40
50
 41
1
 50
0
  1
尺
  0
TEXT
  8
1-d
 10
2039.9997
 20
390.13529
 40
50
 41
1
 50
359.99986
  1
度
  0
TEXT
  8
1-d
 10
1709.9997
 20
310.13515
 40
50
 41
1
 50
0
  1
製
  0
TEXT
  8
1-d
 10
1709.9997
 20
190.13521
 40
50
 41
1
 50
0
  1
図
  0
TEXT
  8
1-d
 10
3110
 20
470.13525
 40
50
 41
1
 50
0
  1
日
  0
TEXT
  8
1-d
 10
3110
 20
390.13529
 40
50
 41
1
 50
359.99986
  1
付
  0
TEXT
  8
1-d
 10
2222.852
 20
322.09976
 40
40
 41
1
 50
0
  1
株式
  0
TEXT
  8
1-d
 10
2222.852
 20
278.83889
 40
40
 41
1
 50
0.0000152
  1
会社
  0
TEXT
  8
1-d
 10
2348.4485
 20
281.62989
 40
80
 41
1
 50
0
  1
スズキベンチレーター
  0
TEXT
  8
1-d
 10
2475.8354
 20
183.18397
 40
40
 41
1
 50
0
  1
TEL(054)296-7000  FAX(054)296-7001
  0
TEXT
  8
1-d
 10
2168.6978
 20
415.33667
 40
80
 41
1
 50
0
  1
１／１５　　１／１
  0
TEXT
  8
1-d
 10
596.6753
 20
287.90676
 40
60
 41
1
 50
0
  1
105-G13
  0
TEXT
  8
1-8
 10
533.59559
 20
1836.5408
 40
60
 41
1
 50
90
  1
≒ 1,700
  0
TEXT
  8
1-d
 10
2471.3583
 20
232.42738
 40
40
 41
1
 50
0
  1
〒421-2114　静岡市葵区安倍口新田１５２番地
  0
POINT
  8
1-8
 62
    2
 10
3632.7622
 20
3830.1937
  0
POINT
  8
1-8
 62
    2
 10
3632.7622
 20
4470.1936
  0
POINT
  8
1-8
 62
    2
 10
3632.7622
 20
4630.1936
  0
POINT
  8
1-8
 62
    2
 10
567.238
 20
794.86558
  0
POINT
  8
1-8
 62
    2
 10
567.238
 20
3061.5322
  0
POINT
  8
1-8
 62
    2
 10
2933.3334
 20
3448.0216
  0
POINT
  8
1-8
 62
    2
 10
1266.6667
 20
3448.0216
  0
POINT
  8
1-8
 62
    2
 10
1429.9164
 20
1693.4887
  0
POINT
  8
1-8
 62
    2
 10
2770.0837
 20
2162.9067
  0
POINT
  8
1-8
 62
    2
 10
2803.3334
 20
4896.04
  0
POINT
  8
2-8
 62
    2
 10
405.40542
 20
4549.1892
  0
POINT
  8
2-8
 62
    2
 10
405.40542
 20
4789.1895
  0
POINT
  8
2-8
 62
    2
 10
405.40542
 20
5289.1892
  0
POINT
  8
1-8
 62
    2
 10
1396.6667
 20
4896.04
  0
POINT
  8
1-8
 62
    2
 10
3632.7622
 20
794.86551
  0
POINT
  8
1-8
 62
    2
 10
3632.7622
 20
1094.8657
  0
POINT
  8
1-8
 62
    2
 10
3632.7622
 20
2761.5324
  0
POINT
  8
1-8
 62
    2
 10
3632.7622
 20
3061.5322
  0
ENDSEC
  0
EOF
