  0
SECTION
  2
HEADER
  9
$ACADVER
  1
AC1009
  9
$INSBASE
 10
0
 20
0
 30
0
  9
$EXTMIN
 10
0
 20
0
  9
$EXTMAX
 10
4200
 20
2970
  9
$LIMMIN
 10
0
 20
0
  9
$LIMMAX
 10
4200
 20
2970
  9
$LTSCALE
 40
10
  0
ENDSEC
  0
SECTION
  2
TABLES
  0
TABLE
  2
LTYPE
 70
     9
  0
LTYPE
  2
CONTINUOUS
 70
    64
  3
実線
 72
    65
 73
     0
 40
0.0
  0
LTYPE
  2
DASHED1
 70
    64
  3
--  --  --  --  --  --  --  --  
 72
    65
 73
     2
 40
2.5
 49
1.25
 49
-1.25
  0
LTYPE
  2
DASHED2
 70
    64
  3
----    ----    ----    ----    
 72
    65
 73
     2
 40
5.0
 49
2.5
 49
-2.5
  0
LTYPE
  2
DASHED3
 70
    64
  3
------  ------  ------  ------  
 72
    65
 73
     2
 40
5.0
 49
3.75
 49
-1.25
  0
LTYPE
  2
CENTER1
 70
    64
  3
----- - ----- - ----- - ----- - 
 72
    65
 73
     4
 40
10.0
 49
6.25
 49
-1.25
 49
1.25
 49
-1.25
  0
LTYPE
  2
CENTER2
 70
    64
  3
----------  --  ----------  --  
 72
    65
 73
     4
 40
20.0
 49
12.5
 49
-2.5
 49
2.5
 49
-2.5
  0
LTYPE
  2
PHANTOM1
 70
    64
  3
--- - - --- - - --- - - --- - - 
 72
    65
 73
     6
 40
10.0
 49
3.25
 49
-1.25
 49
1.25
 49
-1.25
 49
1.25
 49
-1.25
  0
LTYPE
  2
PHANTOM2
 70
    64
  3
--------  -  -  --------  -  -  
 72
    65
 73
     6
 40
20.0
 49
10.0
 49
-2.5
 49
1.25
 49
-2.5
 49
1.25
 49
-2.5
  0
LTYPE
  2
DOT
 70
    64
  3
-   -   -   -   -   -   -   -   
 72
    65
 73
     2
 40
2.5
 49
0.625
 49
-1.875
  0
LTYPE
  2
DUMMY
 70
    64
  3
ダミー
 72
    65
 73
     0
 40
0.0
  0
LTYPE
  2
RAND1
 70
    64
  3
----- - ----- - ----- - ----- - 
 72
    65
 73
     4
 40
10.0
 49
6.25
 49
-1.25
 49
1.25
 49
-1.25
  0
LTYPE
  2
RAND2
 70
    64
  3
----------  --  ----------  --  
 72
    65
 73
     4
 40
20.0
 49
12.5
 49
-2.5
 49
2.5
 49
-2.5
  0
LTYPE
  2
RAND3
 70
    64
  3
--- - - --- - - --- - - --- - - 
 72
    65
 73
     6
 40
10.0
 49
3.25
 49
-1.25
 49
1.25
 49
-1.25
 49
1.25
 49
-1.25
  0
LTYPE
  2
RAND4
 70
    64
  3
--------  -  -  --------  -  -  
 72
    65
 73
     6
 40
20.0
 49
10.0
 49
-2.5
 49
1.25
 49
-2.5
 49
1.25
 49
-2.5
  0
LTYPE
  2
RAND5
 70
    64
  3
----- - ----- - ----- - ----- - 
 72
    65
 73
     4
 40
10.0
 49
6.25
 49
-1.25
 49
1.25
 49
-1.25
  0
LTYPE
  2
LONG1
 70
    64
  3
----------  --  ----------  --  
 72
    65
 73
     4
 40
20.0
 49
12.5
 49
-2.5
 49
2.5
 49
-2.5
  0
LTYPE
  2
LONG2
 70
    64
  3
--- - - --- - - --- - - --- - - 
 72
    65
 73
     6
 40
10.0
 49
3.25
 49
-1.25
 49
1.25
 49
-1.25
 49
1.25
 49
-1.25
  0
LTYPE
  2
LONG3
 70
    64
  3
--------  -  -  --------  -  -  
 72
    65
 73
     6
 40
20.0
 49
10.0
 49
-2.5
 49
1.25
 49
-2.5
 49
1.25
 49
-2.5
  0
LTYPE
  2
LONG4
 70
    64
  3
----- - ----- - ----- - ----- - 
 72
    65
 73
     4
 40
10.0
 49
6.25
 49
-1.25
 49
1.25
 49
-1.25
  0
LTYPE
  2
LONG5
 70
    64
  3
----------  --  ----------  --  
 72
    65
 73
     4
 40
20.0
 49
12.5
 49
-2.5
 49
2.5
 49
-2.5
  0
ENDTAB
  0
TABLE
  2
STYLE
  5
3
100
AcDbSymbolTable
 70
     1
  0
STYLE
  5
10
100
AcDbSymbolTableRecord
100
AcDbTextStyleTableRecord
  2
STANDARD
 70
     0
 40
0.0
 41
1.0
 50
0.0
 71
     0
 42
0.2
  3
txt
  4
bigfont.shx
  0
STYLE
  5
26
100
AcDbSymbolTableRecord
100
AcDbTextStyleTableRecord
  2
TATEGAKI
 70
    68
 40
0.0
 41
1.0
 50
0.0
 71
     0
 42
1.0
  3
txt
  4
bigfont.shx
  0
ENDTAB
  0
TABLE
  2
LAYER
 70
    6
  0
LAYER
  2
_1-1_1-1___
 70
   64
 62
    7
  6
CONTINUOUS
  0
LAYER
  2
_1-2_仕上
 70
   64
 62
    7
  6
CONTINUOUS
  0
LAYER
  2
_1-4_
 70
   64
 62
    7
  6
CONTINUOUS
  0
LAYER
  2
_1-8_
 70
   64
 62
    7
  6
CONTINUOUS
  0
LAYER
  2
_1-d_
 70
   64
 62
    7
  6
CONTINUOUS
  0
LAYER
  2
ADD_LINE
 70
   64
 62
    7
  6
CONTINUOUS
  0
ENDTAB
  0
ENDSEC
  0
SECTION
  2
BLOCKS
  0
ENDSEC
  0
SECTION
  2
ENTITIES
  0
LINE
  8
_1-d_
  6
CONTINUOUS
 62
    7
 10
250.00005
 20
2757.7012
 11
1850
 21
2757.7012
  0
LINE
  8
_1-d_
  6
CONTINUOUS
 62
    7
 10
250.00005
 20
2767.7015
 11
1850
 21
2767.7015
  0
LINE
  8
_1-d_
  6
CONTINUOUS
 62
    7
 10
249.99968
 20
189.99988
 11
1850.0004
 21
189.99988
  0
LINE
  8
_1-d_
  6
CONTINUOUS
 62
    7
 10
249.99968
 20
89.999802
 11
249.99968
 21
269.9999
  0
LINE
  8
_1-d_
  6
CONTINUOUS
 62
    7
 10
249.99968
 20
89.999802
 11
1850.0004
 21
89.999802
  0
LINE
  8
_1-d_
  6
CONTINUOUS
 62
    7
 10
1850.0004
 20
269.9999
 11
1850.0004
 21
89.999802
  0
LINE
  8
_1-d_
  6
CONTINUOUS
 62
    7
 10
249.99968
 20
269.9999
 11
1850.0004
 21
269.9999
  0
LINE
  8
_1-d_
  6
CONTINUOUS
 62
    7
 10
1050
 20
269.9999
 11
1050
 21
89.999802
  0
LINE
  8
_1-d_
  6
CONTINUOUS
 62
    7
 10
650.00016
 20
89.999802
 11
650.00016
 21
189.99988
  0
LINE
  8
_1-d_
  6
CONTINUOUS
 62
    7
 10
1050
 20
189.99988
 11
1050
 21
269.9999
  0
LINE
  8
_1-d_
  6
CONTINUOUS
 62
    7
 10
849.99977
 20
89.999802
 11
849.99977
 21
189.99988
  0
LINE
  8
_1-d_
  6
CONTINUOUS
 62
    7
 10
285.00001
 20
89.999802
 11
285.00001
 21
189.99988
  0
LINE
  8
_1-d_
  6
CONTINUOUS
 62
    7
 10
685.00003
 20
89.999802
 11
685.00003
 21
189.99988
  0
LINE
  8
_1-d_
  6
CONTINUOUS
 62
    7
 10
885.00013
 20
89.999802
 11
885.00013
 21
189.99988
  0
LINE
  8
_1-d_
  6
CONTINUOUS
 62
    7
 10
1015
 20
189.99988
 11
1015
 21
269.9999
  0
LINE
  8
_1-d_
  6
CONTINUOUS
 62
    7
 10
1550.0004
 20
189.99988
 11
1550.0004
 21
269.9999
  0
LINE
  8
_1-d_
  6
CONTINUOUS
 62
    7
 10
1585.0001
 20
189.99988
 11
1585.0001
 21
269.9999
  0
LINE
  8
_1-8_
  6
CONTINUOUS
 62
    7
 10
583.3348
 20
1941.0346
 11
325.51658
 21
1941.0346
  0
LINE
  8
_1-8_
  6
CONTINUOUS
 62
    7
 10
583.3348
 20
2650.5283
 11
1516.6664
 21
2650.5283
  0
LINE
  8
_1-8_
  6
CONTINUOUS
 62
    7
 10
676.66663
 20
1906.7966
 11
676.66663
 21
1783.1573
  0
LINE
  8
_1-8_
  6
CONTINUOUS
 62
    7
 10
1423.3336
 20
1906.7966
 11
1423.3336
 21
1783.1573
  0
LINE
  8
_1-8_
  6
CONTINUOUS
 62
    7
 10
583.3348
 20
2438.0671
 11
583.3348
 21
2650.5283
  0
LINE
  8
_1-8_
  6
CONTINUOUS
 62
    7
 10
1516.6664
 20
2438.0671
 11
1516.6664
 21
2650.5283
  0
LINE
  8
_1-8_
  6
CONTINUOUS
 62
    7
 10
325.5167
 20
1941.0346
 11
325.5167
 21
2491.0345
  0
LINE
  8
_1-2_仕上
  6
CONTINUOUS
 62
    3
 10
827.79099
 20
2044.445
 11
827.79099
 21
1981.0345
  0
LINE
  8
_1-2_仕上
  6
CONTINUOUS
 62
    3
 10
786.49675
 20
2044.445
 11
827.79099
 21
2044.445
  0
LINE
  8
_1-2_仕上
  6
CONTINUOUS
 62
    3
 10
676.66663
 20
1981.0345
 11
786.49675
 21
2044.445
  0
LINE
  8
_1-2_仕上
  6
CONTINUOUS
 62
    3
 10
745.0001
 20
2053.3686
 11
745.0001
 21
2020.4868
  0
LINE
  8
_1-2_仕上
  6
CONTINUOUS
 62
    3
 10
676.66663
 20
1981.0345
 11
676.66663
 21
1941.0346
  0
LINE
  8
_1-2_仕上
  6
CONTINUOUS
 62
    3
 10
1423.3336
 20
1981.0345
 11
676.66663
 21
1981.0345
  0
LINE
  8
_1-2_仕上
  6
CONTINUOUS
 62
    3
 10
1423.3336
 20
1941.0346
 11
676.66663
 21
1941.0346
  0
LINE
  8
_1-2_仕上
  6
CONTINUOUS
 62
    3
 10
1423.3336
 20
1981.0345
 11
1423.3336
 21
1941.0346
  0
LINE
  8
_1-8_
  6
CONTINUOUS
 62
    7
 10
676.66663
 20
1783.1573
 11
1423.3336
 21
1783.1573
  0
LINE
  8
_1-2_仕上
  6
CONTINUOUS
 62
    3
 10
1071.8359
 20
2220.2478
 11
1077.5827
 21
2223.78
  0
LINE
  8
_1-2_仕上
  6
CONTINUOUS
 62
    3
 10
1077.5827
 20
2223.78
 11
1083.302
 21
2227.3825
  0
LINE
  8
_1-2_仕上
  6
CONTINUOUS
 62
    3
 10
1083.302
 20
2227.3825
 11
1088.9676
 21
2231.1193
  0
LINE
  8
_1-2_仕上
  6
CONTINUOUS
 62
    3
 10
1088.9676
 20
2231.1193
 11
1094.516
 21
2235.064
  0
LINE
  8
_1-2_仕上
  6
CONTINUOUS
 62
    3
 10
1094.516
 20
2235.064
 11
1099.8458
 21
2239.296
  0
LINE
  8
_1-2_仕上
  6
CONTINUOUS
 62
    3
 10
1099.8458
 20
2239.296
 11
1104.8454
 21
2243.8845
  0
LINE
  8
_1-2_仕上
  6
CONTINUOUS
 62
    3
 10
1104.8454
 20
2243.8845
 11
1109.4059
 21
2248.9107
  0
LINE
  8
_1-2_仕上
  6
CONTINUOUS
 62
    3
 10
1109.4059
 20
2248.9107
 11
1113.4172
 21
2254.4462
  0
LINE
  8
_1-2_仕上
  6
CONTINUOUS
 62
    3
 10
1113.4172
 20
2254.4462
 11
1116.9157
 21
2260.4335
  0
LINE
  8
_1-2_仕上
  6
CONTINUOUS
 62
    3
 10
1116.9157
 20
2260.4335
 11
1120.2215
 21
2266.5477
  0
LINE
  8
_1-2_仕上
  6
CONTINUOUS
 62
    3
 10
1120.2215
 20
2266.5477
 11
1123.6703
 21
2272.4437
  0
LINE
  8
_1-2_仕上
  6
CONTINUOUS
 62
    3
 10
1123.6703
 20
2272.4437
 11
1127.6158
 21
2277.7761
  0
LINE
  8
_1-2_仕上
  6
CONTINUOUS
 62
    3
 10
1127.6158
 20
2277.7761
 11
1132.3913
 21
2282.1973
  0
LINE
  8
_1-2_仕上
  6
CONTINUOUS
 62
    3
 10
1132.3913
 20
2282.1973
 11
1138.1032
 21
2285.6154
  0
LINE
  8
_1-2_仕上
  6
CONTINUOUS
 62
    3
 10
1138.1032
 20
2285.6154
 11
1144.4026
 21
2288.4081
  0
LINE
  8
_1-2_仕上
  6
CONTINUOUS
 62
    3
 10
1144.4026
 20
2288.4081
 11
1147.3852
 21
2289.5997
  0
LINE
  8
_1-2_仕上
  6
CONTINUOUS
 62
    3
 10
1144.4026
 20
2288.4081
 11
1148.5511
 21
2289.0677
  0
LINE
  8
_1-2_仕上
  6
CONTINUOUS
 62
    3
 10
1148.5511
 20
2289.0677
 11
1152.7368
 21
2289.6408
  0
LINE
  8
_1-2_仕上
  6
CONTINUOUS
 62
    3
 10
1152.7368
 20
2289.6408
 11
1156.9916
 21
2290.0518
  0
LINE
  8
_1-2_仕上
  6
CONTINUOUS
 62
    3
 10
1156.9916
 20
2290.0518
 11
1161.3507
 21
2290.2069
  0
LINE
  8
_1-2_仕上
  6
CONTINUOUS
 62
    3
 10
1161.3507
 20
2290.2069
 11
1165.8427
 21
2290.0308
  0
LINE
  8
_1-2_仕上
  6
CONTINUOUS
 62
    3
 10
1165.8427
 20
2290.0308
 11
1170.3372
 21
2289.376
  0
LINE
  8
_1-2_仕上
  6
CONTINUOUS
 62
    3
 10
1170.3372
 20
2289.376
 11
1174.5304
 21
2288.0629
  0
LINE
  8
_1-2_仕上
  6
CONTINUOUS
 62
    3
 10
1174.5304
 20
2288.0629
 11
1178.1041
 21
2285.8861
  0
LINE
  8
_1-2_仕上
  6
CONTINUOUS
 62
    3
 10
1178.1041
 20
2285.8861
 11
1180.8017
 21
2282.7046
  0
LINE
  8
_1-2_仕上
  6
CONTINUOUS
 62
    3
 10
1180.8017
 20
2282.7046
 11
1182.9047
 21
2278.8851
  0
LINE
  8
_1-2_仕上
  6
CONTINUOUS
 62
    3
 10
1069.5797
 20
2204.4626
 11
1076.3138
 21
2205.4628
  0
LINE
  8
_1-2_仕上
  6
CONTINUOUS
 62
    3
 10
1076.3138
 20
2205.4628
 11
1083.0068
 21
2206.5938
  0
LINE
  8
_1-2_仕上
  6
CONTINUOUS
 62
    3
 10
1083.0068
 20
2206.5938
 11
1089.6261
 21
2207.9763
  0
LINE
  8
_1-2_仕上
  6
CONTINUOUS
 62
    3
 10
1089.6261
 20
2207.9763
 11
1096.1266
 21
2209.7454
  0
LINE
  8
_1-2_仕上
  6
CONTINUOUS
 62
    3
 10
1096.1266
 20
2209.7454
 11
1102.4744
 21
2212.0229
  0
LINE
  8
_1-2_仕上
  6
CONTINUOUS
 62
    3
 10
1102.4744
 20
2212.0229
 11
1108.6339
 21
2214.8397
  0
LINE
  8
_1-2_仕上
  6
CONTINUOUS
 62
    3
 10
1108.6339
 20
2214.8397
 11
1114.5791
 21
2218.1418
  0
LINE
  8
_1-2_仕上
  6
CONTINUOUS
 62
    3
 10
1114.5791
 20
2218.1418
 11
1120.2769
 21
2221.8908
  0
LINE
  8
_1-2_仕上
  6
CONTINUOUS
 62
    3
 10
1120.2769
 20
2221.8908
 11
1125.7006
 21
2226.0196
  0
LINE
  8
_1-2_仕上
  6
CONTINUOUS
 62
    3
 10
1125.7006
 20
2226.0196
 11
1130.8246
 21
2230.4893
  0
LINE
  8
_1-2_仕上
  6
CONTINUOUS
 62
    3
 10
1130.8246
 20
2230.4893
 11
1135.6877
 21
2235.2186
  0
LINE
  8
_1-2_仕上
  6
CONTINUOUS
 62
    3
 10
1135.6877
 20
2235.2186
 11
1140.3879
 21
2240.0994
  0
LINE
  8
_1-2_仕上
  6
CONTINUOUS
 62
    3
 10
1140.3879
 20
2240.0994
 11
1145.0283
 21
2245.0244
  0
LINE
  8
_1-2_仕上
  6
CONTINUOUS
 62
    3
 10
1145.0283
 20
2245.0244
 11
1149.7077
 21
2249.8846
  0
LINE
  8
_1-2_仕上
  6
CONTINUOUS
 62
    3
 10
1149.7077
 20
2249.8846
 11
1154.5328
 21
2254.5741
  0
LINE
  8
_1-2_仕上
  6
CONTINUOUS
 62
    3
 10
1154.5328
 20
2254.5741
 11
1159.5956
 21
2258.9993
  0
LINE
  8
_1-2_仕上
  6
CONTINUOUS
 62
    3
 10
1159.5956
 20
2258.9993
 11
1164.8898
 21
2263.1568
  0
LINE
  8
_1-2_仕上
  6
CONTINUOUS
 62
    3
 10
1164.8898
 20
2263.1568
 11
1170.3724
 21
2267.1104
  0
LINE
  8
_1-2_仕上
  6
CONTINUOUS
 62
    3
 10
1170.3724
 20
2267.1104
 11
1175.9858
 21
2270.9101
  0
LINE
  8
_1-2_仕上
  6
CONTINUOUS
 62
    3
 10
1175.9858
 20
2270.9101
 11
1181.6878
 21
2274.6148
  0
LINE
  8
_1-2_仕上
  6
CONTINUOUS
 62
    3
 10
1181.6878
 20
2274.6148
 11
1185.724
 21
2277.1946
  0
LINE
  8
_1-2_仕上
  6
CONTINUOUS
 62
    3
 10
1185.724
 20
2277.1946
 11
1192.0229
 21
2279.8075
  0
LINE
  8
_1-2_仕上
  6
CONTINUOUS
 62
    3
 10
1192.0229
 20
2279.8075
 11
1198.3578
 21
2282.2463
  0
LINE
  8
_1-2_仕上
  6
CONTINUOUS
 62
    3
 10
1198.3578
 20
2282.2463
 11
1204.768
 21
2284.3404
  0
LINE
  8
_1-2_仕上
  6
CONTINUOUS
 62
    3
 10
1204.768
 20
2284.3404
 11
1211.2898
 21
2285.9183
  0
LINE
  8
_1-2_仕上
  6
CONTINUOUS
 62
    3
 10
1211.2898
 20
2285.9183
 11
1217.9395
 21
2286.8853
  0
LINE
  8
_1-2_仕上
  6
CONTINUOUS
 62
    3
 10
1217.9395
 20
2286.8853
 11
1224.6849
 21
2287.3094
  0
LINE
  8
_1-2_仕上
  6
CONTINUOUS
 62
    3
 10
1224.6849
 20
2287.3094
 11
1231.487
 21
2287.2847
  0
LINE
  8
_1-2_仕上
  6
CONTINUOUS
 62
    3
 10
1231.487
 20
2287.2847
 11
1238.3092
 21
2286.9019
  0
LINE
  8
_1-2_仕上
  6
CONTINUOUS
 62
    3
 10
1238.3092
 20
2286.9019
 11
1245.119
 21
2286.2558
  0
LINE
  8
_1-2_仕上
  6
CONTINUOUS
 62
    3
 10
1245.119
 20
2286.2558
 11
1251.8768
 21
2285.4247
  0
LINE
  8
_1-2_仕上
  6
CONTINUOUS
 62
    3
 10
1251.8768
 20
2285.4247
 11
1258.5748
 21
2284.3911
  0
LINE
  8
_1-2_仕上
  6
CONTINUOUS
 62
    3
 10
1258.5748
 20
2284.3911
 11
1265.2161
 21
2283.1326
  0
LINE
  8
_1-2_仕上
  6
CONTINUOUS
 62
    3
 10
1265.2161
 20
2283.1326
 11
1271.7903
 21
2281.6069
  0
LINE
  8
_1-2_仕上
  6
CONTINUOUS
 62
    3
 10
1271.7903
 20
2281.6069
 11
1278.3012
 21
2279.7863
  0
LINE
  8
_1-2_仕上
  6
CONTINUOUS
 62
    3
 10
1278.3012
 20
2279.7863
 11
1284.747
 21
2277.6306
  0
LINE
  8
_1-2_仕上
  6
CONTINUOUS
 62
    3
 10
1284.747
 20
2277.6306
 11
1291.1007
 21
2275.1101
  0
LINE
  8
_1-2_仕上
  6
CONTINUOUS
 62
    3
 10
1291.1007
 20
2275.1101
 11
1297.3036
 21
2272.1958
  0
LINE
  8
_1-2_仕上
  6
CONTINUOUS
 62
    3
 10
1297.3036
 20
2272.1958
 11
1303.2649
 21
2268.8697
  0
LINE
  8
_1-2_仕上
  6
CONTINUOUS
 62
    3
 10
1303.2649
 20
2268.8697
 11
1308.908
 21
2265.1019
  0
LINE
  8
_1-2_仕上
  6
CONTINUOUS
 62
    3
 10
1308.908
 20
2265.1019
 11
1314.1498
 21
2260.8635
  0
LINE
  8
_1-2_仕上
  6
CONTINUOUS
 62
    3
 10
1314.1498
 20
2260.8635
 11
1318.9184
 21
2256.1426
  0
LINE
  8
_1-2_仕上
  6
CONTINUOUS
 62
    3
 10
1318.9184
 20
2256.1426
 11
1323.2748
 21
2251.0085
  0
LINE
  8
_1-2_仕上
  6
CONTINUOUS
 62
    3
 10
1323.2748
 20
2251.0085
 11
1327.3289
 21
2245.5747
  0
LINE
  8
_1-2_仕上
  6
CONTINUOUS
 62
    3
 10
1327.3289
 20
2245.5747
 11
1331.1934
 21
2239.9564
  0
LINE
  8
_1-2_仕上
  6
CONTINUOUS
 62
    3
 10
1331.1934
 20
2239.9564
 11
1333.4397
 21
2236.6011
  0
LINE
  8
_1-2_仕上
  6
CONTINUOUS
 62
    3
 10
1331.1934
 20
2239.9564
 11
1334.2151
 21
2233.6986
  0
LINE
  8
_1-2_仕上
  6
CONTINUOUS
 62
    3
 10
1334.2151
 20
2233.6986
 11
1337.0765
 21
2227.4131
  0
LINE
  8
_1-2_仕上
  6
CONTINUOUS
 62
    3
 10
1337.0765
 20
2227.4131
 11
1339.6217
 21
2221.0836
  0
LINE
  8
_1-2_仕上
  6
CONTINUOUS
 62
    3
 10
1339.6217
 20
2221.0836
 11
1341.6893
 21
2214.6752
  0
LINE
  8
_1-2_仕上
  6
CONTINUOUS
 62
    3
 10
1341.6893
 20
2214.6752
 11
1343.1215
 21
2208.1707
  0
LINE
  8
_1-2_仕上
  6
CONTINUOUS
 62
    3
 10
1343.1215
 20
2208.1707
 11
1343.7658
 21
2201.5443
  0
LINE
  8
_1-2_仕上
  6
CONTINUOUS
 62
    3
 10
1343.7658
 20
2201.5443
 11
1343.5812
 21
2194.8228
  0
LINE
  8
_1-2_仕上
  6
CONTINUOUS
 62
    3
 10
1343.5812
 20
2194.8228
 11
1342.6801
 21
2188.0712
  0
LINE
  8
_1-2_仕上
  6
CONTINUOUS
 62
    3
 10
1342.6801
 20
2188.0712
 11
1341.1786
 21
2181.3686
  0
LINE
  8
_1-2_仕上
  6
CONTINUOUS
 62
    3
 10
1341.1786
 20
2181.3686
 11
1339.1803
 21
2174.7911
  0
LINE
  8
_1-2_仕上
  6
CONTINUOUS
 62
    3
 10
1339.1803
 20
2174.7911
 11
1336.7182
 21
2168.4294
  0
LINE
  8
_1-2_仕上
  6
CONTINUOUS
 62
    3
 10
1336.7182
 20
2168.4294
 11
1333.7257
 21
2162.3741
  0
LINE
  8
_1-2_仕上
  6
CONTINUOUS
 62
    3
 10
1333.7257
 20
2162.3741
 11
1330.1314
 21
2156.7176
  0
LINE
  8
_1-2_仕上
  6
CONTINUOUS
 62
    3
 10
1330.1314
 20
2156.7176
 11
1325.9422
 21
2151.4947
  0
LINE
  8
_1-2_仕上
  6
CONTINUOUS
 62
    3
 10
1325.9422
 20
2151.4947
 11
1321.2854
 21
2146.6087
  0
LINE
  8
_1-2_仕上
  6
CONTINUOUS
 62
    3
 10
1321.2854
 20
2146.6087
 11
1316.3084
 21
2141.9568
  0
LINE
  8
_1-2_仕上
  6
CONTINUOUS
 62
    3
 10
1316.3084
 20
2141.9568
 11
1311.1493
 21
2137.4406
  0
LINE
  8
_1-2_仕上
  6
CONTINUOUS
 62
    3
 10
1311.1493
 20
2137.4406
 11
1309.7582
 21
2136.2454
  0
LINE
  8
_1-2_仕上
  6
CONTINUOUS
 62
    3
 10
1311.1493
 20
2137.4406
 11
1305.2281
 21
2134.1209
  0
LINE
  8
_1-2_仕上
  6
CONTINUOUS
 62
    3
 10
1305.2281
 20
2134.1209
 11
1299.2846
 21
2130.8626
  0
LINE
  8
_1-2_仕上
  6
CONTINUOUS
 62
    3
 10
1299.2846
 20
2130.8626
 11
1293.2916
 21
2127.7234
  0
LINE
  8
_1-2_仕上
  6
CONTINUOUS
 62
    3
 10
1293.2916
 20
2127.7234
 11
1287.2167
 21
2124.7617
  0
LINE
  8
_1-2_仕上
  6
CONTINUOUS
 62
    3
 10
1287.2167
 20
2124.7617
 11
1281.0445
 21
2122.0364
  0
LINE
  8
_1-2_仕上
  6
CONTINUOUS
 62
    3
 10
1281.0445
 20
2122.0364
 11
1274.7403
 21
2119.6066
  0
LINE
  8
_1-2_仕上
  6
CONTINUOUS
 62
    3
 10
1274.7403
 20
2119.6066
 11
1268.3031
 21
2117.5066
  0
LINE
  8
_1-2_仕上
  6
CONTINUOUS
 62
    3
 10
1268.3031
 20
2117.5066
 11
1261.7596
 21
2115.7436
  0
LINE
  8
_1-2_仕上
  6
CONTINUOUS
 62
    3
 10
1261.7596
 20
2115.7436
 11
1255.1344
 21
2114.3158
  0
LINE
  8
_1-2_仕上
  6
CONTINUOUS
 62
    3
 10
1255.1344
 20
2114.3158
 11
1248.4483
 21
2113.2236
  0
LINE
  8
_1-2_仕上
  6
CONTINUOUS
 62
    3
 10
1248.4483
 20
2113.2236
 11
1241.7333
 21
2112.459
  0
LINE
  8
_1-2_仕上
  6
CONTINUOUS
 62
    3
 10
1241.7333
 20
2112.459
 11
1234.996
 21
2111.9652
  0
LINE
  8
_1-2_仕上
  6
CONTINUOUS
 62
    3
 10
1234.996
 20
2111.9652
 11
1228.2406
 21
2111.6761
  0
LINE
  8
_1-2_仕上
  6
CONTINUOUS
 62
    3
 10
1228.2406
 20
2111.6761
 11
1221.4712
 21
2111.5198
  0
LINE
  8
_1-2_仕上
  6
CONTINUOUS
 62
    3
 10
1221.4712
 20
2111.5198
 11
1215.6029
 21
2111.4374
  0
LINE
  8
_1-2_仕上
  6
CONTINUOUS
 62
    3
 10
1139.9595
 20
2110.8155
 11
1146.2915
 21
2108.2528
  0
LINE
  8
_1-2_仕上
  6
CONTINUOUS
 62
    3
 10
1146.2915
 20
2108.2528
 11
1152.6596
 21
2105.7193
  0
LINE
  8
_1-2_仕上
  6
CONTINUOUS
 62
    3
 10
1152.6596
 20
2105.7193
 11
1159.0881
 21
2103.3849
  0
LINE
  8
_1-2_仕上
  6
CONTINUOUS
 62
    3
 10
1159.0881
 20
2103.3849
 11
1165.578
 21
2101.4381
  0
LINE
  8
_1-2_仕上
  6
CONTINUOUS
 62
    3
 10
1165.578
 20
2101.4381
 11
1172.1473
 21
2100.0653
  0
LINE
  8
_1-2_仕上
  6
CONTINUOUS
 62
    3
 10
1172.1473
 20
2100.0653
 11
1178.8098
 21
2099.4509
  0
LINE
  8
_1-2_仕上
  6
CONTINUOUS
 62
    3
 10
1178.8098
 20
2099.4509
 11
1185.5503
 21
2099.5466
  0
LINE
  8
_1-2_仕上
  6
CONTINUOUS
 62
    3
 10
1185.5503
 20
2099.5466
 11
1192.3396
 21
2100.0475
  0
LINE
  8
_1-2_仕上
  6
CONTINUOUS
 62
    3
 10
1192.3396
 20
2100.0475
 11
1193.6154
 21
2100.1603
  0
LINE
  8
_1-2_仕上
  6
CONTINUOUS
 62
    3
 10
1192.3396
 20
2100.0475
 11
1197.8914
 21
2101.2856
  0
LINE
  8
_1-2_仕上
  6
CONTINUOUS
 62
    3
 10
1197.8914
 20
2101.2856
 11
1203.2203
 21
2102.9989
  0
LINE
  8
_1-2_仕上
  6
CONTINUOUS
 62
    3
 10
1203.2203
 20
2102.9989
 11
1208.1092
 21
2105.6666
  0
LINE
  8
_1-2_仕上
  6
CONTINUOUS
 62
    3
 10
1208.1092
 20
2105.6666
 11
1212.277
 21
2109.4937
  0
LINE
  8
_1-2_仕上
  6
CONTINUOUS
 62
    3
 10
1212.277
 20
2109.4937
 11
1215.3673
 21
2114.2911
  0
LINE
  8
_1-2_仕上
  6
CONTINUOUS
 62
    3
 10
1215.3673
 20
2114.2911
 11
1217.0509
 21
2119.7766
  0
LINE
  8
_1-2_仕上
  6
CONTINUOUS
 62
    3
 10
1217.0509
 20
2119.7766
 11
1217.1746
 21
2125.4501
  0
LINE
  8
_1-2_仕上
  6
CONTINUOUS
 62
    3
 10
1217.1746
 20
2125.4501
 11
1215.6732
 21
2130.7651
  0
LINE
  8
_1-2_仕上
  6
CONTINUOUS
 62
    3
 10
1215.6732
 20
2130.7651
 11
1212.8679
 21
2135.6006
  0
LINE
  8
_1-2_仕上
  6
CONTINUOUS
 62
    3
 10
1212.8679
 20
2135.6006
 11
1209.4023
 21
2140.1911
  0
LINE
  8
_1-2_仕上
  6
CONTINUOUS
 62
    3
 10
1079.3217
 20
2195.7117
 11
1086.1448
 21
2194.5502
  0
LINE
  8
_1-2_仕上
  6
CONTINUOUS
 62
    3
 10
1086.1448
 20
2194.5502
 11
1092.9455
 21
2193.5847
  0
LINE
  8
_1-2_仕上
  6
CONTINUOUS
 62
    3
 10
1092.9455
 20
2193.5847
 11
1099.6966
 21
2193.0116
  0
LINE
  8
_1-2_仕上
  6
CONTINUOUS
 62
    3
 10
1099.6966
 20
2193.0116
 11
1106.3743
 21
2193.0215
  0
LINE
  8
_1-2_仕上
  6
CONTINUOUS
 62
    3
 10
1106.3743
 20
2193.0215
 11
1112.9547
 21
2193.8074
  0
LINE
  8
_1-2_仕上
  6
CONTINUOUS
 62
    3
 10
1112.9547
 20
2193.8074
 11
1119.4381
 21
2195.4028
  0
LINE
  8
_1-2_仕上
  6
CONTINUOUS
 62
    3
 10
1119.4381
 20
2195.4028
 11
1125.8389
 21
2197.5937
  0
LINE
  8
_1-2_仕上
  6
CONTINUOUS
 62
    3
 10
1125.8389
 20
2197.5937
 11
1132.1877
 21
2200.1626
  0
LINE
  8
_1-2_仕上
  6
CONTINUOUS
 62
    3
 10
1132.1877
 20
2200.1626
 11
1138.4972
 21
2202.8775
  0
LINE
  8
_1-2_仕上
  6
CONTINUOUS
 62
    3
 10
1138.4972
 20
2202.8775
 11
1144.7995
 21
2205.5432
  0
LINE
  8
_1-2_仕上
  6
CONTINUOUS
 62
    3
 10
1144.7995
 20
2205.5432
 11
1151.0956
 21
2208.1084
  0
LINE
  8
_1-2_仕上
  6
CONTINUOUS
 62
    3
 10
1151.0956
 20
2208.1084
 11
1157.3912
 21
2210.5976
  0
LINE
  8
_1-2_仕上
  6
CONTINUOUS
 62
    3
 10
1157.3912
 20
2210.5976
 11
1163.6796
 21
2213.0245
  0
LINE
  8
_1-2_仕上
  6
CONTINUOUS
 62
    3
 10
1163.6796
 20
2213.0245
 11
1169.9681
 21
2215.4064
  0
LINE
  8
_1-2_仕上
  6
CONTINUOUS
 62
    3
 10
1169.9681
 20
2215.4064
 11
1176.2585
 21
2217.7665
  0
LINE
  8
_1-2_仕上
  6
CONTINUOUS
 62
    3
 10
1176.2585
 20
2217.7665
 11
1176.1704
 21
2211.9739
  0
LINE
  8
_1-2_仕上
  6
CONTINUOUS
 62
    3
 10
1176.1704
 20
2211.9739
 11
1176.0872
 21
2206.1873
  0
LINE
  8
_1-2_仕上
  6
CONTINUOUS
 62
    3
 10
1176.0872
 20
2206.1873
 11
1176.0039
 21
2200.3937
  0
LINE
  8
_1-2_仕上
  6
CONTINUOUS
 62
    3
 10
1176.0039
 20
2200.3937
 11
1175.9165
 21
2194.6061
  0
LINE
  8
_1-2_仕上
  6
CONTINUOUS
 62
    3
 10
1175.9165
 20
2194.6061
 11
1175.8341
 21
2188.8192
  0
LINE
  8
_1-2_仕上
  6
CONTINUOUS
 62
    3
 10
1175.8341
 20
2188.8192
 11
1175.7497
 21
2183.0259
  0
LINE
  8
_1-2_仕上
  6
CONTINUOUS
 62
    3
 10
1175.7497
 20
2183.0259
 11
1175.6629
 21
2177.2393
  0
LINE
  8
_1-2_仕上
  6
CONTINUOUS
 62
    3
 10
1175.6629
 20
2177.2393
 11
1175.5795
 21
2171.4462
  0
LINE
  8
_1-2_仕上
  6
CONTINUOUS
 62
    3
 10
1175.5795
 20
2171.4462
 11
1175.4934
 21
2165.6576
  0
LINE
  8
_1-2_仕上
  6
CONTINUOUS
 62
    3
 10
1175.4934
 20
2165.6576
 11
1175.4093
 21
2159.8665
  0
LINE
  8
_1-2_仕上
  6
CONTINUOUS
 62
    3
 10
1209.4023
 20
2140.1911
 11
1208.0181
 21
2141.411
  0
LINE
  8
_1-2_仕上
  6
CONTINUOUS
 62
    3
 10
1208.0181
 20
2141.411
 11
1206.0285
 21
2142.8867
  0
LINE
  8
_1-2_仕上
  6
CONTINUOUS
 62
    3
 10
1206.0285
 20
2142.8867
 11
1203.5125
 21
2144.5747
  0
LINE
  8
_1-2_仕上
  6
CONTINUOUS
 62
    3
 10
1203.5125
 20
2144.5747
 11
1200.5383
 21
2146.435
  0
LINE
  8
_1-2_仕上
  6
CONTINUOUS
 62
    3
 10
1200.5383
 20
2146.435
 11
1197.1471
 21
2148.4294
  0
LINE
  8
_1-2_仕上
  6
CONTINUOUS
 62
    3
 10
1197.1471
 20
2148.4294
 11
1193.3999
 21
2150.5331
  0
LINE
  8
_1-2_仕上
  6
CONTINUOUS
 62
    3
 10
1193.3999
 20
2150.5331
 11
1189.3329
 21
2152.7195
  0
LINE
  8
_1-2_仕上
  6
CONTINUOUS
 62
    3
 10
1189.3329
 20
2152.7195
 11
1184.9765
 21
2154.9647
  0
LINE
  8
_1-2_仕上
  6
CONTINUOUS
 62
    3
 10
1184.9765
 20
2154.9647
 11
1180.3699
 21
2157.2523
  0
LINE
  8
_1-2_仕上
  6
CONTINUOUS
 62
    3
 10
1180.3699
 20
2157.2523
 11
1175.5384
 21
2159.5647
  0
LINE
  8
_1-2_仕上
  6
CONTINUOUS
 62
    3
 10
1175.5384
 20
2159.5647
 11
1170.4998
 21
2161.8866
  0
LINE
  8
_1-2_仕上
  6
CONTINUOUS
 62
    3
 10
1170.4998
 20
2161.8866
 11
1165.2855
 21
2164.2116
  0
LINE
  8
_1-2_仕上
  6
CONTINUOUS
 62
    3
 10
1165.2855
 20
2164.2116
 11
1159.9104
 21
2166.5241
  0
LINE
  8
_1-2_仕上
  6
CONTINUOUS
 62
    3
 10
1159.9104
 20
2166.5241
 11
1154.4011
 21
2168.8184
  0
LINE
  8
_1-2_仕上
  6
CONTINUOUS
 62
    3
 10
1154.4011
 20
2168.8184
 11
1148.7724
 21
2171.0894
  0
LINE
  8
_1-2_仕上
  6
CONTINUOUS
 62
    3
 10
1148.7724
 20
2171.0894
 11
1143.0471
 21
2173.3248
  0
LINE
  8
_1-2_仕上
  6
CONTINUOUS
 62
    3
 10
1143.0471
 20
2173.3248
 11
1137.2454
 21
2175.524
  0
LINE
  8
_1-2_仕上
  6
CONTINUOUS
 62
    3
 10
1137.2454
 20
2175.524
 11
1131.3907
 21
2177.6807
  0
LINE
  8
_1-2_仕上
  6
CONTINUOUS
 62
    3
 10
1131.3907
 20
2177.6807
 11
1125.5083
 21
2179.7948
  0
LINE
  8
_1-2_仕上
  6
CONTINUOUS
 62
    3
 10
1125.5083
 20
2179.7948
 11
1119.62
 21
2181.8516
  0
LINE
  8
_1-2_仕上
  6
CONTINUOUS
 62
    3
 10
1119.62
 20
2181.8516
 11
1113.7487
 21
2183.8533
  0
LINE
  8
_1-2_仕上
  6
CONTINUOUS
 62
    3
 10
1113.7487
 20
2183.8533
 11
1107.9243
 21
2185.7982
  0
LINE
  8
_1-2_仕上
  6
CONTINUOUS
 62
    3
 10
1107.9243
 20
2185.7982
 11
1102.178
 21
2187.6743
  0
LINE
  8
_1-2_仕上
  6
CONTINUOUS
 62
    3
 10
1102.178
 20
2187.6743
 11
1096.5319
 21
2189.4821
  0
LINE
  8
_1-2_仕上
  6
CONTINUOUS
 62
    3
 10
1096.5319
 20
2189.4821
 11
1091.0226
 21
2191.2142
  0
LINE
  8
_1-2_仕上
  6
CONTINUOUS
 62
    3
 10
1091.0226
 20
2191.2142
 11
1085.6787
 21
2192.8611
  0
LINE
  8
_1-2_仕上
  6
CONTINUOUS
 62
    3
 10
1085.6787
 20
2192.8611
 11
1080.5304
 21
2194.418
  0
LINE
  8
_1-2_仕上
  6
CONTINUOUS
 62
    3
 10
1080.5304
 20
2194.418
 11
1075.6044
 21
2195.8799
  0
LINE
  8
_1-2_仕上
  6
CONTINUOUS
 62
    3
 10
1075.6044
 20
2195.8799
 11
1070.9335
 21
2197.2344
  0
LINE
  8
_1-2_仕上
  6
CONTINUOUS
 62
    3
 10
1176.2585
 20
2217.7665
 11
1176.3384
 21
2217.7947
  0
LINE
  8
_1-2_仕上
  6
CONTINUOUS
 62
    3
 10
1100.0668
 20
2080.8041
 11
1100.0668
 21
2061.3397
  0
LINE
  8
_1-2_仕上
  6
CONTINUOUS
 62
    3
 10
1100.0668
 20
2061.3397
 11
1159.2148
 21
2061.3397
  0
LINE
  8
_1-2_仕上
  6
CONTINUOUS
 62
    3
 10
1159.2148
 20
2080.8041
 11
1159.2148
 21
2061.3397
  0
LINE
  8
_1-2_仕上
  6
CONTINUOUS
 62
    3
 10
1100.0668
 20
2080.8041
 11
1159.2148
 21
2080.8041
  0
LINE
  8
_1-2_仕上
  6
CONTINUOUS
 62
    3
 10
1065.4787
 20
2233.3267
 11
1065.4787
 21
2189.7083
  0
LINE
  8
_1-2_仕上
  6
CONTINUOUS
 62
    3
 10
1071.8359
 20
2220.2478
 11
1071.1757
 21
2219.8751
  0
LINE
  8
_1-2_仕上
  6
CONTINUOUS
 62
    3
 10
1071.1757
 20
2219.8751
 11
1070.5002
 21
2219.4834
  0
LINE
  8
_1-2_仕上
  6
CONTINUOUS
 62
    3
 10
1070.5002
 20
2219.4834
 11
1069.8168
 21
2219.0724
  0
LINE
  8
_1-2_仕上
  6
CONTINUOUS
 62
    3
 10
1069.8168
 20
2219.0724
 11
1069.1183
 21
2218.6421
  0
LINE
  8
_1-2_仕上
  6
CONTINUOUS
 62
    3
 10
1069.1183
 20
2218.6421
 11
1068.4059
 21
2218.198
  0
LINE
  8
_1-2_仕上
  6
CONTINUOUS
 62
    3
 10
1068.4059
 20
2218.198
 11
1067.6814
 21
2217.7313
  0
LINE
  8
_1-2_仕上
  6
CONTINUOUS
 62
    3
 10
1067.6814
 20
2217.7313
 11
1066.9448
 21
2217.2483
  0
LINE
  8
_1-2_仕上
  6
CONTINUOUS
 62
    3
 10
1066.9448
 20
2217.2483
 11
1066.1938
 21
2216.744
  0
LINE
  8
_1-2_仕上
  6
CONTINUOUS
 62
    3
 10
1066.1938
 20
2216.744
 11
1065.4322
 21
2216.2254
  0
LINE
  8
_1-2_仕上
  6
CONTINUOUS
 62
    3
 10
1069.5797
 20
2204.4626
 11
1069.0903
 21
2204.3686
  0
LINE
  8
_1-2_仕上
  6
CONTINUOUS
 62
    3
 10
1069.0903
 20
2204.3686
 11
1068.6075
 21
2204.2815
  0
LINE
  8
_1-2_仕上
  6
CONTINUOUS
 62
    3
 10
1068.6075
 20
2204.2815
 11
1068.1337
 21
2204.1949
  0
LINE
  8
_1-2_仕上
  6
CONTINUOUS
 62
    3
 10
1068.1337
 20
2204.1949
 11
1067.6646
 21
2204.1108
  0
LINE
  8
_1-2_仕上
  6
CONTINUOUS
 62
    3
 10
1067.6646
 20
2204.1108
 11
1067.2053
 21
2204.0306
  0
LINE
  8
_1-2_仕上
  6
CONTINUOUS
 62
    3
 10
1067.2053
 20
2204.0306
 11
1066.7503
 21
2203.9551
  0
LINE
  8
_1-2_仕上
  6
CONTINUOUS
 62
    3
 10
1066.7503
 20
2203.9551
 11
1066.3041
 21
2203.8846
  0
LINE
  8
_1-2_仕上
  6
CONTINUOUS
 62
    3
 10
1066.3041
 20
2203.8846
 11
1065.8632
 21
2203.8153
  0
LINE
  8
_1-2_仕上
  6
CONTINUOUS
 62
    3
 10
1065.8632
 20
2203.8153
 11
1065.4322
 21
2203.7487
  0
LINE
  8
_1-2_仕上
  6
CONTINUOUS
 62
    3
 10
1079.3217
 20
2195.7117
 11
1077.4617
 21
2196.1061
  0
LINE
  8
_1-2_仕上
  6
CONTINUOUS
 62
    3
 10
1077.4617
 20
2196.1061
 11
1075.6772
 21
2196.4871
  0
LINE
  8
_1-2_仕上
  6
CONTINUOUS
 62
    3
 10
1075.6772
 20
2196.4871
 11
1073.9743
 21
2196.8563
  0
LINE
  8
_1-2_仕上
  6
CONTINUOUS
 62
    3
 10
1073.9743
 20
2196.8563
 11
1072.3511
 21
2197.2136
  0
LINE
  8
_1-2_仕上
  6
CONTINUOUS
 62
    3
 10
1072.3511
 20
2197.2136
 11
1070.807
 21
2197.5576
  0
LINE
  8
_1-2_仕上
  6
CONTINUOUS
 62
    3
 10
1070.807
 20
2197.5576
 11
1069.3444
 21
2197.8921
  0
LINE
  8
_1-2_仕上
  6
CONTINUOUS
 62
    3
 10
1069.3444
 20
2197.8921
 11
1067.96
 21
2198.2118
  0
LINE
  8
_1-2_仕上
  6
CONTINUOUS
 62
    3
 10
1067.96
 20
2198.2118
 11
1066.656
 21
2198.5211
  0
LINE
  8
_1-2_仕上
  6
CONTINUOUS
 62
    3
 10
1066.656
 20
2198.5211
 11
1065.4322
 21
2198.816
  0
LINE
  8
_1-2_仕上
  6
CONTINUOUS
 62
    3
 10
1070.9335
 20
2197.2344
 11
1070.2058
 21
2197.4328
  0
LINE
  8
_1-2_仕上
  6
CONTINUOUS
 62
    3
 10
1070.2058
 20
2197.4328
 11
1069.5072
 21
2197.6234
  0
LINE
  8
_1-2_仕上
  6
CONTINUOUS
 62
    3
 10
1069.5072
 20
2197.6234
 11
1068.8396
 21
2197.8119
  0
LINE
  8
_1-2_仕上
  6
CONTINUOUS
 62
    3
 10
1068.8396
 20
2197.8119
 11
1068.2027
 21
2197.993
  0
LINE
  8
_1-2_仕上
  6
CONTINUOUS
 62
    3
 10
1068.2027
 20
2197.993
 11
1067.5982
 21
2198.1668
  0
LINE
  8
_1-2_仕上
  6
CONTINUOUS
 62
    3
 10
1067.5982
 20
2198.1668
 11
1067.0212
 21
2198.3325
  0
LINE
  8
_1-2_仕上
  6
CONTINUOUS
 62
    3
 10
1067.0212
 20
2198.3325
 11
1066.4756
 21
2198.4954
  0
LINE
  8
_1-2_仕上
  6
CONTINUOUS
 62
    3
 10
1066.4756
 20
2198.4954
 11
1065.9619
 21
2198.6527
  0
LINE
  8
_1-2_仕上
  6
CONTINUOUS
 62
    3
 10
1065.9619
 20
2198.6527
 11
1065.4787
 21
2198.8066
  0
LINE
  8
_1-2_仕上
  6
CONTINUOUS
 62
    3
 10
1059.5198
 20
2239.2883
 11
1049.9998
 21
2239.2883
  0
LINE
  8
_1-2_仕上
  6
CONTINUOUS
 62
    3
 10
1059.5198
 20
2147.7051
 11
1049.9998
 21
2147.7051
  0
LINE
  8
_1-2_仕上
  6
CONTINUOUS
 62
    3
 10
1054.9729
 20
2178.7571
 11
1058.4254
 21
2174.8594
  0
LINE
  8
_1-2_仕上
  6
CONTINUOUS
 62
    3
 10
1058.4254
 20
2174.8594
 11
1062.2204
 21
2170.8103
  0
LINE
  8
_1-2_仕上
  6
CONTINUOUS
 62
    3
 10
1062.2204
 20
2170.8103
 11
1066.3017
 21
2166.6573
  0
LINE
  8
_1-2_仕上
  6
CONTINUOUS
 62
    3
 10
1066.3017
 20
2166.6573
 11
1070.618
 21
2162.4429
  0
LINE
  8
_1-2_仕上
  6
CONTINUOUS
 62
    3
 10
1070.618
 20
2162.4429
 11
1075.1192
 21
2158.2077
  0
LINE
  8
_1-2_仕上
  6
CONTINUOUS
 62
    3
 10
1075.1192
 20
2158.2077
 11
1079.7594
 21
2153.9888
  0
LINE
  8
_1-2_仕上
  6
CONTINUOUS
 62
    3
 10
1079.7594
 20
2153.9888
 11
1084.4969
 21
2149.8195
  0
LINE
  8
_1-2_仕上
  6
CONTINUOUS
 62
    3
 10
1084.4969
 20
2149.8195
 11
1089.2908
 21
2145.7303
  0
LINE
  8
_1-2_仕上
  6
CONTINUOUS
 62
    3
 10
1089.2908
 20
2145.7303
 11
1094.1047
 21
2141.7497
  0
LINE
  8
_1-2_仕上
  6
CONTINUOUS
 62
    3
 10
1094.1047
 20
2141.7497
 11
1098.9058
 21
2137.9008
  0
LINE
  8
_1-2_仕上
  6
CONTINUOUS
 62
    3
 10
1098.9058
 20
2137.9008
 11
1103.6636
 21
2134.2068
  0
LINE
  8
_1-2_仕上
  6
CONTINUOUS
 62
    3
 10
1103.6636
 20
2134.2068
 11
1108.3516
 21
2130.683
  0
LINE
  8
_1-2_仕上
  6
CONTINUOUS
 62
    3
 10
1108.3516
 20
2130.683
 11
1112.9455
 21
2127.3475
  0
LINE
  8
_1-2_仕上
  6
CONTINUOUS
 62
    3
 10
1112.9455
 20
2127.3475
 11
1117.4247
 21
2124.2095
  0
LINE
  8
_1-2_仕上
  6
CONTINUOUS
 62
    3
 10
1117.4247
 20
2124.2095
 11
1121.7725
 21
2121.2785
  0
LINE
  8
_1-2_仕上
  6
CONTINUOUS
 62
    3
 10
1121.7725
 20
2121.2785
 11
1125.9733
 21
2118.5599
  0
LINE
  8
_1-2_仕上
  6
CONTINUOUS
 62
    3
 10
1125.9733
 20
2118.5599
 11
1130.0169
 21
2116.0558
  0
LINE
  8
_1-2_仕上
  6
CONTINUOUS
 62
    3
 10
1130.0169
 20
2116.0558
 11
1133.895
 21
2113.766
  0
LINE
  8
_1-2_仕上
  6
CONTINUOUS
 62
    3
 10
1133.895
 20
2113.766
 11
1137.6029
 21
2111.686
  0
LINE
  8
_1-2_仕上
  6
CONTINUOUS
 62
    3
 10
1137.6029
 20
2111.686
 11
1137.8756
 21
2111.5668
  0
LINE
  8
_1-2_仕上
  6
CONTINUOUS
 62
    3
 10
1137.8756
 20
2111.5668
 11
1138.1456
 21
2111.4529
  0
LINE
  8
_1-2_仕上
  6
CONTINUOUS
 62
    3
 10
1138.1456
 20
2111.4529
 11
1138.4135
 21
2111.3451
  0
LINE
  8
_1-2_仕上
  6
CONTINUOUS
 62
    3
 10
1138.4135
 20
2111.3451
 11
1138.6778
 21
2111.2429
  0
LINE
  8
_1-2_仕上
  6
CONTINUOUS
 62
    3
 10
1138.6778
 20
2111.2429
 11
1138.9401
 21
2111.1461
  0
LINE
  8
_1-2_仕上
  6
CONTINUOUS
 62
    3
 10
1138.9401
 20
2111.1461
 11
1139.1989
 21
2111.0551
  0
LINE
  8
_1-2_仕上
  6
CONTINUOUS
 62
    3
 10
1139.1989
 20
2111.0551
 11
1139.4555
 21
2110.9695
  0
LINE
  8
_1-2_仕上
  6
CONTINUOUS
 62
    3
 10
1139.4555
 20
2110.9695
 11
1139.7091
 21
2110.89
  0
LINE
  8
_1-2_仕上
  6
CONTINUOUS
 62
    3
 10
1139.7091
 20
2110.89
 11
1139.9595
 21
2110.8155
  0
LINE
  8
_1-2_仕上
  6
CONTINUOUS
 62
    3
 10
1054.9729
 20
2178.7571
 11
1057.014
 21
2179.7706
  0
LINE
  8
_1-2_仕上
  6
CONTINUOUS
 62
    3
 10
1057.014
 20
2179.7706
 11
1058.8364
 21
2180.8356
  0
LINE
  8
_1-2_仕上
  6
CONTINUOUS
 62
    3
 10
1058.8364
 20
2180.8356
 11
1060.4405
 21
2181.9505
  0
LINE
  8
_1-2_仕上
  6
CONTINUOUS
 62
    3
 10
1060.4405
 20
2181.9505
 11
1061.8265
 21
2183.1165
  0
LINE
  8
_1-2_仕上
  6
CONTINUOUS
 62
    3
 10
1061.8265
 20
2183.1165
 11
1062.9939
 21
2184.3334
  0
LINE
  8
_1-2_仕上
  6
CONTINUOUS
 62
    3
 10
1062.9939
 20
2184.3334
 11
1063.9426
 21
2185.6008
  0
LINE
  8
_1-2_仕上
  6
CONTINUOUS
 62
    3
 10
1063.9426
 20
2185.6008
 11
1064.673
 21
2186.9191
  0
LINE
  8
_1-2_仕上
  6
CONTINUOUS
 62
    3
 10
1064.673
 20
2186.9191
 11
1065.1847
 21
2188.288
  0
LINE
  8
_1-2_仕上
  6
CONTINUOUS
 62
    3
 10
1065.1847
 20
2188.288
 11
1065.4787
 21
2189.7083
  0
LINE
  8
_1-2_仕上
  6
CONTINUOUS
 62
    3
 10
1065.4802
 20
2153.6667
 11
1065.4802
 21
2167.4939
  0
LINE
  8
_1-2_仕上
  6
CONTINUOUS
 62
    3
 10
1142.8922
 20
2205.1154
 11
1131.1546
 21
2230.9852
  0
LINE
  8
_1-2_仕上
  6
CONTINUOUS
 62
    3
 10
1119.84
 20
2034.383
 11
1049.9998
 21
2034.383
  0
LINE
  8
_1-2_仕上
  6
CONTINUOUS
 62
    3
 10
1131.5144
 20
2046.0578
 11
1131.5144
 21
2061.3397
  0
LINE
  8
_1-2_仕上
  6
CONTINUOUS
 62
    3
 10
1114.0029
 20
2023.8861
 11
1049.9998
 21
2023.8861
  0
LINE
  8
_1-2_仕上
  6
CONTINUOUS
 62
    3
 10
1119.84
 20
2029.7235
 11
1119.84
 21
2034.383
  0
LINE
  8
_1-2_仕上
  6
CONTINUOUS
 62
    3
 10
1105.5464
 20
2132.7917
 11
1049.9998
 21
2132.7917
  0
LINE
  8
_1-2_仕上
  6
CONTINUOUS
 62
    3
 10
1131.5144
 20
2080.8041
 11
1131.5144
 21
2115.1715
  0
LINE
  8
_1-2_仕上
  6
CONTINUOUS
 62
    3
 10
745.0001
 20
2053.3686
 11
1049.9998
 21
2053.3686
  0
LINE
  8
_1-2_仕上
  6
CONTINUOUS
 62
    3
 10
745.0001
 20
2066.3685
 11
1049.9998
 21
2066.3685
  0
LINE
  8
_1-2_仕上
  6
CONTINUOUS
 62
    3
 10
1355.0001
 20
2053.3686
 11
1355.0001
 21
1981.0345
  0
LINE
  8
_1-2_仕上
  6
CONTINUOUS
 62
    3
 10
1423.3336
 20
1981.0345
 11
1355.0001
 21
2020.4868
  0
LINE
  8
_1-2_仕上
  6
CONTINUOUS
 62
    3
 10
564.66843
 20
2379.6688
 11
1049.9998
 21
2491.0345
  0
LINE
  8
_1-2_仕上
  6
CONTINUOUS
 62
    3
 10
1535.3323
 20
2379.6688
 11
1049.9998
 21
2491.0345
  0
LINE
  8
_1-2_仕上
  6
CONTINUOUS
 62
    3
 10
583.3348
 20
2384.3682
 11
583.3348
 21
2259.7013
  0
LINE
  8
_1-2_仕上
  6
CONTINUOUS
 62
    3
 10
1516.6664
 20
2384.3682
 11
1516.6664
 21
2259.7013
  0
LINE
  8
_1-2_仕上
  6
CONTINUOUS
 62
    3
 10
583.3348
 20
2246.7018
 11
583.3348
 21
2207.7016
  0
LINE
  8
_1-2_仕上
  6
CONTINUOUS
 62
    3
 10
583.3348
 20
2194.7019
 11
583.3348
 21
2164.368
  0
LINE
  8
_1-2_仕上
  6
CONTINUOUS
 62
    3
 10
1516.6664
 20
2246.7018
 11
1516.6664
 21
2207.7016
  0
LINE
  8
_1-2_仕上
  6
CONTINUOUS
 62
    3
 10
1516.6654
 20
2194.7019
 11
1516.6654
 21
2164.368
  0
LINE
  8
_1-2_仕上
  6
CONTINUOUS
 62
    3
 10
583.3348
 20
2384.3682
 11
1049.9998
 21
2384.3682
  0
LINE
  8
_1-2_仕上
  6
CONTINUOUS
 62
    3
 10
1355.0001
 20
2164.368
 11
1516.6664
 21
2164.368
  0
LINE
  8
_1-2_仕上
  6
CONTINUOUS
 62
    3
 10
1355.0001
 20
2194.7019
 11
1516.6664
 21
2194.7019
  0
LINE
  8
_1-2_仕上
  6
CONTINUOUS
 62
    3
 10
1355.0001
 20
2207.7016
 11
1516.6664
 21
2207.7016
  0
LINE
  8
_1-2_仕上
  6
CONTINUOUS
 62
    3
 10
1355.0001
 20
2246.7018
 11
1516.6664
 21
2246.7018
  0
LINE
  8
_1-2_仕上
  6
CONTINUOUS
 62
    3
 10
1355.0001
 20
2259.7013
 11
1516.6664
 21
2259.7013
  0
LINE
  8
_1-2_仕上
  6
CONTINUOUS
 62
    3
 10
583.3348
 20
2164.368
 11
1049.9998
 21
2164.368
  0
LINE
  8
_1-2_仕上
  6
CONTINUOUS
 62
    3
 10
583.3348
 20
2194.7019
 11
1049.9998
 21
2194.7019
  0
LINE
  8
_1-2_仕上
  6
CONTINUOUS
 62
    3
 10
583.3348
 20
2207.7016
 11
1049.9998
 21
2207.7016
  0
LINE
  8
_1-2_仕上
  6
CONTINUOUS
 62
    3
 10
583.3348
 20
2246.7018
 11
1049.9998
 21
2246.7018
  0
LINE
  8
_1-2_仕上
  6
CONTINUOUS
 62
    3
 10
583.3348
 20
2259.7013
 11
1049.9998
 21
2259.7013
  0
LINE
  8
_1-8_
  6
CONTINUOUS
 62
    7
 10
818.91904
 20
2491.0345
 11
325.5167
 21
2491.0345
  0
LINE
  8
_1-2_仕上
  6
CONTINUOUS
 62
    3
 10
1131.5144
 20
2066.3685
 11
1355.0001
 21
2066.3685
  0
LINE
  8
_1-2_仕上
  6
CONTINUOUS
 62
    3
 10
1131.5144
 20
2053.3686
 11
1355.0001
 21
2053.3686
  0
LINE
  8
_1-2_仕上
  6
CONTINUOUS
 62
    3
 10
745.0001
 20
2164.368
 11
745.0001
 21
2066.3685
  0
LINE
  8
_1-2_仕上
  6
CONTINUOUS
 62
    3
 10
1355.0001
 20
2292.2983
 11
1049.9998
 21
2292.2983
  0
LINE
  8
_1-2_仕上
  6
CONTINUOUS
 62
    3
 10
1252.5172
 20
2442.134
 11
1049.9998
 21
2442.134
  0
LINE
  8
_1-2_仕上
  6
CONTINUOUS
 62
    3
 10
1355.0001
 20
2292.2983
 11
1355.0001
 21
2307.3689
  0
LINE
  8
_1-2_仕上
  6
CONTINUOUS
 62
    3
 10
1355.0001
 20
2280.3376
 11
1355.0001
 21
2066.3685
  0
LINE
  8
_1-2_仕上
  6
CONTINUOUS
 62
    3
 10
1355.0001
 20
2280.3376
 11
1278.3012
 21
2280.3376
  0
LINE
  8
_1-2_仕上
  6
CONTINUOUS
 62
    3
 10
1130.3826
 20
2280.3376
 11
1049.9998
 21
2280.3376
  0
LINE
  8
_1-2_仕上
  6
CONTINUOUS
 62
    3
 10
1355.0001
 20
2292.2986
 11
1355.0001
 21
2307.3689
  0
LINE
  8
_1-2_仕上
  6
CONTINUOUS
 62
    3
 10
1049.9998
 20
2307.3689
 11
1355.0001
 21
2307.3689
  0
LINE
  8
_1-4_
  6
CONTINUOUS
 62
    3
 10
1355.0001
 20
2421.0484
 11
1050
 21
2421.0484
  0
LINE
  8
_1-2_仕上
  6
CONTINUOUS
 62
    3
 10
1252.5172
 20
2442.134
 11
1215.9959
 21
2421.0484
  0
LINE
  8
_1-2_仕上
  6
CONTINUOUS
 62
    3
 10
1355.0001
 20
2384.3682
 11
1516.6664
 21
2384.3682
  0
LINE
  8
_1-4_
  6
CONTINUOUS
 62
    3
 10
1355.0001
 20
2307.3689
 11
1355.0001
 21
2421.0484
  0
LINE
  8
_1-4_
  6
CONTINUOUS
 62
    4
 10
1355.0001
 20
2416.0484
 11
1050
 21
2416.0484
  0
LINE
  8
_1-4_
  6
CONTINUOUS
 62
    4
 10
1355.0001
 20
2411.0484
 11
1050
 21
2411.0484
  0
LINE
  8
_1-4_
  6
CONTINUOUS
 62
    4
 10
1355.0001
 20
2406.0484
 11
1050
 21
2406.0484
  0
LINE
  8
_1-4_
  6
CONTINUOUS
 62
    4
 10
1355.0001
 20
2401.0484
 11
1050
 21
2401.0484
  0
LINE
  8
_1-4_
  6
CONTINUOUS
 62
    4
 10
1355.0001
 20
2396.0483
 11
1050
 21
2396.0483
  0
LINE
  8
_1-4_
  6
CONTINUOUS
 62
    4
 10
1355.0001
 20
2391.0483
 11
1050
 21
2391.0483
  0
LINE
  8
_1-4_
  6
CONTINUOUS
 62
    4
 10
1350.0001
 20
2307.3689
 11
1350.0001
 21
2421.0484
  0
LINE
  8
_1-4_
  6
CONTINUOUS
 62
    4
 10
1345.0001
 20
2307.3689
 11
1345.0001
 21
2421.0484
  0
LINE
  8
_1-4_
  6
CONTINUOUS
 62
    4
 10
1340
 20
2307.3689
 11
1340
 21
2421.0484
  0
LINE
  8
_1-4_
  6
CONTINUOUS
 62
    4
 10
1335.0001
 20
2307.3689
 11
1335.0001
 21
2421.0484
  0
LINE
  8
_1-4_
  6
CONTINUOUS
 62
    4
 10
1330.0001
 20
2307.3689
 11
1330.0001
 21
2421.0484
  0
LINE
  8
_1-4_
  6
CONTINUOUS
 62
    4
 10
1325.0001
 20
2307.3689
 11
1325.0001
 21
2421.0484
  0
LINE
  8
_1-4_
  6
CONTINUOUS
 62
    4
 10
1355.0001
 20
2386.0483
 11
1050
 21
2386.0483
  0
LINE
  8
_1-4_
  6
CONTINUOUS
 62
    4
 10
1355.0001
 20
2381.0483
 11
1050
 21
2381.0483
  0
LINE
  8
_1-4_
  6
CONTINUOUS
 62
    4
 10
1355.0001
 20
2376.0483
 11
1050
 21
2376.0483
  0
LINE
  8
_1-4_
  6
CONTINUOUS
 62
    4
 10
1355.0001
 20
2371.0483
 11
1050
 21
2371.0483
  0
LINE
  8
_1-4_
  6
CONTINUOUS
 62
    4
 10
1355.0001
 20
2366.0482
 11
1050
 21
2366.0482
  0
LINE
  8
_1-4_
  6
CONTINUOUS
 62
    4
 10
1355.0001
 20
2361.0482
 11
1050
 21
2361.0482
  0
LINE
  8
_1-4_
  6
CONTINUOUS
 62
    4
 10
1355.0001
 20
2356.0482
 11
1050
 21
2356.0482
  0
LINE
  8
_1-4_
  6
CONTINUOUS
 62
    4
 10
1355.0001
 20
2351.0482
 11
1050
 21
2351.0482
  0
LINE
  8
_1-4_
  6
CONTINUOUS
 62
    4
 10
1355.0001
 20
2346.0482
 11
1050
 21
2346.0482
  0
LINE
  8
_1-4_
  6
CONTINUOUS
 62
    4
 10
1355.0001
 20
2341.0482
 11
1050
 21
2341.0482
  0
LINE
  8
_1-4_
  6
CONTINUOUS
 62
    4
 10
1355.0001
 20
2336.0481
 11
1050
 21
2336.0481
  0
LINE
  8
_1-4_
  6
CONTINUOUS
 62
    4
 10
1355.0001
 20
2331.0481
 11
1050
 21
2331.0481
  0
LINE
  8
_1-4_
  6
CONTINUOUS
 62
    4
 10
1355.0001
 20
2326.0481
 11
1050
 21
2326.0481
  0
LINE
  8
_1-4_
  6
CONTINUOUS
 62
    4
 10
1355.0001
 20
2321.0481
 11
1050
 21
2321.0481
  0
LINE
  8
_1-4_
  6
CONTINUOUS
 62
    4
 10
1355.0001
 20
2316.0481
 11
1050
 21
2316.0481
  0
LINE
  8
_1-4_
  6
CONTINUOUS
 62
    4
 10
1355.0001
 20
2311.0481
 11
1050
 21
2311.0481
  0
LINE
  8
_1-4_
  6
CONTINUOUS
 62
    4
 10
1320.0001
 20
2307.3689
 11
1320.0001
 21
2421.0484
  0
LINE
  8
_1-4_
  6
CONTINUOUS
 62
    4
 10
1315.0001
 20
2307.3689
 11
1315.0001
 21
2421.0484
  0
LINE
  8
_1-4_
  6
CONTINUOUS
 62
    4
 10
1310.0001
 20
2307.3689
 11
1310.0001
 21
2421.0484
  0
LINE
  8
_1-4_
  6
CONTINUOUS
 62
    4
 10
1305.0002
 20
2307.3689
 11
1305.0002
 21
2421.0484
  0
LINE
  8
_1-4_
  6
CONTINUOUS
 62
    4
 10
1300.0002
 20
2307.3689
 11
1300.0002
 21
2421.0484
  0
LINE
  8
_1-4_
  6
CONTINUOUS
 62
    4
 10
1295.0001
 20
2307.3689
 11
1295.0001
 21
2421.0484
  0
LINE
  8
_1-4_
  6
CONTINUOUS
 62
    4
 10
1290.0001
 20
2307.3689
 11
1290.0001
 21
2421.0484
  0
LINE
  8
_1-4_
  6
CONTINUOUS
 62
    4
 10
1285.0001
 20
2307.3689
 11
1285.0001
 21
2421.0484
  0
LINE
  8
_1-4_
  6
CONTINUOUS
 62
    4
 10
1280.0001
 20
2307.3689
 11
1280.0001
 21
2421.0484
  0
LINE
  8
_1-4_
  6
CONTINUOUS
 62
    4
 10
1275.0002
 20
2307.3689
 11
1275.0002
 21
2421.0484
  0
LINE
  8
_1-4_
  6
CONTINUOUS
 62
    4
 10
1270.0002
 20
2307.3689
 11
1270.0002
 21
2421.0484
  0
LINE
  8
_1-4_
  6
CONTINUOUS
 62
    4
 10
1265.0002
 20
2307.3689
 11
1265.0002
 21
2421.0484
  0
LINE
  8
_1-4_
  6
CONTINUOUS
 62
    4
 10
1260.0001
 20
2307.3689
 11
1260.0001
 21
2421.0484
  0
LINE
  8
_1-4_
  6
CONTINUOUS
 62
    4
 10
1255.0001
 20
2307.3689
 11
1255.0001
 21
2421.0484
  0
LINE
  8
_1-4_
  6
CONTINUOUS
 62
    4
 10
1250.0001
 20
2307.3689
 11
1250.0001
 21
2421.0484
  0
LINE
  8
_1-4_
  6
CONTINUOUS
 62
    4
 10
1245.0002
 20
2307.3689
 11
1245.0002
 21
2421.0484
  0
LINE
  8
_1-4_
  6
CONTINUOUS
 62
    4
 10
1240.0002
 20
2307.3689
 11
1240.0002
 21
2421.0484
  0
LINE
  8
_1-4_
  6
CONTINUOUS
 62
    4
 10
1235.0002
 20
2307.3689
 11
1235.0002
 21
2421.0484
  0
LINE
  8
_1-4_
  6
CONTINUOUS
 62
    4
 10
1230.0002
 20
2307.3689
 11
1230.0002
 21
2421.0484
  0
LINE
  8
_1-4_
  6
CONTINUOUS
 62
    4
 10
1225.0002
 20
2307.3689
 11
1225.0002
 21
2421.0484
  0
LINE
  8
_1-4_
  6
CONTINUOUS
 62
    4
 10
1220.0001
 20
2307.3689
 11
1220.0001
 21
2421.0484
  0
LINE
  8
_1-4_
  6
CONTINUOUS
 62
    4
 10
1215.0002
 20
2307.3689
 11
1215.0002
 21
2421.0484
  0
LINE
  8
_1-4_
  6
CONTINUOUS
 62
    4
 10
1210.0002
 20
2307.3689
 11
1210.0002
 21
2421.0484
  0
LINE
  8
_1-4_
  6
CONTINUOUS
 62
    4
 10
1205.0002
 20
2307.3689
 11
1205.0002
 21
2421.0484
  0
LINE
  8
_1-4_
  6
CONTINUOUS
 62
    4
 10
1200.0002
 20
2307.3689
 11
1200.0002
 21
2421.0484
  0
LINE
  8
_1-4_
  6
CONTINUOUS
 62
    4
 10
1195.0002
 20
2307.3689
 11
1195.0002
 21
2421.0484
  0
LINE
  8
_1-4_
  6
CONTINUOUS
 62
    4
 10
1190.0002
 20
2307.3689
 11
1190.0002
 21
2421.0484
  0
LINE
  8
_1-4_
  6
CONTINUOUS
 62
    4
 10
1185.0003
 20
2307.3689
 11
1185.0003
 21
2421.0484
  0
LINE
  8
_1-4_
  6
CONTINUOUS
 62
    4
 10
1180.0003
 20
2307.3689
 11
1180.0003
 21
2421.0484
  0
LINE
  8
_1-4_
  6
CONTINUOUS
 62
    4
 10
1175.0002
 20
2307.3689
 11
1175.0002
 21
2421.0484
  0
LINE
  8
_1-4_
  6
CONTINUOUS
 62
    4
 10
1170.0002
 20
2307.3689
 11
1170.0002
 21
2421.0484
  0
LINE
  8
_1-4_
  6
CONTINUOUS
 62
    4
 10
1165.0002
 20
2307.3689
 11
1165.0002
 21
2421.0484
  0
LINE
  8
_1-4_
  6
CONTINUOUS
 62
    4
 10
1160.0002
 20
2307.3689
 11
1160.0002
 21
2421.0484
  0
LINE
  8
_1-4_
  6
CONTINUOUS
 62
    4
 10
1155.0003
 20
2307.3689
 11
1155.0003
 21
2421.0484
  0
LINE
  8
_1-4_
  6
CONTINUOUS
 62
    4
 10
1150.0003
 20
2307.3689
 11
1150.0003
 21
2421.0484
  0
LINE
  8
_1-4_
  6
CONTINUOUS
 62
    4
 10
1145.0003
 20
2307.3689
 11
1145.0003
 21
2421.0484
  0
LINE
  8
_1-4_
  6
CONTINUOUS
 62
    4
 10
1140.0002
 20
2307.3689
 11
1140.0002
 21
2421.0484
  0
LINE
  8
_1-4_
  6
CONTINUOUS
 62
    4
 10
1135.0002
 20
2307.3689
 11
1135.0002
 21
2421.0484
  0
LINE
  8
_1-4_
  6
CONTINUOUS
 62
    4
 10
1130.0002
 20
2307.3689
 11
1130.0002
 21
2421.0484
  0
LINE
  8
_1-4_
  6
CONTINUOUS
 62
    4
 10
1125.0003
 20
2307.3689
 11
1125.0003
 21
2421.0484
  0
LINE
  8
_1-4_
  6
CONTINUOUS
 62
    4
 10
1120.0003
 20
2307.3689
 11
1120.0003
 21
2421.0484
  0
LINE
  8
_1-4_
  6
CONTINUOUS
 62
    4
 10
1115.0003
 20
2307.3689
 11
1115.0003
 21
2421.0484
  0
LINE
  8
_1-4_
  6
CONTINUOUS
 62
    4
 10
1110.0003
 20
2307.3689
 11
1110.0003
 21
2421.0484
  0
LINE
  8
_1-4_
  6
CONTINUOUS
 62
    4
 10
1105.0003
 20
2307.3689
 11
1105.0003
 21
2421.0484
  0
LINE
  8
_1-4_
  6
CONTINUOUS
 62
    4
 10
1100.0002
 20
2307.3689
 11
1100.0002
 21
2421.0484
  0
LINE
  8
_1-4_
  6
CONTINUOUS
 62
    4
 10
1095.0003
 20
2307.3689
 11
1095.0003
 21
2421.0484
  0
LINE
  8
_1-4_
  6
CONTINUOUS
 62
    4
 10
1090.0003
 20
2307.3689
 11
1090.0003
 21
2421.0484
  0
LINE
  8
_1-4_
  6
CONTINUOUS
 62
    4
 10
1085.0003
 20
2307.3689
 11
1085.0003
 21
2421.0484
  0
LINE
  8
_1-4_
  6
CONTINUOUS
 62
    4
 10
1080.0003
 20
2307.3689
 11
1080.0003
 21
2421.0484
  0
LINE
  8
_1-4_
  6
CONTINUOUS
 62
    4
 10
1075.0003
 20
2307.3689
 11
1075.0003
 21
2421.0484
  0
LINE
  8
_1-4_
  6
CONTINUOUS
 62
    4
 10
1070.0003
 20
2307.3689
 11
1070.0003
 21
2421.0484
  0
LINE
  8
_1-4_
  6
CONTINUOUS
 62
    4
 10
1065.0004
 20
2307.3689
 11
1065.0004
 21
2421.0484
  0
LINE
  8
_1-4_
  6
CONTINUOUS
 62
    4
 10
1060.0004
 20
2307.3689
 11
1060.0004
 21
2421.0484
  0
LINE
  8
_1-4_
  6
CONTINUOUS
 62
    4
 10
1055.0003
 20
2307.3689
 11
1055.0003
 21
2421.0484
  0
LINE
  8
_1-1_1-1___
  6
CENTER2
 62
    7
 10
1050
 20
1847.3485
 11
1050
 21
2586.4864
  0
LINE
  8
_1-2_仕上
  6
CONTINUOUS
 62
    3
 10
1355.0001
 20
2053.3682
 11
1355.0001
 21
2053.3682
  0
LINE
  8
_1-2_仕上
  6
CONTINUOUS
 62
    3
 10
1355.0001
 20
2053.3682
 11
1356.0757
 21
2053.467
  0
LINE
  8
_1-2_仕上
  6
CONTINUOUS
 62
    3
 10
1356.0757
 20
2053.467
 11
1357.1187
 21
2053.7602
  0
LINE
  8
_1-2_仕上
  6
CONTINUOUS
 62
    3
 10
1357.1187
 20
2053.7602
 11
1358.0973
 21
2054.2391
  0
LINE
  8
_1-2_仕上
  6
CONTINUOUS
 62
    3
 10
1358.0973
 20
2054.2391
 11
1358.9818
 21
2054.8889
  0
LINE
  8
_1-2_仕上
  6
CONTINUOUS
 62
    3
 10
1358.9818
 20
2054.8889
 11
1359.7453
 21
2055.6901
  0
LINE
  8
_1-2_仕上
  6
CONTINUOUS
 62
    3
 10
1359.7453
 20
2055.6901
 11
1360.3646
 21
2056.6182
  0
LINE
  8
_1-2_仕上
  6
CONTINUOUS
 62
    3
 10
1360.3646
 20
2056.6182
 11
1360.821
 21
2057.6451
  0
LINE
  8
_1-2_仕上
  6
CONTINUOUS
 62
    3
 10
1360.821
 20
2057.6451
 11
1361.1004
 21
2058.7395
  0
LINE
  8
_1-2_仕上
  6
CONTINUOUS
 62
    3
 10
1361.1004
 20
2058.7395
 11
1361.1945
 21
2059.8682
  0
LINE
  8
_1-2_仕上
  6
CONTINUOUS
 62
    3
 10
1361.1945
 20
2059.8682
 11
1361.1004
 21
2060.9969
  0
LINE
  8
_1-2_仕上
  6
CONTINUOUS
 62
    3
 10
1361.1004
 20
2060.9969
 11
1360.821
 21
2062.0913
  0
LINE
  8
_1-2_仕上
  6
CONTINUOUS
 62
    3
 10
1360.821
 20
2062.0913
 11
1360.3646
 21
2063.1181
  0
LINE
  8
_1-2_仕上
  6
CONTINUOUS
 62
    3
 10
1360.3646
 20
2063.1181
 11
1359.7453
 21
2064.0463
  0
LINE
  8
_1-2_仕上
  6
CONTINUOUS
 62
    3
 10
1359.7453
 20
2064.0463
 11
1358.9818
 21
2064.8474
  0
LINE
  8
_1-2_仕上
  6
CONTINUOUS
 62
    3
 10
1358.9818
 20
2064.8474
 11
1358.0973
 21
2065.4973
  0
LINE
  8
_1-2_仕上
  6
CONTINUOUS
 62
    3
 10
1358.0973
 20
2065.4973
 11
1357.1187
 21
2065.9761
  0
LINE
  8
_1-2_仕上
  6
CONTINUOUS
 62
    3
 10
1357.1187
 20
2065.9761
 11
1356.0757
 21
2066.2694
  0
LINE
  8
_1-2_仕上
  6
CONTINUOUS
 62
    3
 10
1356.0757
 20
2066.2694
 11
1355.0001
 21
2066.3681
  0
LINE
  8
_1-2_仕上
  6
CONTINUOUS
 62
    3
 10
1355.0001
 20
2066.3681
 11
1355.0001
 21
2066.3681
  0
LINE
  8
_1-2_仕上
  6
CONTINUOUS
 62
    3
 10
745.0001
 20
2066.3681
 11
745.0001
 21
2066.3681
  0
LINE
  8
_1-2_仕上
  6
CONTINUOUS
 62
    3
 10
745.0001
 20
2066.3681
 11
743.92445
 21
2066.2694
  0
LINE
  8
_1-2_仕上
  6
CONTINUOUS
 62
    3
 10
743.92445
 20
2066.2694
 11
742.88148
 21
2065.9761
  0
LINE
  8
_1-2_仕上
  6
CONTINUOUS
 62
    3
 10
742.88148
 20
2065.9761
 11
741.90288
 21
2065.4973
  0
LINE
  8
_1-2_仕上
  6
CONTINUOUS
 62
    3
 10
741.90288
 20
2065.4973
 11
741.01839
 21
2064.8474
  0
LINE
  8
_1-2_仕上
  6
CONTINUOUS
 62
    3
 10
741.01839
 20
2064.8474
 11
740.25489
 21
2064.0463
  0
LINE
  8
_1-2_仕上
  6
CONTINUOUS
 62
    3
 10
740.25489
 20
2064.0463
 11
739.63556
 21
2063.1181
  0
LINE
  8
_1-2_仕上
  6
CONTINUOUS
 62
    3
 10
739.63556
 20
2063.1181
 11
739.17924
 21
2062.0913
  0
LINE
  8
_1-2_仕上
  6
CONTINUOUS
 62
    3
 10
739.17924
 20
2062.0913
 11
738.89977
 21
2060.9969
  0
LINE
  8
_1-2_仕上
  6
CONTINUOUS
 62
    3
 10
738.89977
 20
2060.9969
 11
738.80567
 21
2059.8682
  0
LINE
  8
_1-2_仕上
  6
CONTINUOUS
 62
    3
 10
738.80567
 20
2059.8682
 11
738.89977
 21
2058.7395
  0
LINE
  8
_1-2_仕上
  6
CONTINUOUS
 62
    3
 10
738.89977
 20
2058.7395
 11
739.17924
 21
2057.6451
  0
LINE
  8
_1-2_仕上
  6
CONTINUOUS
 62
    3
 10
739.17924
 20
2057.6451
 11
739.63556
 21
2056.6182
  0
LINE
  8
_1-2_仕上
  6
CONTINUOUS
 62
    3
 10
739.63556
 20
2056.6182
 11
740.25489
 21
2055.6901
  0
LINE
  8
_1-2_仕上
  6
CONTINUOUS
 62
    3
 10
740.25489
 20
2055.6901
 11
741.01839
 21
2054.8889
  0
LINE
  8
_1-2_仕上
  6
CONTINUOUS
 62
    3
 10
741.01839
 20
2054.8889
 11
741.90288
 21
2054.2391
  0
LINE
  8
_1-2_仕上
  6
CONTINUOUS
 62
    3
 10
741.90288
 20
2054.2391
 11
742.88148
 21
2053.7602
  0
LINE
  8
_1-2_仕上
  6
CONTINUOUS
 62
    3
 10
742.88148
 20
2053.7602
 11
743.92445
 21
2053.467
  0
LINE
  8
_1-2_仕上
  6
CONTINUOUS
 62
    3
 10
743.92445
 20
2053.467
 11
745.0001
 21
2053.3682
  0
LINE
  8
_1-2_仕上
  6
CONTINUOUS
 62
    3
 10
745.0001
 20
2053.3682
 11
745.0001
 21
2053.3682
  0
ARC
  8
_1-2_仕上
  6
CONTINUOUS
 62
    3
 10
1059.5198
 20
2153.6667
 40
5.960415
 50
270
 51
0
  0
ARC
  8
_1-2_仕上
  6
CONTINUOUS
 62
    3
 10
1059.5198
 20
2233.3267
 40
5.960415
 50
0
 51
90
  0
ARC
  8
_1-2_仕上
  6
CONTINUOUS
 62
    3
 10
1119.84
 20
2046.0578
 40
11.67452
 50
270
 51
0
  0
ARC
  8
_1-2_仕上
  6
CONTINUOUS
 62
    3
 10
1114.0029
 20
2029.7235
 40
5.83726
 50
270
 51
0
  0
LINE
  8
_1-2_仕上
  6
CONTINUOUS
 62
    3
 10
1516.6664
 20
2246.7019
 11
1516.6664
 21
2246.7019
  0
LINE
  8
_1-2_仕上
  6
CONTINUOUS
 62
    3
 10
1516.6664
 20
2246.7019
 11
1517.742
 21
2246.8006
  0
LINE
  8
_1-2_仕上
  6
CONTINUOUS
 62
    3
 10
1517.742
 20
2246.8006
 11
1518.785
 21
2247.0939
  0
LINE
  8
_1-2_仕上
  6
CONTINUOUS
 62
    3
 10
1518.785
 20
2247.0939
 11
1519.7636
 21
2247.5727
  0
LINE
  8
_1-2_仕上
  6
CONTINUOUS
 62
    3
 10
1519.7636
 20
2247.5727
 11
1520.6481
 21
2248.2226
  0
LINE
  8
_1-2_仕上
  6
CONTINUOUS
 62
    3
 10
1520.6481
 20
2248.2226
 11
1521.4116
 21
2249.0237
  0
LINE
  8
_1-2_仕上
  6
CONTINUOUS
 62
    3
 10
1521.4116
 20
2249.0237
 11
1522.0309
 21
2249.9519
  0
LINE
  8
_1-2_仕上
  6
CONTINUOUS
 62
    3
 10
1522.0309
 20
2249.9519
 11
1522.4872
 21
2250.9787
  0
LINE
  8
_1-2_仕上
  6
CONTINUOUS
 62
    3
 10
1522.4872
 20
2250.9787
 11
1522.7667
 21
2252.0731
  0
LINE
  8
_1-2_仕上
  6
CONTINUOUS
 62
    3
 10
1522.7667
 20
2252.0731
 11
1522.8608
 21
2253.2018
  0
LINE
  8
_1-2_仕上
  6
CONTINUOUS
 62
    3
 10
1522.8608
 20
2253.2018
 11
1522.7667
 21
2254.3305
  0
LINE
  8
_1-2_仕上
  6
CONTINUOUS
 62
    3
 10
1522.7667
 20
2254.3305
 11
1522.4872
 21
2255.4249
  0
LINE
  8
_1-2_仕上
  6
CONTINUOUS
 62
    3
 10
1522.4872
 20
2255.4249
 11
1522.0309
 21
2256.4518
  0
LINE
  8
_1-2_仕上
  6
CONTINUOUS
 62
    3
 10
1522.0309
 20
2256.4518
 11
1521.4116
 21
2257.3799
  0
LINE
  8
_1-2_仕上
  6
CONTINUOUS
 62
    3
 10
1521.4116
 20
2257.3799
 11
1520.6481
 21
2258.1811
  0
LINE
  8
_1-2_仕上
  6
CONTINUOUS
 62
    3
 10
1520.6481
 20
2258.1811
 11
1519.7636
 21
2258.8309
  0
LINE
  8
_1-2_仕上
  6
CONTINUOUS
 62
    3
 10
1519.7636
 20
2258.8309
 11
1518.785
 21
2259.3098
  0
LINE
  8
_1-2_仕上
  6
CONTINUOUS
 62
    3
 10
1518.785
 20
2259.3098
 11
1517.742
 21
2259.603
  0
LINE
  8
_1-2_仕上
  6
CONTINUOUS
 62
    3
 10
1517.742
 20
2259.603
 11
1516.6664
 21
2259.7018
  0
LINE
  8
_1-2_仕上
  6
CONTINUOUS
 62
    3
 10
1516.6664
 20
2259.7018
 11
1516.6664
 21
2259.7018
  0
LINE
  8
_1-2_仕上
  6
CONTINUOUS
 62
    3
 10
1516.6664
 20
2194.7019
 11
1516.6664
 21
2194.7019
  0
LINE
  8
_1-2_仕上
  6
CONTINUOUS
 62
    3
 10
1516.6664
 20
2194.7019
 11
1517.742
 21
2194.8007
  0
LINE
  8
_1-2_仕上
  6
CONTINUOUS
 62
    3
 10
1517.742
 20
2194.8007
 11
1518.785
 21
2195.0939
  0
LINE
  8
_1-2_仕上
  6
CONTINUOUS
 62
    3
 10
1518.785
 20
2195.0939
 11
1519.7636
 21
2195.5727
  0
LINE
  8
_1-2_仕上
  6
CONTINUOUS
 62
    3
 10
1519.7636
 20
2195.5727
 11
1520.6481
 21
2196.2226
  0
LINE
  8
_1-2_仕上
  6
CONTINUOUS
 62
    3
 10
1520.6481
 20
2196.2226
 11
1521.4116
 21
2197.0238
  0
LINE
  8
_1-2_仕上
  6
CONTINUOUS
 62
    3
 10
1521.4116
 20
2197.0238
 11
1522.0309
 21
2197.9519
  0
LINE
  8
_1-2_仕上
  6
CONTINUOUS
 62
    3
 10
1522.0309
 20
2197.9519
 11
1522.4872
 21
2198.9787
  0
LINE
  8
_1-2_仕上
  6
CONTINUOUS
 62
    3
 10
1522.4872
 20
2198.9787
 11
1522.7667
 21
2200.0731
  0
LINE
  8
_1-2_仕上
  6
CONTINUOUS
 62
    3
 10
1522.7667
 20
2200.0731
 11
1522.8608
 21
2201.2018
  0
LINE
  8
_1-2_仕上
  6
CONTINUOUS
 62
    3
 10
1522.8608
 20
2201.2018
 11
1522.7667
 21
2202.3305
  0
LINE
  8
_1-2_仕上
  6
CONTINUOUS
 62
    3
 10
1522.7667
 20
2202.3305
 11
1522.4872
 21
2203.425
  0
LINE
  8
_1-2_仕上
  6
CONTINUOUS
 62
    3
 10
1522.4872
 20
2203.425
 11
1522.0309
 21
2204.4518
  0
LINE
  8
_1-2_仕上
  6
CONTINUOUS
 62
    3
 10
1522.0309
 20
2204.4518
 11
1521.4116
 21
2205.3799
  0
LINE
  8
_1-2_仕上
  6
CONTINUOUS
 62
    3
 10
1521.4116
 20
2205.3799
 11
1520.6481
 21
2206.1811
  0
LINE
  8
_1-2_仕上
  6
CONTINUOUS
 62
    3
 10
1520.6481
 20
2206.1811
 11
1519.7636
 21
2206.831
  0
LINE
  8
_1-2_仕上
  6
CONTINUOUS
 62
    3
 10
1519.7636
 20
2206.831
 11
1518.785
 21
2207.3098
  0
LINE
  8
_1-2_仕上
  6
CONTINUOUS
 62
    3
 10
1518.785
 20
2207.3098
 11
1517.742
 21
2207.603
  0
LINE
  8
_1-2_仕上
  6
CONTINUOUS
 62
    3
 10
1517.742
 20
2207.603
 11
1516.6664
 21
2207.7018
  0
LINE
  8
_1-2_仕上
  6
CONTINUOUS
 62
    3
 10
1516.6664
 20
2207.7018
 11
1516.6664
 21
2207.7018
  0
LINE
  8
_1-2_仕上
  6
CONTINUOUS
 62
    3
 10
583.3348
 20
2259.7018
 11
583.3348
 21
2259.7018
  0
LINE
  8
_1-2_仕上
  6
CONTINUOUS
 62
    3
 10
583.3348
 20
2259.7018
 11
582.25915
 21
2259.603
  0
LINE
  8
_1-2_仕上
  6
CONTINUOUS
 62
    3
 10
582.25915
 20
2259.603
 11
581.21618
 21
2259.3098
  0
LINE
  8
_1-2_仕上
  6
CONTINUOUS
 62
    3
 10
581.21618
 20
2259.3098
 11
580.23758
 21
2258.8309
  0
LINE
  8
_1-2_仕上
  6
CONTINUOUS
 62
    3
 10
580.23758
 20
2258.8309
 11
579.35309
 21
2258.1811
  0
LINE
  8
_1-2_仕上
  6
CONTINUOUS
 62
    3
 10
579.35309
 20
2258.1811
 11
578.58959
 21
2257.3799
  0
LINE
  8
_1-2_仕上
  6
CONTINUOUS
 62
    3
 10
578.58959
 20
2257.3799
 11
577.97026
 21
2256.4518
  0
LINE
  8
_1-2_仕上
  6
CONTINUOUS
 62
    3
 10
577.97026
 20
2256.4518
 11
577.51393
 21
2255.4249
  0
LINE
  8
_1-2_仕上
  6
CONTINUOUS
 62
    3
 10
577.51393
 20
2255.4249
 11
577.23447
 21
2254.3305
  0
LINE
  8
_1-2_仕上
  6
CONTINUOUS
 62
    3
 10
577.23447
 20
2254.3305
 11
577.14036
 21
2253.2018
  0
LINE
  8
_1-2_仕上
  6
CONTINUOUS
 62
    3
 10
577.14036
 20
2253.2018
 11
577.23447
 21
2252.0731
  0
LINE
  8
_1-2_仕上
  6
CONTINUOUS
 62
    3
 10
577.23447
 20
2252.0731
 11
577.51393
 21
2250.9787
  0
LINE
  8
_1-2_仕上
  6
CONTINUOUS
 62
    3
 10
577.51393
 20
2250.9787
 11
577.97026
 21
2249.9519
  0
LINE
  8
_1-2_仕上
  6
CONTINUOUS
 62
    3
 10
577.97026
 20
2249.9519
 11
578.58959
 21
2249.0237
  0
LINE
  8
_1-2_仕上
  6
CONTINUOUS
 62
    3
 10
578.58959
 20
2249.0237
 11
579.35309
 21
2248.2226
  0
LINE
  8
_1-2_仕上
  6
CONTINUOUS
 62
    3
 10
579.35309
 20
2248.2226
 11
580.23758
 21
2247.5727
  0
LINE
  8
_1-2_仕上
  6
CONTINUOUS
 62
    3
 10
580.23758
 20
2247.5727
 11
581.21618
 21
2247.0939
  0
LINE
  8
_1-2_仕上
  6
CONTINUOUS
 62
    3
 10
581.21618
 20
2247.0939
 11
582.25915
 21
2246.8006
  0
LINE
  8
_1-2_仕上
  6
CONTINUOUS
 62
    3
 10
582.25915
 20
2246.8006
 11
583.3348
 21
2246.7019
  0
LINE
  8
_1-2_仕上
  6
CONTINUOUS
 62
    3
 10
583.3348
 20
2246.7019
 11
583.3348
 21
2246.7019
  0
LINE
  8
_1-2_仕上
  6
CONTINUOUS
 62
    3
 10
583.3348
 20
2207.7018
 11
583.3348
 21
2207.7018
  0
LINE
  8
_1-2_仕上
  6
CONTINUOUS
 62
    3
 10
583.3348
 20
2207.7018
 11
582.25915
 21
2207.603
  0
LINE
  8
_1-2_仕上
  6
CONTINUOUS
 62
    3
 10
582.25915
 20
2207.603
 11
581.21618
 21
2207.3098
  0
LINE
  8
_1-2_仕上
  6
CONTINUOUS
 62
    3
 10
581.21618
 20
2207.3098
 11
580.23758
 21
2206.831
  0
LINE
  8
_1-2_仕上
  6
CONTINUOUS
 62
    3
 10
580.23758
 20
2206.831
 11
579.35309
 21
2206.1811
  0
LINE
  8
_1-2_仕上
  6
CONTINUOUS
 62
    3
 10
579.35309
 20
2206.1811
 11
578.58959
 21
2205.3799
  0
LINE
  8
_1-2_仕上
  6
CONTINUOUS
 62
    3
 10
578.58959
 20
2205.3799
 11
577.97026
 21
2204.4518
  0
LINE
  8
_1-2_仕上
  6
CONTINUOUS
 62
    3
 10
577.97026
 20
2204.4518
 11
577.51393
 21
2203.425
  0
LINE
  8
_1-2_仕上
  6
CONTINUOUS
 62
    3
 10
577.51393
 20
2203.425
 11
577.23447
 21
2202.3305
  0
LINE
  8
_1-2_仕上
  6
CONTINUOUS
 62
    3
 10
577.23447
 20
2202.3305
 11
577.14036
 21
2201.2018
  0
LINE
  8
_1-2_仕上
  6
CONTINUOUS
 62
    3
 10
577.14036
 20
2201.2018
 11
577.23447
 21
2200.0731
  0
LINE
  8
_1-2_仕上
  6
CONTINUOUS
 62
    3
 10
577.23447
 20
2200.0731
 11
577.51393
 21
2198.9787
  0
LINE
  8
_1-2_仕上
  6
CONTINUOUS
 62
    3
 10
577.51393
 20
2198.9787
 11
577.97026
 21
2197.9519
  0
LINE
  8
_1-2_仕上
  6
CONTINUOUS
 62
    3
 10
577.97026
 20
2197.9519
 11
578.58959
 21
2197.0238
  0
LINE
  8
_1-2_仕上
  6
CONTINUOUS
 62
    3
 10
578.58959
 20
2197.0238
 11
579.35309
 21
2196.2226
  0
LINE
  8
_1-2_仕上
  6
CONTINUOUS
 62
    3
 10
579.35309
 20
2196.2226
 11
580.23758
 21
2195.5727
  0
LINE
  8
_1-2_仕上
  6
CONTINUOUS
 62
    3
 10
580.23758
 20
2195.5727
 11
581.21618
 21
2195.0939
  0
LINE
  8
_1-2_仕上
  6
CONTINUOUS
 62
    3
 10
581.21618
 20
2195.0939
 11
582.25915
 21
2194.8007
  0
LINE
  8
_1-2_仕上
  6
CONTINUOUS
 62
    3
 10
582.25915
 20
2194.8007
 11
583.3348
 21
2194.7019
  0
LINE
  8
_1-2_仕上
  6
CONTINUOUS
 62
    3
 10
583.3348
 20
2194.7019
 11
583.3348
 21
2194.7019
  0
ARC
  8
_1-2_仕上
  6
CONTINUOUS
 62
    3
 10
1355.0001
 20
2286.3182
 40
5.9804098
 50
270
 51
90
  0
TEXT
  8
_1-d_
 62
    7
 10
254.99978
 20
97.499965
 40
25
 41
1
 50
0
  1
番
  0
TEXT
  8
_1-d_
 62
    7
 10
655.00043
 20
157.4999
 40
25
 41
1
 50
0
  1
承
  0
TEXT
  8
_1-d_
 62
    7
 10
655.00043
 20
97.499965
 40
25
 41
1
 50
0
  1
認
  0
TEXT
  8
_1-d_
 62
    7
 10
1020.0002
 20
237.49994
 40
25
 41
1
 50
0
  1
尺
  0
TEXT
  8
_1-d_
 62
    7
 10
1020.0002
 20
197.49978
 40
25
 41
1
 50
0.0000708
  1
度
  0
TEXT
  8
_1-d_
 62
    7
 10
855.0001
 20
157.4999
 40
25
 41
1
 50
0
  1
製
  0
TEXT
  8
_1-d_
 62
    7
 10
855.0001
 20
97.499965
 40
25
 41
1
 50
0
  1
図
  0
TEXT
  8
_1-d_
 62
    7
 10
1555
 20
237.49994
 40
25
 41
1
 50
0
  1
日
  0
TEXT
  8
_1-d_
 62
    7
 10
1555
 20
197.49978
 40
25
 41
1
 50
0.0000708
  1
付
  0
TEXT
  8
_1-d_
 62
    7
 10
1111.4263
 20
163.48225
 40
20
 41
1
 50
0
  1
株式
  0
TEXT
  8
_1-d_
 62
    7
 10
1111.4263
 20
141.8518
 40
20
 41
1
 50
0.0000196
  1
会社
  0
TEXT
  8
_1-d_
 62
    3
 10
1174.2246
 20
143.24711
 40
40
 41
1
 50
0
  1
スズキベンチレーター
  0
TEXT
  8
_1-d_
 62
    7
 10
1237.9181
 20
94.024178
 40
20
 41
1
 50
0
  1
TEL(054)296-7000  FAX(054)296-7001
  0
TEXT
  8
_1-d_
 62
    3
 10
1084.3489
 20
210.10065
 40
40
 41
1
 50
0.000005
  1
１／１５
  0
TEXT
  8
_1-8_
 62
    3
 10
1002.2974
 20
2668.0629
 40
30
 41
1
 50
0
  1
1,400
  0
TEXT
  8
_1-8_
 62
    3
 10
280.08885
 20
2186.1169
 40
30
 41
1
 50
90
  1
825
  0
TEXT
  8
_1-8_
 62
    3
 10
961.31843
 20
1791.3247
 40
30
 41
1
 50
0
  1
1,120x1,120
  0
TEXT
  8
_1-d_
 62
    7
 10
254.99978
 20
157.4999
 40
25
 41
1
 50
0
  1
図
  0
TEXT
  8
_1-d_
 62
    7
 10
1235.6793
 20
118.64592
 40
20
 41
1
 50
0
  1
〒421-2114　静岡市葵区安倍口新田１５２番地
  0
TEXT
  8
_1-d_
 62
    3
 10
308.45925
 20
140.30213
 40
30
 41
1
 50
0
  1
90L-04b
  0
TEXT
  8
_1-d_
 62
    3
 10
264.45947
 20
2794.1892
 40
50
 41
1
 50
0
  1
ＳＴ－９０Ｌ　架台型（低騒音）網付　断面
  0
TEXT
  8
_1-2_仕上
 62
    7
 10
288.61157
 20
209.04879
 40
25
 41
1
 50
0
  1
ＳＴ－９０Ｌ　架台型（低騒音）網付　断面
  0
POINT
  8
_1-8_
 62
    2
 10
325.51658
 20
1941.0346
  0
POINT
  8
_1-8_
 62
    2
 10
325.5167
 20
2491.0345
  0
POINT
  8
_1-8_
 62
    2
 10
583.3348
 20
2650.5283
  0
POINT
  8
_1-8_
 62
    2
 10
1516.6664
 20
2650.5283
  0
POINT
  8
_1-8_
 62
    2
 10
676.66663
 20
1783.1573
  0
POINT
  8
_1-8_
 62
    2
 10
1423.3336
 20
1783.1573
  0
ENDSEC
  0
EOF
