  0
SECTION
  2
HEADER
  9
$ACADVER
  1
AC1009
  9
$INSBASE
 10
0
 20
0
 30
0
  9
$EXTMIN
 10
0
 20
0
  9
$EXTMAX
 10
4200
 20
2970
  9
$LIMMIN
 10
0
 20
0
  9
$LIMMAX
 10
4200
 20
2970
  9
$LTSCALE
 40
10
  0
ENDSEC
  0
SECTION
  2
TABLES
  0
TABLE
  2
LTYPE
 70
     9
  0
LTYPE
  2
CONTINUOUS
 70
    64
  3
実線
 72
    65
 73
     0
 40
0.0
  0
LTYPE
  2
DASHED1
 70
    64
  3
--  --  --  --  --  --  --  --  
 72
    65
 73
     2
 40
2.5
 49
1.25
 49
-1.25
  0
LTYPE
  2
DASHED2
 70
    64
  3
----    ----    ----    ----    
 72
    65
 73
     2
 40
5.0
 49
2.5
 49
-2.5
  0
LTYPE
  2
DASHED3
 70
    64
  3
------  ------  ------  ------  
 72
    65
 73
     2
 40
5.0
 49
3.75
 49
-1.25
  0
LTYPE
  2
CENTER1
 70
    64
  3
----- - ----- - ----- - ----- - 
 72
    65
 73
     4
 40
10.0
 49
6.25
 49
-1.25
 49
1.25
 49
-1.25
  0
LTYPE
  2
CENTER2
 70
    64
  3
----------  --  ----------  --  
 72
    65
 73
     4
 40
20.0
 49
12.5
 49
-2.5
 49
2.5
 49
-2.5
  0
LTYPE
  2
PHANTOM1
 70
    64
  3
--- - - --- - - --- - - --- - - 
 72
    65
 73
     6
 40
10.0
 49
3.25
 49
-1.25
 49
1.25
 49
-1.25
 49
1.25
 49
-1.25
  0
LTYPE
  2
PHANTOM2
 70
    64
  3
--------  -  -  --------  -  -  
 72
    65
 73
     6
 40
20.0
 49
10.0
 49
-2.5
 49
1.25
 49
-2.5
 49
1.25
 49
-2.5
  0
LTYPE
  2
DOT
 70
    64
  3
-   -   -   -   -   -   -   -   
 72
    65
 73
     2
 40
2.5
 49
0.625
 49
-1.875
  0
LTYPE
  2
DUMMY
 70
    64
  3
ダミー
 72
    65
 73
     0
 40
0.0
  0
LTYPE
  2
RAND1
 70
    64
  3
----- - ----- - ----- - ----- - 
 72
    65
 73
     4
 40
10.0
 49
6.25
 49
-1.25
 49
1.25
 49
-1.25
  0
LTYPE
  2
RAND2
 70
    64
  3
----------  --  ----------  --  
 72
    65
 73
     4
 40
20.0
 49
12.5
 49
-2.5
 49
2.5
 49
-2.5
  0
LTYPE
  2
RAND3
 70
    64
  3
--- - - --- - - --- - - --- - - 
 72
    65
 73
     6
 40
10.0
 49
3.25
 49
-1.25
 49
1.25
 49
-1.25
 49
1.25
 49
-1.25
  0
LTYPE
  2
RAND4
 70
    64
  3
--------  -  -  --------  -  -  
 72
    65
 73
     6
 40
20.0
 49
10.0
 49
-2.5
 49
1.25
 49
-2.5
 49
1.25
 49
-2.5
  0
LTYPE
  2
RAND5
 70
    64
  3
----- - ----- - ----- - ----- - 
 72
    65
 73
     4
 40
10.0
 49
6.25
 49
-1.25
 49
1.25
 49
-1.25
  0
LTYPE
  2
LONG1
 70
    64
  3
----------  --  ----------  --  
 72
    65
 73
     4
 40
20.0
 49
12.5
 49
-2.5
 49
2.5
 49
-2.5
  0
LTYPE
  2
LONG2
 70
    64
  3
--- - - --- - - --- - - --- - - 
 72
    65
 73
     6
 40
10.0
 49
3.25
 49
-1.25
 49
1.25
 49
-1.25
 49
1.25
 49
-1.25
  0
LTYPE
  2
LONG3
 70
    64
  3
--------  -  -  --------  -  -  
 72
    65
 73
     6
 40
20.0
 49
10.0
 49
-2.5
 49
1.25
 49
-2.5
 49
1.25
 49
-2.5
  0
LTYPE
  2
LONG4
 70
    64
  3
----- - ----- - ----- - ----- - 
 72
    65
 73
     4
 40
10.0
 49
6.25
 49
-1.25
 49
1.25
 49
-1.25
  0
LTYPE
  2
LONG5
 70
    64
  3
----------  --  ----------  --  
 72
    65
 73
     4
 40
20.0
 49
12.5
 49
-2.5
 49
2.5
 49
-2.5
  0
ENDTAB
  0
TABLE
  2
STYLE
  5
3
100
AcDbSymbolTable
 70
     1
  0
STYLE
  5
10
100
AcDbSymbolTableRecord
100
AcDbTextStyleTableRecord
  2
STANDARD
 70
     0
 40
0.0
 41
1.0
 50
0.0
 71
     0
 42
0.2
  3
txt
  4
bigfont.shx
  0
STYLE
  5
26
100
AcDbSymbolTableRecord
100
AcDbTextStyleTableRecord
  2
TATEGAKI
 70
    68
 40
0.0
 41
1.0
 50
0.0
 71
     0
 42
1.0
  3
txt
  4
bigfont.shx
  0
ENDTAB
  0
TABLE
  2
LAYER
 70
    6
  0
LAYER
  2
_1-1_1-1___
 70
   64
 62
    7
  6
CONTINUOUS
  0
LAYER
  2
_1-2_仕上
 70
   64
 62
    7
  6
CONTINUOUS
  0
LAYER
  2
_1-4_
 70
   64
 62
    7
  6
CONTINUOUS
  0
LAYER
  2
_1-8_
 70
   64
 62
    7
  6
CONTINUOUS
  0
LAYER
  2
_1-d_
 70
   64
 62
    7
  6
CONTINUOUS
  0
LAYER
  2
ADD_LINE
 70
   64
 62
    7
  6
CONTINUOUS
  0
ENDTAB
  0
ENDSEC
  0
SECTION
  2
BLOCKS
  0
ENDSEC
  0
SECTION
  2
ENTITIES
  0
LINE
  8
_1-d_
  6
CONTINUOUS
 62
    7
 10
250.00005
 20
2757.7012
 11
1850
 21
2757.7012
  0
LINE
  8
_1-d_
  6
CONTINUOUS
 62
    7
 10
250.00005
 20
2767.7015
 11
1850
 21
2767.7015
  0
LINE
  8
_1-d_
  6
CONTINUOUS
 62
    7
 10
249.99968
 20
189.99988
 11
1850.0004
 21
189.99988
  0
LINE
  8
_1-d_
  6
CONTINUOUS
 62
    7
 10
249.99968
 20
89.999802
 11
249.99968
 21
269.9999
  0
LINE
  8
_1-d_
  6
CONTINUOUS
 62
    7
 10
249.99968
 20
89.999802
 11
1850.0004
 21
89.999802
  0
LINE
  8
_1-d_
  6
CONTINUOUS
 62
    7
 10
1850.0004
 20
269.9999
 11
1850.0004
 21
89.999802
  0
LINE
  8
_1-d_
  6
CONTINUOUS
 62
    7
 10
249.99968
 20
269.9999
 11
1850.0004
 21
269.9999
  0
LINE
  8
_1-d_
  6
CONTINUOUS
 62
    7
 10
1050
 20
269.9999
 11
1050
 21
89.999802
  0
LINE
  8
_1-d_
  6
CONTINUOUS
 62
    7
 10
650.00016
 20
89.999802
 11
650.00016
 21
189.99988
  0
LINE
  8
_1-d_
  6
CONTINUOUS
 62
    7
 10
1050
 20
189.99988
 11
1050
 21
269.9999
  0
LINE
  8
_1-d_
  6
CONTINUOUS
 62
    7
 10
849.99977
 20
89.999802
 11
849.99977
 21
189.99988
  0
LINE
  8
_1-d_
  6
CONTINUOUS
 62
    7
 10
285.00001
 20
89.999802
 11
285.00001
 21
189.99988
  0
LINE
  8
_1-d_
  6
CONTINUOUS
 62
    7
 10
685.00003
 20
89.999802
 11
685.00003
 21
189.99988
  0
LINE
  8
_1-d_
  6
CONTINUOUS
 62
    7
 10
885.00013
 20
89.999802
 11
885.00013
 21
189.99988
  0
LINE
  8
_1-d_
  6
CONTINUOUS
 62
    7
 10
1015
 20
189.99988
 11
1015
 21
269.9999
  0
LINE
  8
_1-d_
  6
CONTINUOUS
 62
    7
 10
1550.0004
 20
189.99988
 11
1550.0004
 21
269.9999
  0
LINE
  8
_1-d_
  6
CONTINUOUS
 62
    7
 10
1585.0001
 20
189.99988
 11
1585.0001
 21
269.9999
  0
LINE
  8
_1-2_仕上
  6
CONTINUOUS
 62
    3
 10
564.66843
 20
2389.6688
 11
1049.9998
 21
2501.0348
  0
LINE
  8
_1-2_仕上
  6
CONTINUOUS
 62
    3
 10
1535.3323
 20
2389.6688
 11
1049.9998
 21
2501.0348
  0
LINE
  8
_1-8_
  6
CONTINUOUS
 62
    7
 10
325.51673
 20
1981.0346
 11
325.51673
 21
2501.0348
  0
LINE
  8
_1-8_
  6
CONTINUOUS
 62
    7
 10
583.3348
 20
1981.0346
 11
325.51673
 21
1981.0346
  0
LINE
  8
_1-8_
  6
CONTINUOUS
 62
    7
 10
583.3348
 20
2660.5286
 11
1516.6664
 21
2660.5286
  0
LINE
  8
_1-8_
  6
CONTINUOUS
 62
    7
 10
745.0001
 20
1859.8242
 11
1355.0001
 21
1859.8242
  0
LINE
  8
_1-2_仕上
  6
CONTINUOUS
 62
    3
 10
583.3348
 20
2394.3682
 11
583.3348
 21
2269.7016
  0
LINE
  8
_1-2_仕上
  6
CONTINUOUS
 62
    3
 10
1516.6664
 20
2394.3682
 11
1516.6664
 21
2269.7016
  0
LINE
  8
_1-8_
  6
CONTINUOUS
 62
    7
 10
745.0001
 20
1936.7968
 11
745.0001
 21
1859.8242
  0
LINE
  8
_1-8_
  6
CONTINUOUS
 62
    7
 10
1355.0001
 20
1936.7968
 11
1355.0001
 21
1859.8242
  0
LINE
  8
_1-8_
  6
CONTINUOUS
 62
    7
 10
583.3348
 20
2448.0671
 11
583.3348
 21
2660.5286
  0
LINE
  8
_1-8_
  6
CONTINUOUS
 62
    7
 10
719.70284
 20
2501.0348
 11
325.51673
 21
2501.0348
  0
LINE
  8
_1-8_
  6
CONTINUOUS
 62
    7
 10
1516.6664
 20
2448.0671
 11
1516.6664
 21
2660.5286
  0
LINE
  8
_1-2_仕上
  6
CONTINUOUS
 62
    3
 10
583.3348
 20
2256.7021
 11
583.3348
 21
2217.7019
  0
LINE
  8
_1-2_仕上
  6
CONTINUOUS
 62
    3
 10
583.3348
 20
2204.7021
 11
583.3348
 21
2174.3682
  0
LINE
  8
_1-2_仕上
  6
CONTINUOUS
 62
    3
 10
1516.6664
 20
2256.7021
 11
1516.6664
 21
2217.7019
  0
LINE
  8
_1-2_仕上
  6
CONTINUOUS
 62
    3
 10
1516.6654
 20
2204.7021
 11
1516.6654
 21
2174.3682
  0
LINE
  8
_1-2_仕上
  6
CONTINUOUS
 62
    3
 10
745.0001
 20
2024.3687
 11
1355.0001
 21
2024.3687
  0
LINE
  8
_1-2_仕上
  6
CONTINUOUS
 62
    3
 10
745.0001
 20
2063.3687
 11
745.0001
 21
2024.3687
  0
LINE
  8
_1-2_仕上
  6
CONTINUOUS
 62
    3
 10
745.0001
 20
1981.0351
 11
1355.0001
 21
1981.0351
  0
LINE
  8
_1-2_仕上
  6
CONTINUOUS
 62
    3
 10
745.0001
 20
2011.3687
 11
1355.0001
 21
2011.3687
  0
LINE
  8
_1-2_仕上
  6
CONTINUOUS
 62
    3
 10
1355.0001
 20
2011.3687
 11
1355.0001
 21
1981.0351
  0
LINE
  8
_1-2_仕上
  6
CONTINUOUS
 62
    3
 10
1355.0001
 20
2063.3687
 11
1355.0001
 21
2024.3687
  0
LINE
  8
_1-2_仕上
  6
CONTINUOUS
 62
    3
 10
745.0001
 20
2174.3687
 11
745.0001
 21
2076.3687
  0
LINE
  8
_1-2_仕上
  6
CONTINUOUS
 62
    3
 10
745.0001
 20
2011.3687
 11
745.0001
 21
1981.0351
  0
LINE
  8
_1-2_仕上
  6
CONTINUOUS
 62
    3
 10
1071.8359
 20
2221.5815
 11
1077.5827
 21
2225.1134
  0
LINE
  8
_1-2_仕上
  6
CONTINUOUS
 62
    3
 10
1077.5827
 20
2225.1134
 11
1083.302
 21
2228.7159
  0
LINE
  8
_1-2_仕上
  6
CONTINUOUS
 62
    3
 10
1083.302
 20
2228.7159
 11
1088.9676
 21
2232.4528
  0
LINE
  8
_1-2_仕上
  6
CONTINUOUS
 62
    3
 10
1088.9676
 20
2232.4528
 11
1094.516
 21
2236.3977
  0
LINE
  8
_1-2_仕上
  6
CONTINUOUS
 62
    3
 10
1094.516
 20
2236.3977
 11
1099.8458
 21
2240.6294
  0
LINE
  8
_1-2_仕上
  6
CONTINUOUS
 62
    3
 10
1099.8458
 20
2240.6294
 11
1104.8454
 21
2245.2179
  0
LINE
  8
_1-2_仕上
  6
CONTINUOUS
 62
    3
 10
1104.8454
 20
2245.2179
 11
1109.4059
 21
2250.2444
  0
LINE
  8
_1-2_仕上
  6
CONTINUOUS
 62
    3
 10
1109.4059
 20
2250.2444
 11
1113.4172
 21
2255.7796
  0
LINE
  8
_1-2_仕上
  6
CONTINUOUS
 62
    3
 10
1113.4172
 20
2255.7796
 11
1116.9157
 21
2261.7672
  0
LINE
  8
_1-2_仕上
  6
CONTINUOUS
 62
    3
 10
1116.9157
 20
2261.7672
 11
1120.2215
 21
2267.8812
  0
LINE
  8
_1-2_仕上
  6
CONTINUOUS
 62
    3
 10
1120.2215
 20
2267.8812
 11
1123.6703
 21
2273.7772
  0
LINE
  8
_1-2_仕上
  6
CONTINUOUS
 62
    3
 10
1123.6703
 20
2273.7772
 11
1127.6158
 21
2279.1095
  0
LINE
  8
_1-2_仕上
  6
CONTINUOUS
 62
    3
 10
1127.6158
 20
2279.1095
 11
1132.3913
 21
2283.5308
  0
LINE
  8
_1-2_仕上
  6
CONTINUOUS
 62
    3
 10
1132.3913
 20
2283.5308
 11
1138.1032
 21
2286.9489
  0
LINE
  8
_1-2_仕上
  6
CONTINUOUS
 62
    3
 10
1138.1032
 20
2286.9489
 11
1144.4026
 21
2289.7418
  0
LINE
  8
_1-2_仕上
  6
CONTINUOUS
 62
    3
 10
1144.4026
 20
2289.7418
 11
1147.3852
 21
2290.9332
  0
LINE
  8
_1-2_仕上
  6
CONTINUOUS
 62
    3
 10
1144.4026
 20
2289.7418
 11
1148.5511
 21
2290.4012
  0
LINE
  8
_1-2_仕上
  6
CONTINUOUS
 62
    3
 10
1148.5511
 20
2290.4012
 11
1152.7368
 21
2290.9745
  0
LINE
  8
_1-2_仕上
  6
CONTINUOUS
 62
    3
 10
1152.7368
 20
2290.9745
 11
1156.9916
 21
2291.3853
  0
LINE
  8
_1-2_仕上
  6
CONTINUOUS
 62
    3
 10
1156.9916
 20
2291.3853
 11
1161.3507
 21
2291.5406
  0
LINE
  8
_1-2_仕上
  6
CONTINUOUS
 62
    3
 10
1161.3507
 20
2291.5406
 11
1165.8427
 21
2291.3642
  0
LINE
  8
_1-2_仕上
  6
CONTINUOUS
 62
    3
 10
1165.8427
 20
2291.3642
 11
1170.3372
 21
2290.7095
  0
LINE
  8
_1-2_仕上
  6
CONTINUOUS
 62
    3
 10
1170.3372
 20
2290.7095
 11
1174.5304
 21
2289.3963
  0
LINE
  8
_1-2_仕上
  6
CONTINUOUS
 62
    3
 10
1174.5304
 20
2289.3963
 11
1178.1041
 21
2287.2196
  0
LINE
  8
_1-2_仕上
  6
CONTINUOUS
 62
    3
 10
1178.1041
 20
2287.2196
 11
1180.8017
 21
2284.038
  0
LINE
  8
_1-2_仕上
  6
CONTINUOUS
 62
    3
 10
1180.8017
 20
2284.038
 11
1182.9047
 21
2280.2188
  0
LINE
  8
_1-2_仕上
  6
CONTINUOUS
 62
    3
 10
1069.5797
 20
2205.7961
 11
1076.3138
 21
2206.7962
  0
LINE
  8
_1-2_仕上
  6
CONTINUOUS
 62
    3
 10
1076.3138
 20
2206.7962
 11
1083.0068
 21
2207.9273
  0
LINE
  8
_1-2_仕上
  6
CONTINUOUS
 62
    3
 10
1083.0068
 20
2207.9273
 11
1089.6261
 21
2209.31
  0
LINE
  8
_1-2_仕上
  6
CONTINUOUS
 62
    3
 10
1089.6261
 20
2209.31
 11
1096.1266
 21
2211.0792
  0
LINE
  8
_1-2_仕上
  6
CONTINUOUS
 62
    3
 10
1096.1266
 20
2211.0792
 11
1102.4744
 21
2213.3563
  0
LINE
  8
_1-2_仕上
  6
CONTINUOUS
 62
    3
 10
1102.4744
 20
2213.3563
 11
1108.6339
 21
2216.1732
  0
LINE
  8
_1-2_仕上
  6
CONTINUOUS
 62
    3
 10
1108.6339
 20
2216.1732
 11
1114.5791
 21
2219.4753
  0
LINE
  8
_1-2_仕上
  6
CONTINUOUS
 62
    3
 10
1114.5791
 20
2219.4753
 11
1120.2769
 21
2223.2242
  0
LINE
  8
_1-2_仕上
  6
CONTINUOUS
 62
    3
 10
1120.2769
 20
2223.2242
 11
1125.7006
 21
2227.3533
  0
LINE
  8
_1-2_仕上
  6
CONTINUOUS
 62
    3
 10
1125.7006
 20
2227.3533
 11
1130.8246
 21
2231.823
  0
LINE
  8
_1-2_仕上
  6
CONTINUOUS
 62
    3
 10
1130.8246
 20
2231.823
 11
1135.6877
 21
2236.5521
  0
LINE
  8
_1-2_仕上
  6
CONTINUOUS
 62
    3
 10
1135.6877
 20
2236.5521
 11
1140.3879
 21
2241.4328
  0
LINE
  8
_1-2_仕上
  6
CONTINUOUS
 62
    3
 10
1140.3879
 20
2241.4328
 11
1145.0283
 21
2246.3579
  0
LINE
  8
_1-2_仕上
  6
CONTINUOUS
 62
    3
 10
1145.0283
 20
2246.3579
 11
1149.7077
 21
2251.2183
  0
LINE
  8
_1-2_仕上
  6
CONTINUOUS
 62
    3
 10
1149.7077
 20
2251.2183
 11
1154.5328
 21
2255.9076
  0
LINE
  8
_1-2_仕上
  6
CONTINUOUS
 62
    3
 10
1154.5328
 20
2255.9076
 11
1159.5956
 21
2260.3328
  0
LINE
  8
_1-2_仕上
  6
CONTINUOUS
 62
    3
 10
1159.5956
 20
2260.3328
 11
1164.8898
 21
2264.4903
  0
LINE
  8
_1-2_仕上
  6
CONTINUOUS
 62
    3
 10
1164.8898
 20
2264.4903
 11
1170.3724
 21
2268.4441
  0
LINE
  8
_1-2_仕上
  6
CONTINUOUS
 62
    3
 10
1170.3724
 20
2268.4441
 11
1175.9858
 21
2272.2436
  0
LINE
  8
_1-2_仕上
  6
CONTINUOUS
 62
    3
 10
1175.9858
 20
2272.2436
 11
1181.6878
 21
2275.9485
  0
LINE
  8
_1-2_仕上
  6
CONTINUOUS
 62
    3
 10
1181.6878
 20
2275.9485
 11
1185.724
 21
2278.528
  0
LINE
  8
_1-2_仕上
  6
CONTINUOUS
 62
    3
 10
1185.724
 20
2278.528
 11
1192.0229
 21
2281.141
  0
LINE
  8
_1-2_仕上
  6
CONTINUOUS
 62
    3
 10
1192.0229
 20
2281.141
 11
1198.3578
 21
2283.58
  0
LINE
  8
_1-2_仕上
  6
CONTINUOUS
 62
    3
 10
1198.3578
 20
2283.58
 11
1204.768
 21
2285.6738
  0
LINE
  8
_1-2_仕上
  6
CONTINUOUS
 62
    3
 10
1204.768
 20
2285.6738
 11
1211.2898
 21
2287.2518
  0
LINE
  8
_1-2_仕上
  6
CONTINUOUS
 62
    3
 10
1211.2898
 20
2287.2518
 11
1217.9395
 21
2288.2188
  0
LINE
  8
_1-2_仕上
  6
CONTINUOUS
 62
    3
 10
1217.9395
 20
2288.2188
 11
1224.6849
 21
2288.6431
  0
LINE
  8
_1-2_仕上
  6
CONTINUOUS
 62
    3
 10
1224.6849
 20
2288.6431
 11
1231.487
 21
2288.6184
  0
LINE
  8
_1-2_仕上
  6
CONTINUOUS
 62
    3
 10
1231.487
 20
2288.6184
 11
1238.3092
 21
2288.2353
  0
LINE
  8
_1-2_仕上
  6
CONTINUOUS
 62
    3
 10
1238.3092
 20
2288.2353
 11
1245.119
 21
2287.5893
  0
LINE
  8
_1-2_仕上
  6
CONTINUOUS
 62
    3
 10
1245.119
 20
2287.5893
 11
1251.8768
 21
2286.7581
  0
LINE
  8
_1-2_仕上
  6
CONTINUOUS
 62
    3
 10
1251.8768
 20
2286.7581
 11
1258.5748
 21
2285.7248
  0
LINE
  8
_1-2_仕上
  6
CONTINUOUS
 62
    3
 10
1258.5748
 20
2285.7248
 11
1265.2161
 21
2284.4663
  0
LINE
  8
_1-2_仕上
  6
CONTINUOUS
 62
    3
 10
1265.2161
 20
2284.4663
 11
1271.7903
 21
2282.9404
  0
LINE
  8
_1-2_仕上
  6
CONTINUOUS
 62
    3
 10
1271.7903
 20
2282.9404
 11
1278.3012
 21
2281.1197
  0
LINE
  8
_1-2_仕上
  6
CONTINUOUS
 62
    3
 10
1278.3012
 20
2281.1197
 11
1284.747
 21
2278.9643
  0
LINE
  8
_1-2_仕上
  6
CONTINUOUS
 62
    3
 10
1284.747
 20
2278.9643
 11
1291.1007
 21
2276.4436
  0
LINE
  8
_1-2_仕上
  6
CONTINUOUS
 62
    3
 10
1291.1007
 20
2276.4436
 11
1297.3036
 21
2273.5293
  0
LINE
  8
_1-2_仕上
  6
CONTINUOUS
 62
    3
 10
1297.3036
 20
2273.5293
 11
1303.2649
 21
2270.2034
  0
LINE
  8
_1-2_仕上
  6
CONTINUOUS
 62
    3
 10
1303.2649
 20
2270.2034
 11
1308.908
 21
2266.4354
  0
LINE
  8
_1-2_仕上
  6
CONTINUOUS
 62
    3
 10
1308.908
 20
2266.4354
 11
1314.1498
 21
2262.197
  0
LINE
  8
_1-2_仕上
  6
CONTINUOUS
 62
    3
 10
1314.1498
 20
2262.197
 11
1318.9184
 21
2257.4761
  0
LINE
  8
_1-2_仕上
  6
CONTINUOUS
 62
    3
 10
1318.9184
 20
2257.4761
 11
1323.2748
 21
2252.342
  0
LINE
  8
_1-2_仕上
  6
CONTINUOUS
 62
    3
 10
1323.2748
 20
2252.342
 11
1327.3289
 21
2246.9082
  0
LINE
  8
_1-2_仕上
  6
CONTINUOUS
 62
    3
 10
1327.3289
 20
2246.9082
 11
1331.1934
 21
2241.2901
  0
LINE
  8
_1-2_仕上
  6
CONTINUOUS
 62
    3
 10
1331.1934
 20
2241.2901
 11
1333.4397
 21
2237.9348
  0
LINE
  8
_1-2_仕上
  6
CONTINUOUS
 62
    3
 10
1331.1934
 20
2241.2901
 11
1334.2151
 21
2235.0323
  0
LINE
  8
_1-2_仕上
  6
CONTINUOUS
 62
    3
 10
1334.2151
 20
2235.0323
 11
1337.0765
 21
2228.7468
  0
LINE
  8
_1-2_仕上
  6
CONTINUOUS
 62
    3
 10
1337.0765
 20
2228.7468
 11
1339.6217
 21
2222.4171
  0
LINE
  8
_1-2_仕上
  6
CONTINUOUS
 62
    3
 10
1339.6217
 20
2222.4171
 11
1341.6893
 21
2216.0086
  0
LINE
  8
_1-2_仕上
  6
CONTINUOUS
 62
    3
 10
1341.6893
 20
2216.0086
 11
1343.1215
 21
2209.5042
  0
LINE
  8
_1-2_仕上
  6
CONTINUOUS
 62
    3
 10
1343.1215
 20
2209.5042
 11
1343.7658
 21
2202.878
  0
LINE
  8
_1-2_仕上
  6
CONTINUOUS
 62
    3
 10
1343.7658
 20
2202.878
 11
1343.5812
 21
2196.1563
  0
LINE
  8
_1-2_仕上
  6
CONTINUOUS
 62
    3
 10
1343.5812
 20
2196.1563
 11
1342.6801
 21
2189.4049
  0
LINE
  8
_1-2_仕上
  6
CONTINUOUS
 62
    3
 10
1342.6801
 20
2189.4049
 11
1341.1786
 21
2182.702
  0
LINE
  8
_1-2_仕上
  6
CONTINUOUS
 62
    3
 10
1341.1786
 20
2182.702
 11
1339.1803
 21
2176.1246
  0
LINE
  8
_1-2_仕上
  6
CONTINUOUS
 62
    3
 10
1339.1803
 20
2176.1246
 11
1336.7182
 21
2169.7631
  0
LINE
  8
_1-2_仕上
  6
CONTINUOUS
 62
    3
 10
1336.7182
 20
2169.7631
 11
1333.7257
 21
2163.7075
  0
LINE
  8
_1-2_仕上
  6
CONTINUOUS
 62
    3
 10
1333.7257
 20
2163.7075
 11
1330.1314
 21
2158.0513
  0
LINE
  8
_1-2_仕上
  6
CONTINUOUS
 62
    3
 10
1330.1314
 20
2158.0513
 11
1325.9422
 21
2152.8284
  0
LINE
  8
_1-2_仕上
  6
CONTINUOUS
 62
    3
 10
1325.9422
 20
2152.8284
 11
1321.2854
 21
2147.9422
  0
LINE
  8
_1-2_仕上
  6
CONTINUOUS
 62
    3
 10
1321.2854
 20
2147.9422
 11
1316.3084
 21
2143.2903
  0
LINE
  8
_1-2_仕上
  6
CONTINUOUS
 62
    3
 10
1316.3084
 20
2143.2903
 11
1311.1493
 21
2138.774
  0
LINE
  8
_1-2_仕上
  6
CONTINUOUS
 62
    3
 10
1311.1493
 20
2138.774
 11
1309.7582
 21
2137.5789
  0
LINE
  8
_1-2_仕上
  6
CONTINUOUS
 62
    3
 10
1311.1493
 20
2138.774
 11
1305.2281
 21
2135.4544
  0
LINE
  8
_1-2_仕上
  6
CONTINUOUS
 62
    3
 10
1305.2281
 20
2135.4544
 11
1299.2846
 21
2132.1963
  0
LINE
  8
_1-2_仕上
  6
CONTINUOUS
 62
    3
 10
1299.2846
 20
2132.1963
 11
1293.2916
 21
2129.0568
  0
LINE
  8
_1-2_仕上
  6
CONTINUOUS
 62
    3
 10
1293.2916
 20
2129.0568
 11
1287.2167
 21
2126.0952
  0
LINE
  8
_1-2_仕上
  6
CONTINUOUS
 62
    3
 10
1287.2167
 20
2126.0952
 11
1281.0445
 21
2123.3699
  0
LINE
  8
_1-2_仕上
  6
CONTINUOUS
 62
    3
 10
1281.0445
 20
2123.3699
 11
1274.7403
 21
2120.94
  0
LINE
  8
_1-2_仕上
  6
CONTINUOUS
 62
    3
 10
1274.7403
 20
2120.94
 11
1268.3031
 21
2118.84
  0
LINE
  8
_1-2_仕上
  6
CONTINUOUS
 62
    3
 10
1268.3031
 20
2118.84
 11
1261.7596
 21
2117.0773
  0
LINE
  8
_1-2_仕上
  6
CONTINUOUS
 62
    3
 10
1261.7596
 20
2117.0773
 11
1255.1344
 21
2115.6495
  0
LINE
  8
_1-2_仕上
  6
CONTINUOUS
 62
    3
 10
1255.1344
 20
2115.6495
 11
1248.4483
 21
2114.5573
  0
LINE
  8
_1-2_仕上
  6
CONTINUOUS
 62
    3
 10
1248.4483
 20
2114.5573
 11
1241.7333
 21
2113.7927
  0
LINE
  8
_1-2_仕上
  6
CONTINUOUS
 62
    3
 10
1241.7333
 20
2113.7927
 11
1234.996
 21
2113.2986
  0
LINE
  8
_1-2_仕上
  6
CONTINUOUS
 62
    3
 10
1234.996
 20
2113.2986
 11
1228.2406
 21
2113.0098
  0
LINE
  8
_1-2_仕上
  6
CONTINUOUS
 62
    3
 10
1228.2406
 20
2113.0098
 11
1221.4712
 21
2112.8535
  0
LINE
  8
_1-2_仕上
  6
CONTINUOUS
 62
    3
 10
1221.4712
 20
2112.8535
 11
1215.6029
 21
2112.7708
  0
LINE
  8
_1-2_仕上
  6
CONTINUOUS
 62
    3
 10
1139.9595
 20
2112.149
 11
1146.2915
 21
2109.5863
  0
LINE
  8
_1-2_仕上
  6
CONTINUOUS
 62
    3
 10
1146.2915
 20
2109.5863
 11
1152.6596
 21
2107.053
  0
LINE
  8
_1-2_仕上
  6
CONTINUOUS
 62
    3
 10
1152.6596
 20
2107.053
 11
1159.0881
 21
2104.7184
  0
LINE
  8
_1-2_仕上
  6
CONTINUOUS
 62
    3
 10
1159.0881
 20
2104.7184
 11
1165.578
 21
2102.7718
  0
LINE
  8
_1-2_仕上
  6
CONTINUOUS
 62
    3
 10
1165.578
 20
2102.7718
 11
1172.1473
 21
2101.399
  0
LINE
  8
_1-2_仕上
  6
CONTINUOUS
 62
    3
 10
1172.1473
 20
2101.399
 11
1178.8098
 21
2100.7843
  0
LINE
  8
_1-2_仕上
  6
CONTINUOUS
 62
    3
 10
1178.8098
 20
2100.7843
 11
1185.5503
 21
2100.8803
  0
LINE
  8
_1-2_仕上
  6
CONTINUOUS
 62
    3
 10
1185.5503
 20
2100.8803
 11
1192.3396
 21
2101.3812
  0
LINE
  8
_1-2_仕上
  6
CONTINUOUS
 62
    3
 10
1192.3396
 20
2101.3812
 11
1193.6154
 21
2101.4937
  0
LINE
  8
_1-2_仕上
  6
CONTINUOUS
 62
    3
 10
1192.3396
 20
2101.3812
 11
1197.8914
 21
2102.6193
  0
LINE
  8
_1-2_仕上
  6
CONTINUOUS
 62
    3
 10
1197.8914
 20
2102.6193
 11
1203.2203
 21
2104.3324
  0
LINE
  8
_1-2_仕上
  6
CONTINUOUS
 62
    3
 10
1203.2203
 20
2104.3324
 11
1208.1092
 21
2107
  0
LINE
  8
_1-2_仕上
  6
CONTINUOUS
 62
    3
 10
1208.1092
 20
2107
 11
1212.277
 21
2110.8272
  0
LINE
  8
_1-2_仕上
  6
CONTINUOUS
 62
    3
 10
1212.277
 20
2110.8272
 11
1215.3673
 21
2115.6248
  0
LINE
  8
_1-2_仕上
  6
CONTINUOUS
 62
    3
 10
1215.3673
 20
2115.6248
 11
1217.0509
 21
2121.11
  0
LINE
  8
_1-2_仕上
  6
CONTINUOUS
 62
    3
 10
1217.0509
 20
2121.11
 11
1217.1746
 21
2126.7836
  0
LINE
  8
_1-2_仕上
  6
CONTINUOUS
 62
    3
 10
1217.1746
 20
2126.7836
 11
1215.6732
 21
2132.0988
  0
LINE
  8
_1-2_仕上
  6
CONTINUOUS
 62
    3
 10
1215.6732
 20
2132.0988
 11
1212.8679
 21
2136.9343
  0
LINE
  8
_1-2_仕上
  6
CONTINUOUS
 62
    3
 10
1212.8679
 20
2136.9343
 11
1209.4023
 21
2141.5246
  0
LINE
  8
_1-2_仕上
  6
CONTINUOUS
 62
    3
 10
1079.3217
 20
2197.0454
 11
1086.1448
 21
2195.8836
  0
LINE
  8
_1-2_仕上
  6
CONTINUOUS
 62
    3
 10
1086.1448
 20
2195.8836
 11
1092.9455
 21
2194.9181
  0
LINE
  8
_1-2_仕上
  6
CONTINUOUS
 62
    3
 10
1092.9455
 20
2194.9181
 11
1099.6966
 21
2194.345
  0
LINE
  8
_1-2_仕上
  6
CONTINUOUS
 62
    3
 10
1099.6966
 20
2194.345
 11
1106.3743
 21
2194.3552
  0
LINE
  8
_1-2_仕上
  6
CONTINUOUS
 62
    3
 10
1106.3743
 20
2194.3552
 11
1112.9547
 21
2195.1408
  0
LINE
  8
_1-2_仕上
  6
CONTINUOUS
 62
    3
 10
1112.9547
 20
2195.1408
 11
1119.4381
 21
2196.7365
  0
LINE
  8
_1-2_仕上
  6
CONTINUOUS
 62
    3
 10
1119.4381
 20
2196.7365
 11
1125.8389
 21
2198.9274
  0
LINE
  8
_1-2_仕上
  6
CONTINUOUS
 62
    3
 10
1125.8389
 20
2198.9274
 11
1132.1877
 21
2201.4961
  0
LINE
  8
_1-2_仕上
  6
CONTINUOUS
 62
    3
 10
1132.1877
 20
2201.4961
 11
1138.4972
 21
2204.211
  0
LINE
  8
_1-2_仕上
  6
CONTINUOUS
 62
    3
 10
1138.4972
 20
2204.211
 11
1144.7995
 21
2206.8766
  0
LINE
  8
_1-2_仕上
  6
CONTINUOUS
 62
    3
 10
1144.7995
 20
2206.8766
 11
1151.0956
 21
2209.4421
  0
LINE
  8
_1-2_仕上
  6
CONTINUOUS
 62
    3
 10
1151.0956
 20
2209.4421
 11
1157.3912
 21
2211.9311
  0
LINE
  8
_1-2_仕上
  6
CONTINUOUS
 62
    3
 10
1157.3912
 20
2211.9311
 11
1163.6796
 21
2214.358
  0
LINE
  8
_1-2_仕上
  6
CONTINUOUS
 62
    3
 10
1163.6796
 20
2214.358
 11
1169.9681
 21
2216.7398
  0
LINE
  8
_1-2_仕上
  6
CONTINUOUS
 62
    3
 10
1169.9681
 20
2216.7398
 11
1176.2585
 21
2219.1002
  0
LINE
  8
_1-2_仕上
  6
CONTINUOUS
 62
    3
 10
1176.2585
 20
2219.1002
 11
1176.1704
 21
2213.3076
  0
LINE
  8
_1-2_仕上
  6
CONTINUOUS
 62
    3
 10
1176.1704
 20
2213.3076
 11
1176.0872
 21
2207.521
  0
LINE
  8
_1-2_仕上
  6
CONTINUOUS
 62
    3
 10
1176.0872
 20
2207.521
 11
1176.0039
 21
2201.7274
  0
LINE
  8
_1-2_仕上
  6
CONTINUOUS
 62
    3
 10
1176.0039
 20
2201.7274
 11
1175.9165
 21
2195.9395
  0
LINE
  8
_1-2_仕上
  6
CONTINUOUS
 62
    3
 10
1175.9165
 20
2195.9395
 11
1175.8341
 21
2190.1527
  0
LINE
  8
_1-2_仕上
  6
CONTINUOUS
 62
    3
 10
1175.8341
 20
2190.1527
 11
1175.7497
 21
2184.3594
  0
LINE
  8
_1-2_仕上
  6
CONTINUOUS
 62
    3
 10
1175.7497
 20
2184.3594
 11
1175.6629
 21
2178.5727
  0
LINE
  8
_1-2_仕上
  6
CONTINUOUS
 62
    3
 10
1175.6629
 20
2178.5727
 11
1175.5795
 21
2172.7799
  0
LINE
  8
_1-2_仕上
  6
CONTINUOUS
 62
    3
 10
1175.5795
 20
2172.7799
 11
1175.4934
 21
2166.9913
  0
LINE
  8
_1-2_仕上
  6
CONTINUOUS
 62
    3
 10
1175.4934
 20
2166.9913
 11
1175.4093
 21
2161.2
  0
LINE
  8
_1-2_仕上
  6
CONTINUOUS
 62
    3
 10
1209.4023
 20
2141.5246
 11
1208.0181
 21
2142.7444
  0
LINE
  8
_1-2_仕上
  6
CONTINUOUS
 62
    3
 10
1208.0181
 20
2142.7444
 11
1206.0285
 21
2144.2204
  0
LINE
  8
_1-2_仕上
  6
CONTINUOUS
 62
    3
 10
1206.0285
 20
2144.2204
 11
1203.5125
 21
2145.9085
  0
LINE
  8
_1-2_仕上
  6
CONTINUOUS
 62
    3
 10
1203.5125
 20
2145.9085
 11
1200.5383
 21
2147.7685
  0
LINE
  8
_1-2_仕上
  6
CONTINUOUS
 62
    3
 10
1200.5383
 20
2147.7685
 11
1197.1471
 21
2149.7628
  0
LINE
  8
_1-2_仕上
  6
CONTINUOUS
 62
    3
 10
1197.1471
 20
2149.7628
 11
1193.3999
 21
2151.8666
  0
LINE
  8
_1-2_仕上
  6
CONTINUOUS
 62
    3
 10
1193.3999
 20
2151.8666
 11
1189.3329
 21
2154.0529
  0
LINE
  8
_1-2_仕上
  6
CONTINUOUS
 62
    3
 10
1189.3329
 20
2154.0529
 11
1184.9765
 21
2156.2982
  0
LINE
  8
_1-2_仕上
  6
CONTINUOUS
 62
    3
 10
1184.9765
 20
2156.2982
 11
1180.3699
 21
2158.5858
  0
LINE
  8
_1-2_仕上
  6
CONTINUOUS
 62
    3
 10
1180.3699
 20
2158.5858
 11
1175.5384
 21
2160.8981
  0
LINE
  8
_1-2_仕上
  6
CONTINUOUS
 62
    3
 10
1175.5384
 20
2160.8981
 11
1170.4998
 21
2163.2201
  0
LINE
  8
_1-2_仕上
  6
CONTINUOUS
 62
    3
 10
1170.4998
 20
2163.2201
 11
1165.2855
 21
2165.545
  0
LINE
  8
_1-2_仕上
  6
CONTINUOUS
 62
    3
 10
1165.2855
 20
2165.545
 11
1159.9104
 21
2167.8578
  0
LINE
  8
_1-2_仕上
  6
CONTINUOUS
 62
    3
 10
1159.9104
 20
2167.8578
 11
1154.4011
 21
2170.1521
  0
LINE
  8
_1-2_仕上
  6
CONTINUOUS
 62
    3
 10
1154.4011
 20
2170.1521
 11
1148.7724
 21
2172.4229
  0
LINE
  8
_1-2_仕上
  6
CONTINUOUS
 62
    3
 10
1148.7724
 20
2172.4229
 11
1143.0471
 21
2174.6582
  0
LINE
  8
_1-2_仕上
  6
CONTINUOUS
 62
    3
 10
1143.0471
 20
2174.6582
 11
1137.2454
 21
2176.8575
  0
LINE
  8
_1-2_仕上
  6
CONTINUOUS
 62
    3
 10
1137.2454
 20
2176.8575
 11
1131.3907
 21
2179.0144
  0
LINE
  8
_1-2_仕上
  6
CONTINUOUS
 62
    3
 10
1131.3907
 20
2179.0144
 11
1125.5083
 21
2181.1283
  0
LINE
  8
_1-2_仕上
  6
CONTINUOUS
 62
    3
 10
1125.5083
 20
2181.1283
 11
1119.62
 21
2183.1853
  0
LINE
  8
_1-2_仕上
  6
CONTINUOUS
 62
    3
 10
1119.62
 20
2183.1853
 11
1113.7487
 21
2185.1868
  0
LINE
  8
_1-2_仕上
  6
CONTINUOUS
 62
    3
 10
1113.7487
 20
2185.1868
 11
1107.9243
 21
2187.1319
  0
LINE
  8
_1-2_仕上
  6
CONTINUOUS
 62
    3
 10
1107.9243
 20
2187.1319
 11
1102.178
 21
2189.008
  0
LINE
  8
_1-2_仕上
  6
CONTINUOUS
 62
    3
 10
1102.178
 20
2189.008
 11
1096.5319
 21
2190.8156
  0
LINE
  8
_1-2_仕上
  6
CONTINUOUS
 62
    3
 10
1096.5319
 20
2190.8156
 11
1091.0226
 21
2192.5476
  0
LINE
  8
_1-2_仕上
  6
CONTINUOUS
 62
    3
 10
1091.0226
 20
2192.5476
 11
1085.6787
 21
2194.1946
  0
LINE
  8
_1-2_仕上
  6
CONTINUOUS
 62
    3
 10
1085.6787
 20
2194.1946
 11
1080.5304
 21
2195.7517
  0
LINE
  8
_1-2_仕上
  6
CONTINUOUS
 62
    3
 10
1080.5304
 20
2195.7517
 11
1075.6044
 21
2197.2134
  0
LINE
  8
_1-2_仕上
  6
CONTINUOUS
 62
    3
 10
1075.6044
 20
2197.2134
 11
1070.9335
 21
2198.5679
  0
LINE
  8
_1-2_仕上
  6
CONTINUOUS
 62
    3
 10
1176.2585
 20
2219.1002
 11
1176.3384
 21
2219.1281
  0
LINE
  8
_1-2_仕上
  6
CONTINUOUS
 62
    3
 10
1100.0668
 20
2082.138
 11
1100.0668
 21
2062.6732
  0
LINE
  8
_1-2_仕上
  6
CONTINUOUS
 62
    3
 10
1100.0668
 20
2062.6732
 11
1159.2148
 21
2062.6732
  0
LINE
  8
_1-2_仕上
  6
CONTINUOUS
 62
    3
 10
1159.2148
 20
2082.138
 11
1159.2148
 21
2062.6732
  0
LINE
  8
_1-2_仕上
  6
CONTINUOUS
 62
    3
 10
1100.0668
 20
2082.138
 11
1159.2148
 21
2082.138
  0
LINE
  8
_1-2_仕上
  6
CONTINUOUS
 62
    3
 10
1065.4787
 20
2234.6602
 11
1065.4787
 21
2191.0417
  0
LINE
  8
_1-2_仕上
  6
CONTINUOUS
 62
    3
 10
1071.8359
 20
2221.5815
 11
1071.1757
 21
2221.2086
  0
LINE
  8
_1-2_仕上
  6
CONTINUOUS
 62
    3
 10
1071.1757
 20
2221.2086
 11
1070.5002
 21
2220.8169
  0
LINE
  8
_1-2_仕上
  6
CONTINUOUS
 62
    3
 10
1070.5002
 20
2220.8169
 11
1069.8168
 21
2220.4061
  0
LINE
  8
_1-2_仕上
  6
CONTINUOUS
 62
    3
 10
1069.8168
 20
2220.4061
 11
1069.1183
 21
2219.9756
  0
LINE
  8
_1-2_仕上
  6
CONTINUOUS
 62
    3
 10
1069.1183
 20
2219.9756
 11
1068.4059
 21
2219.5317
  0
LINE
  8
_1-2_仕上
  6
CONTINUOUS
 62
    3
 10
1068.4059
 20
2219.5317
 11
1067.6814
 21
2219.0648
  0
LINE
  8
_1-2_仕上
  6
CONTINUOUS
 62
    3
 10
1067.6814
 20
2219.0648
 11
1066.9448
 21
2218.5818
  0
LINE
  8
_1-2_仕上
  6
CONTINUOUS
 62
    3
 10
1066.9448
 20
2218.5818
 11
1066.1938
 21
2218.0775
  0
LINE
  8
_1-2_仕上
  6
CONTINUOUS
 62
    3
 10
1066.1938
 20
2218.0775
 11
1065.4322
 21
2217.5589
  0
LINE
  8
_1-2_仕上
  6
CONTINUOUS
 62
    3
 10
1069.5797
 20
2205.7961
 11
1069.0903
 21
2205.7023
  0
LINE
  8
_1-2_仕上
  6
CONTINUOUS
 62
    3
 10
1069.0903
 20
2205.7023
 11
1068.6075
 21
2205.6149
  0
LINE
  8
_1-2_仕上
  6
CONTINUOUS
 62
    3
 10
1068.6075
 20
2205.6149
 11
1068.1337
 21
2205.5286
  0
LINE
  8
_1-2_仕上
  6
CONTINUOUS
 62
    3
 10
1068.1337
 20
2205.5286
 11
1067.6646
 21
2205.4442
  0
LINE
  8
_1-2_仕上
  6
CONTINUOUS
 62
    3
 10
1067.6646
 20
2205.4442
 11
1067.2053
 21
2205.364
  0
LINE
  8
_1-2_仕上
  6
CONTINUOUS
 62
    3
 10
1067.2053
 20
2205.364
 11
1066.7503
 21
2205.2886
  0
LINE
  8
_1-2_仕上
  6
CONTINUOUS
 62
    3
 10
1066.7503
 20
2205.2886
 11
1066.3041
 21
2205.218
  0
LINE
  8
_1-2_仕上
  6
CONTINUOUS
 62
    3
 10
1066.3041
 20
2205.218
 11
1065.8632
 21
2205.1488
  0
LINE
  8
_1-2_仕上
  6
CONTINUOUS
 62
    3
 10
1065.8632
 20
2205.1488
 11
1065.4322
 21
2205.0822
  0
LINE
  8
_1-2_仕上
  6
CONTINUOUS
 62
    3
 10
1079.3217
 20
2197.0454
 11
1077.4617
 21
2197.4395
  0
LINE
  8
_1-2_仕上
  6
CONTINUOUS
 62
    3
 10
1077.4617
 20
2197.4395
 11
1075.6772
 21
2197.8206
  0
LINE
  8
_1-2_仕上
  6
CONTINUOUS
 62
    3
 10
1075.6772
 20
2197.8206
 11
1073.9743
 21
2198.19
  0
LINE
  8
_1-2_仕上
  6
CONTINUOUS
 62
    3
 10
1073.9743
 20
2198.19
 11
1072.3511
 21
2198.5473
  0
LINE
  8
_1-2_仕上
  6
CONTINUOUS
 62
    3
 10
1072.3511
 20
2198.5473
 11
1070.807
 21
2198.8913
  0
LINE
  8
_1-2_仕上
  6
CONTINUOUS
 62
    3
 10
1070.807
 20
2198.8913
 11
1069.3444
 21
2199.2255
  0
LINE
  8
_1-2_仕上
  6
CONTINUOUS
 62
    3
 10
1069.3444
 20
2199.2255
 11
1067.96
 21
2199.5455
  0
LINE
  8
_1-2_仕上
  6
CONTINUOUS
 62
    3
 10
1067.96
 20
2199.5455
 11
1066.656
 21
2199.8545
  0
LINE
  8
_1-2_仕上
  6
CONTINUOUS
 62
    3
 10
1066.656
 20
2199.8545
 11
1065.4322
 21
2200.1495
  0
LINE
  8
_1-2_仕上
  6
CONTINUOUS
 62
    3
 10
1070.9335
 20
2198.5679
 11
1070.2058
 21
2198.7665
  0
LINE
  8
_1-2_仕上
  6
CONTINUOUS
 62
    3
 10
1070.2058
 20
2198.7665
 11
1069.5072
 21
2198.9571
  0
LINE
  8
_1-2_仕上
  6
CONTINUOUS
 62
    3
 10
1069.5072
 20
2198.9571
 11
1068.8396
 21
2199.1454
  0
LINE
  8
_1-2_仕上
  6
CONTINUOUS
 62
    3
 10
1068.8396
 20
2199.1454
 11
1068.2027
 21
2199.3265
  0
LINE
  8
_1-2_仕上
  6
CONTINUOUS
 62
    3
 10
1068.2027
 20
2199.3265
 11
1067.5982
 21
2199.5005
  0
LINE
  8
_1-2_仕上
  6
CONTINUOUS
 62
    3
 10
1067.5982
 20
2199.5005
 11
1067.0212
 21
2199.6662
  0
LINE
  8
_1-2_仕上
  6
CONTINUOUS
 62
    3
 10
1067.0212
 20
2199.6662
 11
1066.4756
 21
2199.8288
  0
LINE
  8
_1-2_仕上
  6
CONTINUOUS
 62
    3
 10
1066.4756
 20
2199.8288
 11
1065.9619
 21
2199.9862
  0
LINE
  8
_1-2_仕上
  6
CONTINUOUS
 62
    3
 10
1065.9619
 20
2199.9862
 11
1065.4787
 21
2200.1401
  0
LINE
  8
_1-2_仕上
  6
CONTINUOUS
 62
    3
 10
1059.5198
 20
2240.6217
 11
1049.9998
 21
2240.6217
  0
LINE
  8
_1-2_仕上
  6
CONTINUOUS
 62
    3
 10
1059.5198
 20
2149.0386
 11
1049.9998
 21
2149.0386
  0
LINE
  8
_1-2_仕上
  6
CONTINUOUS
 62
    3
 10
1054.9729
 20
2180.0905
 11
1058.4254
 21
2176.1931
  0
LINE
  8
_1-2_仕上
  6
CONTINUOUS
 62
    3
 10
1058.4254
 20
2176.1931
 11
1062.2204
 21
2172.1438
  0
LINE
  8
_1-2_仕上
  6
CONTINUOUS
 62
    3
 10
1062.2204
 20
2172.1438
 11
1066.3017
 21
2167.9907
  0
LINE
  8
_1-2_仕上
  6
CONTINUOUS
 62
    3
 10
1066.3017
 20
2167.9907
 11
1070.618
 21
2163.7763
  0
LINE
  8
_1-2_仕上
  6
CONTINUOUS
 62
    3
 10
1070.618
 20
2163.7763
 11
1075.1192
 21
2159.5411
  0
LINE
  8
_1-2_仕上
  6
CONTINUOUS
 62
    3
 10
1075.1192
 20
2159.5411
 11
1079.7594
 21
2155.3223
  0
LINE
  8
_1-2_仕上
  6
CONTINUOUS
 62
    3
 10
1079.7594
 20
2155.3223
 11
1084.4969
 21
2151.1532
  0
LINE
  8
_1-2_仕上
  6
CONTINUOUS
 62
    3
 10
1084.4969
 20
2151.1532
 11
1089.2908
 21
2147.064
  0
LINE
  8
_1-2_仕上
  6
CONTINUOUS
 62
    3
 10
1089.2908
 20
2147.064
 11
1094.1047
 21
2143.0832
  0
LINE
  8
_1-2_仕上
  6
CONTINUOUS
 62
    3
 10
1094.1047
 20
2143.0832
 11
1098.9058
 21
2139.2345
  0
LINE
  8
_1-2_仕上
  6
CONTINUOUS
 62
    3
 10
1098.9058
 20
2139.2345
 11
1103.6636
 21
2135.5402
  0
LINE
  8
_1-2_仕上
  6
CONTINUOUS
 62
    3
 10
1103.6636
 20
2135.5402
 11
1108.3516
 21
2132.0167
  0
LINE
  8
_1-2_仕上
  6
CONTINUOUS
 62
    3
 10
1108.3516
 20
2132.0167
 11
1112.9455
 21
2128.6812
  0
LINE
  8
_1-2_仕上
  6
CONTINUOUS
 62
    3
 10
1112.9455
 20
2128.6812
 11
1117.4247
 21
2125.5432
  0
LINE
  8
_1-2_仕上
  6
CONTINUOUS
 62
    3
 10
1117.4247
 20
2125.5432
 11
1121.7725
 21
2122.612
  0
LINE
  8
_1-2_仕上
  6
CONTINUOUS
 62
    3
 10
1121.7725
 20
2122.612
 11
1125.9733
 21
2119.8936
  0
LINE
  8
_1-2_仕上
  6
CONTINUOUS
 62
    3
 10
1125.9733
 20
2119.8936
 11
1130.0169
 21
2117.3893
  0
LINE
  8
_1-2_仕上
  6
CONTINUOUS
 62
    3
 10
1130.0169
 20
2117.3893
 11
1133.895
 21
2115.0997
  0
LINE
  8
_1-2_仕上
  6
CONTINUOUS
 62
    3
 10
1133.895
 20
2115.0997
 11
1137.6029
 21
2113.0195
  0
LINE
  8
_1-2_仕上
  6
CONTINUOUS
 62
    3
 10
1137.6029
 20
2113.0195
 11
1137.8756
 21
2112.9002
  0
LINE
  8
_1-2_仕上
  6
CONTINUOUS
 62
    3
 10
1137.8756
 20
2112.9002
 11
1138.1456
 21
2112.7864
  0
LINE
  8
_1-2_仕上
  6
CONTINUOUS
 62
    3
 10
1138.1456
 20
2112.7864
 11
1138.4135
 21
2112.6785
  0
LINE
  8
_1-2_仕上
  6
CONTINUOUS
 62
    3
 10
1138.4135
 20
2112.6785
 11
1138.6778
 21
2112.5763
  0
LINE
  8
_1-2_仕上
  6
CONTINUOUS
 62
    3
 10
1138.6778
 20
2112.5763
 11
1138.9401
 21
2112.4796
  0
LINE
  8
_1-2_仕上
  6
CONTINUOUS
 62
    3
 10
1138.9401
 20
2112.4796
 11
1139.1989
 21
2112.3885
  0
LINE
  8
_1-2_仕上
  6
CONTINUOUS
 62
    3
 10
1139.1989
 20
2112.3885
 11
1139.4555
 21
2112.3029
  0
LINE
  8
_1-2_仕上
  6
CONTINUOUS
 62
    3
 10
1139.4555
 20
2112.3029
 11
1139.7091
 21
2112.2235
  0
LINE
  8
_1-2_仕上
  6
CONTINUOUS
 62
    3
 10
1139.7091
 20
2112.2235
 11
1139.9595
 21
2112.149
  0
LINE
  8
_1-2_仕上
  6
CONTINUOUS
 62
    3
 10
1054.9729
 20
2180.0905
 11
1057.014
 21
2181.104
  0
LINE
  8
_1-2_仕上
  6
CONTINUOUS
 62
    3
 10
1057.014
 20
2181.104
 11
1058.8364
 21
2182.169
  0
LINE
  8
_1-2_仕上
  6
CONTINUOUS
 62
    3
 10
1058.8364
 20
2182.169
 11
1060.4405
 21
2183.2842
  0
LINE
  8
_1-2_仕上
  6
CONTINUOUS
 62
    3
 10
1060.4405
 20
2183.2842
 11
1061.8265
 21
2184.4502
  0
LINE
  8
_1-2_仕上
  6
CONTINUOUS
 62
    3
 10
1061.8265
 20
2184.4502
 11
1062.9939
 21
2185.6671
  0
LINE
  8
_1-2_仕上
  6
CONTINUOUS
 62
    3
 10
1062.9939
 20
2185.6671
 11
1063.9426
 21
2186.9345
  0
LINE
  8
_1-2_仕上
  6
CONTINUOUS
 62
    3
 10
1063.9426
 20
2186.9345
 11
1064.673
 21
2188.2528
  0
LINE
  8
_1-2_仕上
  6
CONTINUOUS
 62
    3
 10
1064.673
 20
2188.2528
 11
1065.1847
 21
2189.6217
  0
LINE
  8
_1-2_仕上
  6
CONTINUOUS
 62
    3
 10
1065.1847
 20
2189.6217
 11
1065.4787
 21
2191.0417
  0
LINE
  8
_1-2_仕上
  6
CONTINUOUS
 62
    3
 10
1065.4802
 20
2155.0004
 11
1065.4802
 21
2168.8273
  0
LINE
  8
_1-2_仕上
  6
CONTINUOUS
 62
    3
 10
1142.8922
 20
2206.4488
 11
1131.1546
 21
2232.3189
  0
LINE
  8
_1-2_仕上
  6
CONTINUOUS
 62
    3
 10
1119.84
 20
2035.7166
 11
1049.9998
 21
2035.7166
  0
LINE
  8
_1-2_仕上
  6
CONTINUOUS
 62
    3
 10
1131.5144
 20
2047.3913
 11
1131.5144
 21
2062.6732
  0
LINE
  8
_1-2_仕上
  6
CONTINUOUS
 62
    3
 10
1114.0029
 20
2025.2197
 11
1049.9998
 21
2025.2197
  0
LINE
  8
_1-2_仕上
  6
CONTINUOUS
 62
    3
 10
1119.84
 20
2031.057
 11
1119.84
 21
2035.7166
  0
LINE
  8
_1-2_仕上
  6
CONTINUOUS
 62
    3
 10
1252.5172
 20
2452.1343
 11
1049.9998
 21
2452.1343
  0
LINE
  8
_1-2_仕上
  6
CONTINUOUS
 62
    3
 10
1355.0001
 20
2298.9651
 11
1049.9998
 21
2298.9651
  0
LINE
  8
_1-2_仕上
  6
CONTINUOUS
 62
    3
 10
1355.0001
 20
2287.0043
 11
1260.6223
 21
2287.0043
  0
LINE
  8
_1-2_仕上
  6
CONTINUOUS
 62
    3
 10
583.3348
 20
2394.3682
 11
1049.9998
 21
2394.3682
  0
LINE
  8
_1-2_仕上
  6
CONTINUOUS
 62
    3
 10
1135.4913
 20
2287.0043
 11
1049.9998
 21
2287.0043
  0
LINE
  8
_1-2_仕上
  6
CONTINUOUS
 62
    3
 10
1355.0001
 20
2174.3682
 11
1516.6664
 21
2174.3682
  0
LINE
  8
_1-2_仕上
  6
CONTINUOUS
 62
    3
 10
1355.0001
 20
2204.7021
 11
1516.6664
 21
2204.7021
  0
LINE
  8
_1-2_仕上
  6
CONTINUOUS
 62
    3
 10
1355.0001
 20
2217.7019
 11
1516.6664
 21
2217.7019
  0
LINE
  8
_1-2_仕上
  6
CONTINUOUS
 62
    3
 10
1355.0001
 20
2256.7021
 11
1516.6664
 21
2256.7021
  0
LINE
  8
_1-2_仕上
  6
CONTINUOUS
 62
    3
 10
1355.0001
 20
2269.7016
 11
1516.6664
 21
2269.7016
  0
LINE
  8
_1-2_仕上
  6
CONTINUOUS
 62
    3
 10
583.3348
 20
2174.3682
 11
1049.9998
 21
2174.3682
  0
LINE
  8
_1-2_仕上
  6
CONTINUOUS
 62
    3
 10
583.3348
 20
2204.7021
 11
1049.9998
 21
2204.7021
  0
LINE
  8
_1-2_仕上
  6
CONTINUOUS
 62
    3
 10
583.3348
 20
2217.7019
 11
1049.9998
 21
2217.7019
  0
LINE
  8
_1-2_仕上
  6
CONTINUOUS
 62
    3
 10
583.3348
 20
2256.7021
 11
1049.9998
 21
2256.7021
  0
LINE
  8
_1-2_仕上
  6
CONTINUOUS
 62
    3
 10
583.3348
 20
2269.7016
 11
1049.9998
 21
2269.7016
  0
LINE
  8
_1-2_仕上
  6
CONTINUOUS
 62
    3
 10
1105.5464
 20
2134.1251
 11
1049.9998
 21
2134.1251
  0
LINE
  8
_1-2_仕上
  6
CONTINUOUS
 62
    3
 10
1131.5144
 20
2082.138
 11
1131.5144
 21
2116.5052
  0
LINE
  8
_1-2_仕上
  6
CONTINUOUS
 62
    3
 10
745.0001
 20
2063.3687
 11
1049.9998
 21
2063.3687
  0
LINE
  8
_1-2_仕上
  6
CONTINUOUS
 62
    3
 10
745.0001
 20
2076.3687
 11
1049.9998
 21
2076.3687
  0
LINE
  8
_1-2_仕上
  6
CONTINUOUS
 62
    3
 10
1131.5144
 20
2076.3687
 11
1355.0001
 21
2076.3687
  0
LINE
  8
_1-2_仕上
  6
CONTINUOUS
 62
    3
 10
1131.5144
 20
2063.3687
 11
1355.0001
 21
2063.3687
  0
LINE
  8
_1-2_仕上
  6
CONTINUOUS
 62
    3
 10
1355.0001
 20
2287.0046
 11
1355.0001
 21
2076.3687
  0
LINE
  8
_1-2_仕上
  6
CENTER2
 62
    7
 10
1049.9998
 20
1981.0351
 11
1049.9998
 21
2501.0348
  0
LINE
  8
_1-2_仕上
  6
CONTINUOUS
 62
    3
 10
1355.0001
 20
2314.0359
 11
1050
 21
2314.0359
  0
LINE
  8
_1-2_仕上
  6
CONTINUOUS
 62
    3
 10
1355.0001
 20
2298.9653
 11
1355.0001
 21
2314.0359
  0
LINE
  8
_1-4_
  6
CONTINUOUS
 62
    3
 10
1355.0001
 20
2431.0485
 11
1050
 21
2431.0485
  0
LINE
  8
_1-2_仕上
  6
CONTINUOUS
 62
    3
 10
1252.5172
 20
2452.1343
 11
1215.9956
 21
2431.0485
  0
LINE
  8
_1-2_仕上
  6
CONTINUOUS
 62
    3
 10
1355.0001
 20
2394.3682
 11
1516.6664
 21
2394.3682
  0
LINE
  8
_1-4_
  6
CONTINUOUS
 62
    3
 10
1355.0001
 20
2314.0359
 11
1355.0001
 21
2431.0485
  0
LINE
  8
_1-4_
  6
CONTINUOUS
 62
    4
 10
1355.0001
 20
2426.0484
 11
1050
 21
2426.0484
  0
LINE
  8
_1-4_
  6
CONTINUOUS
 62
    4
 10
1355.0001
 20
2421.0484
 11
1050
 21
2421.0484
  0
LINE
  8
_1-4_
  6
CONTINUOUS
 62
    4
 10
1355.0001
 20
2416.0484
 11
1050
 21
2416.0484
  0
LINE
  8
_1-4_
  6
CONTINUOUS
 62
    4
 10
1355.0001
 20
2411.0484
 11
1050
 21
2411.0484
  0
LINE
  8
_1-4_
  6
CONTINUOUS
 62
    4
 10
1355.0001
 20
2406.0484
 11
1050
 21
2406.0484
  0
LINE
  8
_1-4_
  6
CONTINUOUS
 62
    4
 10
1355.0001
 20
2401.0484
 11
1050
 21
2401.0484
  0
LINE
  8
_1-4_
  6
CONTINUOUS
 62
    4
 10
1355.0001
 20
2396.0483
 11
1050
 21
2396.0483
  0
LINE
  8
_1-4_
  6
CONTINUOUS
 62
    4
 10
1355.0001
 20
2391.0483
 11
1050
 21
2391.0483
  0
LINE
  8
_1-4_
  6
CONTINUOUS
 62
    4
 10
1355.0001
 20
2386.0483
 11
1050
 21
2386.0483
  0
LINE
  8
_1-4_
  6
CONTINUOUS
 62
    4
 10
1355.0001
 20
2381.0483
 11
1050
 21
2381.0483
  0
LINE
  8
_1-4_
  6
CONTINUOUS
 62
    4
 10
1355.0001
 20
2376.0483
 11
1050
 21
2376.0483
  0
LINE
  8
_1-4_
  6
CONTINUOUS
 62
    4
 10
1355.0001
 20
2371.0483
 11
1050
 21
2371.0483
  0
LINE
  8
_1-4_
  6
CONTINUOUS
 62
    4
 10
1355.0001
 20
2366.0482
 11
1050
 21
2366.0482
  0
LINE
  8
_1-4_
  6
CONTINUOUS
 62
    4
 10
1355.0001
 20
2361.0482
 11
1050
 21
2361.0482
  0
LINE
  8
_1-4_
  6
CONTINUOUS
 62
    4
 10
1355.0001
 20
2356.0482
 11
1050
 21
2356.0482
  0
LINE
  8
_1-4_
  6
CONTINUOUS
 62
    4
 10
1355.0001
 20
2351.0482
 11
1050
 21
2351.0482
  0
LINE
  8
_1-4_
  6
CONTINUOUS
 62
    4
 10
1355.0001
 20
2346.0482
 11
1050
 21
2346.0482
  0
LINE
  8
_1-4_
  6
CONTINUOUS
 62
    4
 10
1355.0001
 20
2341.0482
 11
1050
 21
2341.0482
  0
LINE
  8
_1-4_
  6
CONTINUOUS
 62
    4
 10
1355.0001
 20
2336.0481
 11
1050
 21
2336.0481
  0
LINE
  8
_1-4_
  6
CONTINUOUS
 62
    4
 10
1355.0001
 20
2331.0481
 11
1050
 21
2331.0481
  0
LINE
  8
_1-4_
  6
CONTINUOUS
 62
    4
 10
1355.0001
 20
2326.0481
 11
1050
 21
2326.0481
  0
LINE
  8
_1-4_
  6
CONTINUOUS
 62
    4
 10
1355.0001
 20
2321.0481
 11
1050
 21
2321.0481
  0
LINE
  8
_1-4_
  6
CONTINUOUS
 62
    4
 10
1355.0001
 20
2316.0481
 11
1050
 21
2316.0481
  0
LINE
  8
_1-4_
  6
CONTINUOUS
 62
    4
 10
1350.0001
 20
2314.0359
 11
1350.0001
 21
2431.0485
  0
LINE
  8
_1-4_
  6
CONTINUOUS
 62
    4
 10
1345.0001
 20
2314.0359
 11
1345.0001
 21
2431.0485
  0
LINE
  8
_1-4_
  6
CONTINUOUS
 62
    4
 10
1340
 20
2314.0359
 11
1340
 21
2431.0485
  0
LINE
  8
_1-4_
  6
CONTINUOUS
 62
    4
 10
1335.0001
 20
2314.0359
 11
1335.0001
 21
2431.0485
  0
LINE
  8
_1-4_
  6
CONTINUOUS
 62
    4
 10
1330.0001
 20
2314.0359
 11
1330.0001
 21
2431.0485
  0
LINE
  8
_1-4_
  6
CONTINUOUS
 62
    4
 10
1325.0001
 20
2314.0359
 11
1325.0001
 21
2431.0485
  0
LINE
  8
_1-4_
  6
CONTINUOUS
 62
    4
 10
1320.0001
 20
2314.0359
 11
1320.0001
 21
2431.0485
  0
LINE
  8
_1-4_
  6
CONTINUOUS
 62
    4
 10
1315.0001
 20
2314.0359
 11
1315.0001
 21
2431.0485
  0
LINE
  8
_1-4_
  6
CONTINUOUS
 62
    4
 10
1310.0001
 20
2314.0359
 11
1310.0001
 21
2431.0485
  0
LINE
  8
_1-4_
  6
CONTINUOUS
 62
    4
 10
1305
 20
2314.0359
 11
1305
 21
2431.0485
  0
LINE
  8
_1-4_
  6
CONTINUOUS
 62
    4
 10
1300
 20
2314.0359
 11
1300
 21
2431.0485
  0
LINE
  8
_1-4_
  6
CONTINUOUS
 62
    4
 10
1295
 20
2314.0359
 11
1295
 21
2431.0485
  0
LINE
  8
_1-4_
  6
CONTINUOUS
 62
    4
 10
1290
 20
2314.0359
 11
1290
 21
2431.0485
  0
LINE
  8
_1-4_
  6
CONTINUOUS
 62
    4
 10
1285
 20
2314.0359
 11
1285
 21
2431.0485
  0
LINE
  8
_1-4_
  6
CONTINUOUS
 62
    4
 10
1280.0001
 20
2314.0359
 11
1280.0001
 21
2431.0485
  0
LINE
  8
_1-4_
  6
CONTINUOUS
 62
    4
 10
1275.0001
 20
2314.0359
 11
1275.0001
 21
2431.0485
  0
LINE
  8
_1-4_
  6
CONTINUOUS
 62
    4
 10
1270.0001
 20
2314.0359
 11
1270.0001
 21
2431.0485
  0
LINE
  8
_1-4_
  6
CONTINUOUS
 62
    4
 10
1265
 20
2314.0359
 11
1265
 21
2431.0485
  0
LINE
  8
_1-4_
  6
CONTINUOUS
 62
    4
 10
1260
 20
2314.0359
 11
1260
 21
2431.0485
  0
LINE
  8
_1-4_
  6
CONTINUOUS
 62
    4
 10
1255
 20
2314.0359
 11
1255
 21
2431.0485
  0
LINE
  8
_1-4_
  6
CONTINUOUS
 62
    4
 10
1250
 20
2314.0359
 11
1250
 21
2431.0485
  0
LINE
  8
_1-4_
  6
CONTINUOUS
 62
    4
 10
1245
 20
2314.0359
 11
1245
 21
2431.0485
  0
LINE
  8
_1-4_
  6
CONTINUOUS
 62
    4
 10
1240
 20
2314.0359
 11
1240
 21
2431.0485
  0
LINE
  8
_1-4_
  6
CONTINUOUS
 62
    4
 10
1234.9999
 20
2314.0359
 11
1234.9999
 21
2431.0485
  0
LINE
  8
_1-4_
  6
CONTINUOUS
 62
    4
 10
1229.9999
 20
2314.0359
 11
1229.9999
 21
2431.0485
  0
LINE
  8
_1-4_
  6
CONTINUOUS
 62
    4
 10
1225
 20
2314.0359
 11
1225
 21
2431.0485
  0
LINE
  8
_1-4_
  6
CONTINUOUS
 62
    4
 10
1220
 20
2314.0359
 11
1220
 21
2431.0485
  0
LINE
  8
_1-4_
  6
CONTINUOUS
 62
    4
 10
1215
 20
2314.0359
 11
1215
 21
2431.0485
  0
LINE
  8
_1-4_
  6
CONTINUOUS
 62
    4
 10
1210
 20
2314.0359
 11
1210
 21
2431.0485
  0
LINE
  8
_1-4_
  6
CONTINUOUS
 62
    4
 10
1205
 20
2314.0359
 11
1205
 21
2431.0485
  0
LINE
  8
_1-4_
  6
CONTINUOUS
 62
    4
 10
1200
 20
2314.0359
 11
1200
 21
2431.0485
  0
LINE
  8
_1-4_
  6
CONTINUOUS
 62
    4
 10
1194.9999
 20
2314.0359
 11
1194.9999
 21
2431.0485
  0
LINE
  8
_1-4_
  6
CONTINUOUS
 62
    4
 10
1189.9999
 20
2314.0359
 11
1189.9999
 21
2431.0485
  0
LINE
  8
_1-4_
  6
CONTINUOUS
 62
    4
 10
1184.9999
 20
2314.0359
 11
1184.9999
 21
2431.0485
  0
LINE
  8
_1-4_
  6
CONTINUOUS
 62
    4
 10
1179.9999
 20
2314.0359
 11
1179.9999
 21
2431.0485
  0
LINE
  8
_1-4_
  6
CONTINUOUS
 62
    4
 10
1174.9999
 20
2314.0359
 11
1174.9999
 21
2431.0485
  0
LINE
  8
_1-4_
  6
CONTINUOUS
 62
    4
 10
1170
 20
2314.0359
 11
1170
 21
2431.0485
  0
LINE
  8
_1-4_
  6
CONTINUOUS
 62
    4
 10
1165
 20
2314.0359
 11
1165
 21
2431.0485
  0
LINE
  8
_1-4_
  6
CONTINUOUS
 62
    4
 10
1159.9999
 20
2314.0359
 11
1159.9999
 21
2431.0485
  0
LINE
  8
_1-4_
  6
CONTINUOUS
 62
    4
 10
1154.9999
 20
2314.0359
 11
1154.9999
 21
2431.0485
  0
LINE
  8
_1-4_
  6
CONTINUOUS
 62
    4
 10
1149.9999
 20
2314.0359
 11
1149.9999
 21
2431.0485
  0
LINE
  8
_1-4_
  6
CONTINUOUS
 62
    4
 10
1144.9999
 20
2314.0359
 11
1144.9999
 21
2431.0485
  0
LINE
  8
_1-4_
  6
CONTINUOUS
 62
    4
 10
1139.9999
 20
2314.0359
 11
1139.9999
 21
2431.0485
  0
LINE
  8
_1-4_
  6
CONTINUOUS
 62
    4
 10
1134.9999
 20
2314.0359
 11
1134.9999
 21
2431.0485
  0
LINE
  8
_1-4_
  6
CONTINUOUS
 62
    4
 10
1129.9998
 20
2314.0359
 11
1129.9998
 21
2431.0485
  0
LINE
  8
_1-4_
  6
CONTINUOUS
 62
    4
 10
1124.9998
 20
2314.0359
 11
1124.9998
 21
2431.0485
  0
LINE
  8
_1-4_
  6
CONTINUOUS
 62
    4
 10
1119.9998
 20
2314.0359
 11
1119.9998
 21
2431.0485
  0
LINE
  8
_1-4_
  6
CONTINUOUS
 62
    4
 10
1114.9999
 20
2314.0359
 11
1114.9999
 21
2431.0485
  0
LINE
  8
_1-4_
  6
CONTINUOUS
 62
    4
 10
1109.9999
 20
2314.0359
 11
1109.9999
 21
2431.0485
  0
LINE
  8
_1-4_
  6
CONTINUOUS
 62
    4
 10
1104.9999
 20
2314.0359
 11
1104.9999
 21
2431.0485
  0
LINE
  8
_1-4_
  6
CONTINUOUS
 62
    4
 10
1099.9999
 20
2314.0359
 11
1099.9999
 21
2431.0485
  0
LINE
  8
_1-4_
  6
CONTINUOUS
 62
    4
 10
1094.9999
 20
2314.0359
 11
1094.9999
 21
2431.0485
  0
LINE
  8
_1-4_
  6
CONTINUOUS
 62
    4
 10
1089.9998
 20
2314.0359
 11
1089.9998
 21
2431.0485
  0
LINE
  8
_1-4_
  6
CONTINUOUS
 62
    4
 10
1084.9998
 20
2314.0359
 11
1084.9998
 21
2431.0485
  0
LINE
  8
_1-4_
  6
CONTINUOUS
 62
    4
 10
1079.9998
 20
2314.0359
 11
1079.9998
 21
2431.0485
  0
LINE
  8
_1-4_
  6
CONTINUOUS
 62
    4
 10
1074.9998
 20
2314.0359
 11
1074.9998
 21
2431.0485
  0
LINE
  8
_1-4_
  6
CONTINUOUS
 62
    4
 10
1069.9998
 20
2314.0359
 11
1069.9998
 21
2431.0485
  0
LINE
  8
_1-4_
  6
CONTINUOUS
 62
    4
 10
1064.9998
 20
2314.0359
 11
1064.9998
 21
2431.0485
  0
LINE
  8
_1-4_
  6
CONTINUOUS
 62
    4
 10
1059.9999
 20
2314.0359
 11
1059.9999
 21
2431.0485
  0
LINE
  8
_1-4_
  6
CONTINUOUS
 62
    4
 10
1054.9998
 20
2314.0359
 11
1054.9998
 21
2431.0485
  0
LINE
  8
_1-1_1-1___
  6
CENTER2
 62
    7
 10
1050
 20
1937.8378
 11
1050
 21
2602.7027
  0
LINE
  8
_1-2_仕上
  6
CONTINUOUS
 62
    3
 10
1516.6664
 20
2256.7019
 11
1516.6664
 21
2256.7019
  0
LINE
  8
_1-2_仕上
  6
CONTINUOUS
 62
    3
 10
1516.6664
 20
2256.7019
 11
1517.742
 21
2256.8007
  0
LINE
  8
_1-2_仕上
  6
CONTINUOUS
 62
    3
 10
1517.742
 20
2256.8007
 11
1518.785
 21
2257.0939
  0
LINE
  8
_1-2_仕上
  6
CONTINUOUS
 62
    3
 10
1518.785
 20
2257.0939
 11
1519.7636
 21
2257.5727
  0
LINE
  8
_1-2_仕上
  6
CONTINUOUS
 62
    3
 10
1519.7636
 20
2257.5727
 11
1520.6481
 21
2258.2226
  0
LINE
  8
_1-2_仕上
  6
CONTINUOUS
 62
    3
 10
1520.6481
 20
2258.2226
 11
1521.4116
 21
2259.0238
  0
LINE
  8
_1-2_仕上
  6
CONTINUOUS
 62
    3
 10
1521.4116
 20
2259.0238
 11
1522.0309
 21
2259.9519
  0
LINE
  8
_1-2_仕上
  6
CONTINUOUS
 62
    3
 10
1522.0309
 20
2259.9519
 11
1522.4872
 21
2260.9787
  0
LINE
  8
_1-2_仕上
  6
CONTINUOUS
 62
    3
 10
1522.4872
 20
2260.9787
 11
1522.7667
 21
2262.0732
  0
LINE
  8
_1-2_仕上
  6
CONTINUOUS
 62
    3
 10
1522.7667
 20
2262.0732
 11
1522.8608
 21
2263.2019
  0
LINE
  8
_1-2_仕上
  6
CONTINUOUS
 62
    3
 10
1522.8608
 20
2263.2019
 11
1522.7667
 21
2264.3306
  0
LINE
  8
_1-2_仕上
  6
CONTINUOUS
 62
    3
 10
1522.7667
 20
2264.3306
 11
1522.4872
 21
2265.425
  0
LINE
  8
_1-2_仕上
  6
CONTINUOUS
 62
    3
 10
1522.4872
 20
2265.425
 11
1522.0309
 21
2266.4518
  0
LINE
  8
_1-2_仕上
  6
CONTINUOUS
 62
    3
 10
1522.0309
 20
2266.4518
 11
1521.4116
 21
2267.3799
  0
LINE
  8
_1-2_仕上
  6
CONTINUOUS
 62
    3
 10
1521.4116
 20
2267.3799
 11
1520.6481
 21
2268.1811
  0
LINE
  8
_1-2_仕上
  6
CONTINUOUS
 62
    3
 10
1520.6481
 20
2268.1811
 11
1519.7636
 21
2268.831
  0
LINE
  8
_1-2_仕上
  6
CONTINUOUS
 62
    3
 10
1519.7636
 20
2268.831
 11
1518.785
 21
2269.3098
  0
LINE
  8
_1-2_仕上
  6
CONTINUOUS
 62
    3
 10
1518.785
 20
2269.3098
 11
1517.742
 21
2269.603
  0
LINE
  8
_1-2_仕上
  6
CONTINUOUS
 62
    3
 10
1517.742
 20
2269.603
 11
1516.6664
 21
2269.7018
  0
LINE
  8
_1-2_仕上
  6
CONTINUOUS
 62
    3
 10
1516.6664
 20
2269.7018
 11
1516.6664
 21
2269.7018
  0
LINE
  8
_1-2_仕上
  6
CONTINUOUS
 62
    3
 10
1516.6664
 20
2204.7019
 11
1516.6664
 21
2204.7019
  0
LINE
  8
_1-2_仕上
  6
CONTINUOUS
 62
    3
 10
1516.6664
 20
2204.7019
 11
1517.742
 21
2204.8007
  0
LINE
  8
_1-2_仕上
  6
CONTINUOUS
 62
    3
 10
1517.742
 20
2204.8007
 11
1518.785
 21
2205.0939
  0
LINE
  8
_1-2_仕上
  6
CONTINUOUS
 62
    3
 10
1518.785
 20
2205.0939
 11
1519.7636
 21
2205.5728
  0
LINE
  8
_1-2_仕上
  6
CONTINUOUS
 62
    3
 10
1519.7636
 20
2205.5728
 11
1520.6481
 21
2206.2226
  0
LINE
  8
_1-2_仕上
  6
CONTINUOUS
 62
    3
 10
1520.6481
 20
2206.2226
 11
1521.4116
 21
2207.0238
  0
LINE
  8
_1-2_仕上
  6
CONTINUOUS
 62
    3
 10
1521.4116
 20
2207.0238
 11
1522.0309
 21
2207.9519
  0
LINE
  8
_1-2_仕上
  6
CONTINUOUS
 62
    3
 10
1522.0309
 20
2207.9519
 11
1522.4872
 21
2208.9788
  0
LINE
  8
_1-2_仕上
  6
CONTINUOUS
 62
    3
 10
1522.4872
 20
2208.9788
 11
1522.7667
 21
2210.0732
  0
LINE
  8
_1-2_仕上
  6
CONTINUOUS
 62
    3
 10
1522.7667
 20
2210.0732
 11
1522.8608
 21
2211.2019
  0
LINE
  8
_1-2_仕上
  6
CONTINUOUS
 62
    3
 10
1522.8608
 20
2211.2019
 11
1522.7667
 21
2212.3306
  0
LINE
  8
_1-2_仕上
  6
CONTINUOUS
 62
    3
 10
1522.7667
 20
2212.3306
 11
1522.4872
 21
2213.425
  0
LINE
  8
_1-2_仕上
  6
CONTINUOUS
 62
    3
 10
1522.4872
 20
2213.425
 11
1522.0309
 21
2214.4518
  0
LINE
  8
_1-2_仕上
  6
CONTINUOUS
 62
    3
 10
1522.0309
 20
2214.4518
 11
1521.4116
 21
2215.38
  0
LINE
  8
_1-2_仕上
  6
CONTINUOUS
 62
    3
 10
1521.4116
 20
2215.38
 11
1520.6481
 21
2216.1811
  0
LINE
  8
_1-2_仕上
  6
CONTINUOUS
 62
    3
 10
1520.6481
 20
2216.1811
 11
1519.7636
 21
2216.831
  0
LINE
  8
_1-2_仕上
  6
CONTINUOUS
 62
    3
 10
1519.7636
 20
2216.831
 11
1518.785
 21
2217.3098
  0
LINE
  8
_1-2_仕上
  6
CONTINUOUS
 62
    3
 10
1518.785
 20
2217.3098
 11
1517.742
 21
2217.6031
  0
LINE
  8
_1-2_仕上
  6
CONTINUOUS
 62
    3
 10
1517.742
 20
2217.6031
 11
1516.6664
 21
2217.7018
  0
LINE
  8
_1-2_仕上
  6
CONTINUOUS
 62
    3
 10
1516.6664
 20
2217.7018
 11
1516.6664
 21
2217.7018
  0
LINE
  8
_1-2_仕上
  6
CONTINUOUS
 62
    3
 10
583.3348
 20
2269.7018
 11
583.3348
 21
2269.7018
  0
LINE
  8
_1-2_仕上
  6
CONTINUOUS
 62
    3
 10
583.3348
 20
2269.7018
 11
582.25915
 21
2269.603
  0
LINE
  8
_1-2_仕上
  6
CONTINUOUS
 62
    3
 10
582.25915
 20
2269.603
 11
581.21618
 21
2269.3098
  0
LINE
  8
_1-2_仕上
  6
CONTINUOUS
 62
    3
 10
581.21618
 20
2269.3098
 11
580.23758
 21
2268.831
  0
LINE
  8
_1-2_仕上
  6
CONTINUOUS
 62
    3
 10
580.23758
 20
2268.831
 11
579.35309
 21
2268.1811
  0
LINE
  8
_1-2_仕上
  6
CONTINUOUS
 62
    3
 10
579.35309
 20
2268.1811
 11
578.58959
 21
2267.3799
  0
LINE
  8
_1-2_仕上
  6
CONTINUOUS
 62
    3
 10
578.58959
 20
2267.3799
 11
577.97026
 21
2266.4518
  0
LINE
  8
_1-2_仕上
  6
CONTINUOUS
 62
    3
 10
577.97026
 20
2266.4518
 11
577.51393
 21
2265.425
  0
LINE
  8
_1-2_仕上
  6
CONTINUOUS
 62
    3
 10
577.51393
 20
2265.425
 11
577.23447
 21
2264.3306
  0
LINE
  8
_1-2_仕上
  6
CONTINUOUS
 62
    3
 10
577.23447
 20
2264.3306
 11
577.14036
 21
2263.2019
  0
LINE
  8
_1-2_仕上
  6
CONTINUOUS
 62
    3
 10
577.14036
 20
2263.2019
 11
577.23447
 21
2262.0732
  0
LINE
  8
_1-2_仕上
  6
CONTINUOUS
 62
    3
 10
577.23447
 20
2262.0732
 11
577.51393
 21
2260.9787
  0
LINE
  8
_1-2_仕上
  6
CONTINUOUS
 62
    3
 10
577.51393
 20
2260.9787
 11
577.97026
 21
2259.9519
  0
LINE
  8
_1-2_仕上
  6
CONTINUOUS
 62
    3
 10
577.97026
 20
2259.9519
 11
578.58959
 21
2259.0238
  0
LINE
  8
_1-2_仕上
  6
CONTINUOUS
 62
    3
 10
578.58959
 20
2259.0238
 11
579.35309
 21
2258.2226
  0
LINE
  8
_1-2_仕上
  6
CONTINUOUS
 62
    3
 10
579.35309
 20
2258.2226
 11
580.23758
 21
2257.5727
  0
LINE
  8
_1-2_仕上
  6
CONTINUOUS
 62
    3
 10
580.23758
 20
2257.5727
 11
581.21618
 21
2257.0939
  0
LINE
  8
_1-2_仕上
  6
CONTINUOUS
 62
    3
 10
581.21618
 20
2257.0939
 11
582.25915
 21
2256.8007
  0
LINE
  8
_1-2_仕上
  6
CONTINUOUS
 62
    3
 10
582.25915
 20
2256.8007
 11
583.3348
 21
2256.7019
  0
LINE
  8
_1-2_仕上
  6
CONTINUOUS
 62
    3
 10
583.3348
 20
2256.7019
 11
583.3348
 21
2256.7019
  0
LINE
  8
_1-2_仕上
  6
CONTINUOUS
 62
    3
 10
583.3348
 20
2217.7018
 11
583.3348
 21
2217.7018
  0
LINE
  8
_1-2_仕上
  6
CONTINUOUS
 62
    3
 10
583.3348
 20
2217.7018
 11
582.25915
 21
2217.6031
  0
LINE
  8
_1-2_仕上
  6
CONTINUOUS
 62
    3
 10
582.25915
 20
2217.6031
 11
581.21618
 21
2217.3098
  0
LINE
  8
_1-2_仕上
  6
CONTINUOUS
 62
    3
 10
581.21618
 20
2217.3098
 11
580.23758
 21
2216.831
  0
LINE
  8
_1-2_仕上
  6
CONTINUOUS
 62
    3
 10
580.23758
 20
2216.831
 11
579.35309
 21
2216.1811
  0
LINE
  8
_1-2_仕上
  6
CONTINUOUS
 62
    3
 10
579.35309
 20
2216.1811
 11
578.58959
 21
2215.38
  0
LINE
  8
_1-2_仕上
  6
CONTINUOUS
 62
    3
 10
578.58959
 20
2215.38
 11
577.97026
 21
2214.4518
  0
LINE
  8
_1-2_仕上
  6
CONTINUOUS
 62
    3
 10
577.97026
 20
2214.4518
 11
577.51393
 21
2213.425
  0
LINE
  8
_1-2_仕上
  6
CONTINUOUS
 62
    3
 10
577.51393
 20
2213.425
 11
577.23447
 21
2212.3306
  0
LINE
  8
_1-2_仕上
  6
CONTINUOUS
 62
    3
 10
577.23447
 20
2212.3306
 11
577.14036
 21
2211.2019
  0
LINE
  8
_1-2_仕上
  6
CONTINUOUS
 62
    3
 10
577.14036
 20
2211.2019
 11
577.23447
 21
2210.0732
  0
LINE
  8
_1-2_仕上
  6
CONTINUOUS
 62
    3
 10
577.23447
 20
2210.0732
 11
577.51393
 21
2208.9788
  0
LINE
  8
_1-2_仕上
  6
CONTINUOUS
 62
    3
 10
577.51393
 20
2208.9788
 11
577.97026
 21
2207.9519
  0
LINE
  8
_1-2_仕上
  6
CONTINUOUS
 62
    3
 10
577.97026
 20
2207.9519
 11
578.58959
 21
2207.0238
  0
LINE
  8
_1-2_仕上
  6
CONTINUOUS
 62
    3
 10
578.58959
 20
2207.0238
 11
579.35309
 21
2206.2226
  0
LINE
  8
_1-2_仕上
  6
CONTINUOUS
 62
    3
 10
579.35309
 20
2206.2226
 11
580.23758
 21
2205.5728
  0
LINE
  8
_1-2_仕上
  6
CONTINUOUS
 62
    3
 10
580.23758
 20
2205.5728
 11
581.21618
 21
2205.0939
  0
LINE
  8
_1-2_仕上
  6
CONTINUOUS
 62
    3
 10
581.21618
 20
2205.0939
 11
582.25915
 21
2204.8007
  0
LINE
  8
_1-2_仕上
  6
CONTINUOUS
 62
    3
 10
582.25915
 20
2204.8007
 11
583.3348
 21
2204.7019
  0
LINE
  8
_1-2_仕上
  6
CONTINUOUS
 62
    3
 10
583.3348
 20
2204.7019
 11
583.3348
 21
2204.7019
  0
LINE
  8
_1-2_仕上
  6
CONTINUOUS
 62
    3
 10
1355.0001
 20
2063.3685
 11
1355.0001
 21
2063.3685
  0
LINE
  8
_1-2_仕上
  6
CONTINUOUS
 62
    3
 10
1355.0001
 20
2063.3685
 11
1356.0757
 21
2063.4673
  0
LINE
  8
_1-2_仕上
  6
CONTINUOUS
 62
    3
 10
1356.0757
 20
2063.4673
 11
1357.1187
 21
2063.7605
  0
LINE
  8
_1-2_仕上
  6
CONTINUOUS
 62
    3
 10
1357.1187
 20
2063.7605
 11
1358.0973
 21
2064.2394
  0
LINE
  8
_1-2_仕上
  6
CONTINUOUS
 62
    3
 10
1358.0973
 20
2064.2394
 11
1358.9818
 21
2064.8892
  0
LINE
  8
_1-2_仕上
  6
CONTINUOUS
 62
    3
 10
1358.9818
 20
2064.8892
 11
1359.7453
 21
2065.6904
  0
LINE
  8
_1-2_仕上
  6
CONTINUOUS
 62
    3
 10
1359.7453
 20
2065.6904
 11
1360.3646
 21
2066.6185
  0
LINE
  8
_1-2_仕上
  6
CONTINUOUS
 62
    3
 10
1360.3646
 20
2066.6185
 11
1360.821
 21
2067.6454
  0
LINE
  8
_1-2_仕上
  6
CONTINUOUS
 62
    3
 10
1360.821
 20
2067.6454
 11
1361.1004
 21
2068.7398
  0
LINE
  8
_1-2_仕上
  6
CONTINUOUS
 62
    3
 10
1361.1004
 20
2068.7398
 11
1361.1945
 21
2069.8685
  0
LINE
  8
_1-2_仕上
  6
CONTINUOUS
 62
    3
 10
1361.1945
 20
2069.8685
 11
1361.1004
 21
2070.9972
  0
LINE
  8
_1-2_仕上
  6
CONTINUOUS
 62
    3
 10
1361.1004
 20
2070.9972
 11
1360.821
 21
2072.0916
  0
LINE
  8
_1-2_仕上
  6
CONTINUOUS
 62
    3
 10
1360.821
 20
2072.0916
 11
1360.3646
 21
2073.1184
  0
LINE
  8
_1-2_仕上
  6
CONTINUOUS
 62
    3
 10
1360.3646
 20
2073.1184
 11
1359.7453
 21
2074.0465
  0
LINE
  8
_1-2_仕上
  6
CONTINUOUS
 62
    3
 10
1359.7453
 20
2074.0465
 11
1358.9818
 21
2074.8477
  0
LINE
  8
_1-2_仕上
  6
CONTINUOUS
 62
    3
 10
1358.9818
 20
2074.8477
 11
1358.0973
 21
2075.4976
  0
LINE
  8
_1-2_仕上
  6
CONTINUOUS
 62
    3
 10
1358.0973
 20
2075.4976
 11
1357.1187
 21
2075.9764
  0
LINE
  8
_1-2_仕上
  6
CONTINUOUS
 62
    3
 10
1357.1187
 20
2075.9764
 11
1356.0757
 21
2076.2696
  0
LINE
  8
_1-2_仕上
  6
CONTINUOUS
 62
    3
 10
1356.0757
 20
2076.2696
 11
1355.0001
 21
2076.3684
  0
LINE
  8
_1-2_仕上
  6
CONTINUOUS
 62
    3
 10
1355.0001
 20
2076.3684
 11
1355.0001
 21
2076.3684
  0
LINE
  8
_1-2_仕上
  6
CONTINUOUS
 62
    3
 10
1355.0001
 20
2011.3686
 11
1355.0001
 21
2011.3686
  0
LINE
  8
_1-2_仕上
  6
CONTINUOUS
 62
    3
 10
1355.0001
 20
2011.3686
 11
1356.0757
 21
2011.4673
  0
LINE
  8
_1-2_仕上
  6
CONTINUOUS
 62
    3
 10
1356.0757
 20
2011.4673
 11
1357.1187
 21
2011.7605
  0
LINE
  8
_1-2_仕上
  6
CONTINUOUS
 62
    3
 10
1357.1187
 20
2011.7605
 11
1358.0973
 21
2012.2394
  0
LINE
  8
_1-2_仕上
  6
CONTINUOUS
 62
    3
 10
1358.0973
 20
2012.2394
 11
1358.9818
 21
2012.8892
  0
LINE
  8
_1-2_仕上
  6
CONTINUOUS
 62
    3
 10
1358.9818
 20
2012.8892
 11
1359.7453
 21
2013.6904
  0
LINE
  8
_1-2_仕上
  6
CONTINUOUS
 62
    3
 10
1359.7453
 20
2013.6904
 11
1360.3646
 21
2014.6185
  0
LINE
  8
_1-2_仕上
  6
CONTINUOUS
 62
    3
 10
1360.3646
 20
2014.6185
 11
1360.821
 21
2015.6454
  0
LINE
  8
_1-2_仕上
  6
CONTINUOUS
 62
    3
 10
1360.821
 20
2015.6454
 11
1361.1004
 21
2016.7398
  0
LINE
  8
_1-2_仕上
  6
CONTINUOUS
 62
    3
 10
1361.1004
 20
2016.7398
 11
1361.1945
 21
2017.8685
  0
LINE
  8
_1-2_仕上
  6
CONTINUOUS
 62
    3
 10
1361.1945
 20
2017.8685
 11
1361.1004
 21
2018.9972
  0
LINE
  8
_1-2_仕上
  6
CONTINUOUS
 62
    3
 10
1361.1004
 20
2018.9972
 11
1360.821
 21
2020.0916
  0
LINE
  8
_1-2_仕上
  6
CONTINUOUS
 62
    3
 10
1360.821
 20
2020.0916
 11
1360.3646
 21
2021.1185
  0
LINE
  8
_1-2_仕上
  6
CONTINUOUS
 62
    3
 10
1360.3646
 20
2021.1185
 11
1359.7453
 21
2022.0466
  0
LINE
  8
_1-2_仕上
  6
CONTINUOUS
 62
    3
 10
1359.7453
 20
2022.0466
 11
1358.9818
 21
2022.8477
  0
LINE
  8
_1-2_仕上
  6
CONTINUOUS
 62
    3
 10
1358.9818
 20
2022.8477
 11
1358.0973
 21
2023.4976
  0
LINE
  8
_1-2_仕上
  6
CONTINUOUS
 62
    3
 10
1358.0973
 20
2023.4976
 11
1357.1187
 21
2023.9764
  0
LINE
  8
_1-2_仕上
  6
CONTINUOUS
 62
    3
 10
1357.1187
 20
2023.9764
 11
1356.0757
 21
2024.2697
  0
LINE
  8
_1-2_仕上
  6
CONTINUOUS
 62
    3
 10
1356.0757
 20
2024.2697
 11
1355.0001
 21
2024.3684
  0
LINE
  8
_1-2_仕上
  6
CONTINUOUS
 62
    3
 10
1355.0001
 20
2024.3684
 11
1355.0001
 21
2024.3684
  0
LINE
  8
_1-2_仕上
  6
CONTINUOUS
 62
    3
 10
745.0001
 20
2076.3684
 11
745.0001
 21
2076.3684
  0
LINE
  8
_1-2_仕上
  6
CONTINUOUS
 62
    3
 10
745.0001
 20
2076.3684
 11
743.92445
 21
2076.2696
  0
LINE
  8
_1-2_仕上
  6
CONTINUOUS
 62
    3
 10
743.92445
 20
2076.2696
 11
742.88148
 21
2075.9764
  0
LINE
  8
_1-2_仕上
  6
CONTINUOUS
 62
    3
 10
742.88148
 20
2075.9764
 11
741.90288
 21
2075.4976
  0
LINE
  8
_1-2_仕上
  6
CONTINUOUS
 62
    3
 10
741.90288
 20
2075.4976
 11
741.01839
 21
2074.8477
  0
LINE
  8
_1-2_仕上
  6
CONTINUOUS
 62
    3
 10
741.01839
 20
2074.8477
 11
740.25489
 21
2074.0465
  0
LINE
  8
_1-2_仕上
  6
CONTINUOUS
 62
    3
 10
740.25489
 20
2074.0465
 11
739.63556
 21
2073.1184
  0
LINE
  8
_1-2_仕上
  6
CONTINUOUS
 62
    3
 10
739.63556
 20
2073.1184
 11
739.17924
 21
2072.0916
  0
LINE
  8
_1-2_仕上
  6
CONTINUOUS
 62
    3
 10
739.17924
 20
2072.0916
 11
738.89977
 21
2070.9972
  0
LINE
  8
_1-2_仕上
  6
CONTINUOUS
 62
    3
 10
738.89977
 20
2070.9972
 11
738.80567
 21
2069.8685
  0
LINE
  8
_1-2_仕上
  6
CONTINUOUS
 62
    3
 10
738.80567
 20
2069.8685
 11
738.89977
 21
2068.7398
  0
LINE
  8
_1-2_仕上
  6
CONTINUOUS
 62
    3
 10
738.89977
 20
2068.7398
 11
739.17924
 21
2067.6454
  0
LINE
  8
_1-2_仕上
  6
CONTINUOUS
 62
    3
 10
739.17924
 20
2067.6454
 11
739.63556
 21
2066.6185
  0
LINE
  8
_1-2_仕上
  6
CONTINUOUS
 62
    3
 10
739.63556
 20
2066.6185
 11
740.25489
 21
2065.6904
  0
LINE
  8
_1-2_仕上
  6
CONTINUOUS
 62
    3
 10
740.25489
 20
2065.6904
 11
741.01839
 21
2064.8892
  0
LINE
  8
_1-2_仕上
  6
CONTINUOUS
 62
    3
 10
741.01839
 20
2064.8892
 11
741.90288
 21
2064.2394
  0
LINE
  8
_1-2_仕上
  6
CONTINUOUS
 62
    3
 10
741.90288
 20
2064.2394
 11
742.88148
 21
2063.7605
  0
LINE
  8
_1-2_仕上
  6
CONTINUOUS
 62
    3
 10
742.88148
 20
2063.7605
 11
743.92445
 21
2063.4673
  0
LINE
  8
_1-2_仕上
  6
CONTINUOUS
 62
    3
 10
743.92445
 20
2063.4673
 11
745.0001
 21
2063.3685
  0
LINE
  8
_1-2_仕上
  6
CONTINUOUS
 62
    3
 10
745.0001
 20
2063.3685
 11
745.0001
 21
2063.3685
  0
LINE
  8
_1-2_仕上
  6
CONTINUOUS
 62
    3
 10
745.0001
 20
2024.3684
 11
745.0001
 21
2024.3684
  0
LINE
  8
_1-2_仕上
  6
CONTINUOUS
 62
    3
 10
745.0001
 20
2024.3684
 11
743.92445
 21
2024.2697
  0
LINE
  8
_1-2_仕上
  6
CONTINUOUS
 62
    3
 10
743.92445
 20
2024.2697
 11
742.88148
 21
2023.9764
  0
LINE
  8
_1-2_仕上
  6
CONTINUOUS
 62
    3
 10
742.88148
 20
2023.9764
 11
741.90288
 21
2023.4976
  0
LINE
  8
_1-2_仕上
  6
CONTINUOUS
 62
    3
 10
741.90288
 20
2023.4976
 11
741.01839
 21
2022.8477
  0
LINE
  8
_1-2_仕上
  6
CONTINUOUS
 62
    3
 10
741.01839
 20
2022.8477
 11
740.25489
 21
2022.0466
  0
LINE
  8
_1-2_仕上
  6
CONTINUOUS
 62
    3
 10
740.25489
 20
2022.0466
 11
739.63556
 21
2021.1185
  0
LINE
  8
_1-2_仕上
  6
CONTINUOUS
 62
    3
 10
739.63556
 20
2021.1185
 11
739.17924
 21
2020.0916
  0
LINE
  8
_1-2_仕上
  6
CONTINUOUS
 62
    3
 10
739.17924
 20
2020.0916
 11
738.89977
 21
2018.9972
  0
LINE
  8
_1-2_仕上
  6
CONTINUOUS
 62
    3
 10
738.89977
 20
2018.9972
 11
738.80567
 21
2017.8685
  0
LINE
  8
_1-2_仕上
  6
CONTINUOUS
 62
    3
 10
738.80567
 20
2017.8685
 11
738.89977
 21
2016.7398
  0
LINE
  8
_1-2_仕上
  6
CONTINUOUS
 62
    3
 10
738.89977
 20
2016.7398
 11
739.17924
 21
2015.6454
  0
LINE
  8
_1-2_仕上
  6
CONTINUOUS
 62
    3
 10
739.17924
 20
2015.6454
 11
739.63556
 21
2014.6185
  0
LINE
  8
_1-2_仕上
  6
CONTINUOUS
 62
    3
 10
739.63556
 20
2014.6185
 11
740.25489
 21
2013.6904
  0
LINE
  8
_1-2_仕上
  6
CONTINUOUS
 62
    3
 10
740.25489
 20
2013.6904
 11
741.01839
 21
2012.8892
  0
LINE
  8
_1-2_仕上
  6
CONTINUOUS
 62
    3
 10
741.01839
 20
2012.8892
 11
741.90288
 21
2012.2394
  0
LINE
  8
_1-2_仕上
  6
CONTINUOUS
 62
    3
 10
741.90288
 20
2012.2394
 11
742.88148
 21
2011.7605
  0
LINE
  8
_1-2_仕上
  6
CONTINUOUS
 62
    3
 10
742.88148
 20
2011.7605
 11
743.92445
 21
2011.4673
  0
LINE
  8
_1-2_仕上
  6
CONTINUOUS
 62
    3
 10
743.92445
 20
2011.4673
 11
745.0001
 21
2011.3686
  0
LINE
  8
_1-2_仕上
  6
CONTINUOUS
 62
    3
 10
745.0001
 20
2011.3686
 11
745.0001
 21
2011.3686
  0
ARC
  8
_1-2_仕上
  6
CONTINUOUS
 62
    3
 10
1059.5198
 20
2155.0004
 40
5.960415
 50
270
 51
0
  0
ARC
  8
_1-2_仕上
  6
CONTINUOUS
 62
    3
 10
1059.5198
 20
2234.6602
 40
5.960415
 50
0
 51
90
  0
ARC
  8
_1-2_仕上
  6
CONTINUOUS
 62
    3
 10
1119.84
 20
2047.3913
 40
11.67452
 50
270
 51
0
  0
ARC
  8
_1-2_仕上
  6
CONTINUOUS
 62
    3
 10
1114.0029
 20
2031.057
 40
5.83726
 50
270
 51
0
  0
ARC
  8
_1-2_仕上
  6
CONTINUOUS
 62
    3
 10
1355.0001
 20
2292.9849
 40
5.9804098
 50
270
 51
90
  0
TEXT
  8
_1-d_
 62
    7
 10
254.99978
 20
157.4999
 40
25
 41
1
 50
0
  1
図
  0
TEXT
  8
_1-d_
 62
    7
 10
254.99978
 20
97.499965
 40
25
 41
1
 50
0
  1
番
  0
TEXT
  8
_1-d_
 62
    7
 10
655.00043
 20
157.4999
 40
25
 41
1
 50
0
  1
承
  0
TEXT
  8
_1-d_
 62
    7
 10
655.00043
 20
97.499965
 40
25
 41
1
 50
0
  1
認
  0
TEXT
  8
_1-d_
 62
    7
 10
1020.0002
 20
237.49994
 40
25
 41
1
 50
0
  1
尺
  0
TEXT
  8
_1-d_
 62
    7
 10
1020.0002
 20
197.49978
 40
25
 41
1
 50
0.0000708
  1
度
  0
TEXT
  8
_1-d_
 62
    7
 10
855.0001
 20
157.4999
 40
25
 41
1
 50
0
  1
製
  0
TEXT
  8
_1-d_
 62
    7
 10
855.0001
 20
97.499965
 40
25
 41
1
 50
0
  1
図
  0
TEXT
  8
_1-d_
 62
    7
 10
1555
 20
237.49994
 40
25
 41
1
 50
0
  1
日
  0
TEXT
  8
_1-d_
 62
    7
 10
1555
 20
197.49978
 40
25
 41
1
 50
0.0000708
  1
付
  0
TEXT
  8
_1-d_
 62
    7
 10
1111.4263
 20
163.48225
 40
20
 41
1
 50
0
  1
株式
  0
TEXT
  8
_1-d_
 62
    7
 10
1111.4263
 20
141.8518
 40
20
 41
1
 50
0.0000196
  1
会社
  0
TEXT
  8
_1-d_
 62
    3
 10
1174.2246
 20
143.24711
 40
40
 41
1
 50
0
  1
スズキベンチレーター
  0
TEXT
  8
_1-d_
 62
    7
 10
1237.9181
 20
94.024178
 40
20
 41
1
 50
0
  1
TEL(054)296-7000  FAX(054)296-7001
  0
TEXT
  8
_1-d_
 62
    3
 10
1084.3489
 20
210.10065
 40
40
 41
1
 50
0.000005
  1
１／１５
  0
TEXT
  8
_1-8_
 62
    3
 10
1003.8496
 20
1896.9922
 40
30
 41
1
 50
0
  1
915φ
  0
TEXT
  8
_1-8_
 62
    3
 10
280.08888
 20
2196.1172
 40
30
 41
1
 50
90
  1
780
  0
TEXT
  8
_1-8_
 62
    3
 10
1002.2974
 20
2674.4597
 40
30
 41
1
 50
0
  1
1,400
  0
TEXT
  8
_1-d_
 62
    7
 10
1235.6793
 20
118.64592
 40
20
 41
1
 50
0
  1
〒421-2114　静岡市葵区安倍口新田１５２番地
  0
TEXT
  8
_1-d_
 62
    3
 10
308.45925
 20
140.30213
 40
30
 41
1
 50
0
  1
90L-04a
  0
TEXT
  8
_1-d_
 62
    3
 10
269.15527
 20
2786.1122
 40
50
 41
1
 50
0
  1
ＳＴ－９０Ｌ　直付型（低騒音）網付　断面
  0
TEXT
  8
_1-d_
 62
    3
 10
265.86813
 20
212.66461
 40
30
 41
1
 50
0
  1
ＳＴ－９０Ｌ　直付型（低騒音）網付　断面
  0
POINT
  8
_1-8_
 62
    2
 10
325.51673
 20
1981.0346
  0
POINT
  8
_1-8_
 62
    2
 10
325.51673
 20
2501.0348
  0
POINT
  8
_1-8_
 62
    2
 10
583.3348
 20
2660.5286
  0
POINT
  8
_1-8_
 62
    2
 10
1516.6664
 20
2660.5286
  0
POINT
  8
_1-8_
 62
    2
 10
745.0001
 20
1859.8242
  0
POINT
  8
_1-8_
 62
    2
 10
1355.0001
 20
1859.8242
  0
ENDSEC
  0
EOF
