  0
SECTION
  2
HEADER
  9
$ACADVER
  1
AC1009
  9
$INSBASE
 10
0
 20
0
 30
0
  9
$EXTMIN
 10
0
 20
0
  9
$EXTMAX
 10
4200
 20
2970
  9
$LIMMIN
 10
0
 20
0
  9
$LIMMAX
 10
4200
 20
2970
  9
$LTSCALE
 40
10
  0
ENDSEC
  0
SECTION
  2
TABLES
  0
TABLE
  2
LTYPE
 70
     9
  0
LTYPE
  2
CONTINUOUS
 70
    64
  3
実線
 72
    65
 73
     0
 40
0.0
  0
LTYPE
  2
DASHED1
 70
    64
  3
--  --  --  --  --  --  --  --  
 72
    65
 73
     2
 40
2.5
 49
1.25
 49
-1.25
  0
LTYPE
  2
DASHED2
 70
    64
  3
----    ----    ----    ----    
 72
    65
 73
     2
 40
5.0
 49
2.5
 49
-2.5
  0
LTYPE
  2
DASHED3
 70
    64
  3
------  ------  ------  ------  
 72
    65
 73
     2
 40
5.0
 49
3.75
 49
-1.25
  0
LTYPE
  2
CENTER1
 70
    64
  3
----- - ----- - ----- - ----- - 
 72
    65
 73
     4
 40
10.0
 49
6.25
 49
-1.25
 49
1.25
 49
-1.25
  0
LTYPE
  2
CENTER2
 70
    64
  3
----------  --  ----------  --  
 72
    65
 73
     4
 40
20.0
 49
12.5
 49
-2.5
 49
2.5
 49
-2.5
  0
LTYPE
  2
PHANTOM1
 70
    64
  3
--- - - --- - - --- - - --- - - 
 72
    65
 73
     6
 40
10.0
 49
3.25
 49
-1.25
 49
1.25
 49
-1.25
 49
1.25
 49
-1.25
  0
LTYPE
  2
PHANTOM2
 70
    64
  3
--------  -  -  --------  -  -  
 72
    65
 73
     6
 40
20.0
 49
10.0
 49
-2.5
 49
1.25
 49
-2.5
 49
1.25
 49
-2.5
  0
LTYPE
  2
DOT
 70
    64
  3
-   -   -   -   -   -   -   -   
 72
    65
 73
     2
 40
2.5
 49
0.625
 49
-1.875
  0
LTYPE
  2
DUMMY
 70
    64
  3
ダミー
 72
    65
 73
     0
 40
0.0
  0
LTYPE
  2
RAND1
 70
    64
  3
----- - ----- - ----- - ----- - 
 72
    65
 73
     4
 40
10.0
 49
6.25
 49
-1.25
 49
1.25
 49
-1.25
  0
LTYPE
  2
RAND2
 70
    64
  3
----------  --  ----------  --  
 72
    65
 73
     4
 40
20.0
 49
12.5
 49
-2.5
 49
2.5
 49
-2.5
  0
LTYPE
  2
RAND3
 70
    64
  3
--- - - --- - - --- - - --- - - 
 72
    65
 73
     6
 40
10.0
 49
3.25
 49
-1.25
 49
1.25
 49
-1.25
 49
1.25
 49
-1.25
  0
LTYPE
  2
RAND4
 70
    64
  3
--------  -  -  --------  -  -  
 72
    65
 73
     6
 40
20.0
 49
10.0
 49
-2.5
 49
1.25
 49
-2.5
 49
1.25
 49
-2.5
  0
LTYPE
  2
RAND5
 70
    64
  3
----- - ----- - ----- - ----- - 
 72
    65
 73
     4
 40
10.0
 49
6.25
 49
-1.25
 49
1.25
 49
-1.25
  0
LTYPE
  2
LONG1
 70
    64
  3
----------  --  ----------  --  
 72
    65
 73
     4
 40
20.0
 49
12.5
 49
-2.5
 49
2.5
 49
-2.5
  0
LTYPE
  2
LONG2
 70
    64
  3
--- - - --- - - --- - - --- - - 
 72
    65
 73
     6
 40
10.0
 49
3.25
 49
-1.25
 49
1.25
 49
-1.25
 49
1.25
 49
-1.25
  0
LTYPE
  2
LONG3
 70
    64
  3
--------  -  -  --------  -  -  
 72
    65
 73
     6
 40
20.0
 49
10.0
 49
-2.5
 49
1.25
 49
-2.5
 49
1.25
 49
-2.5
  0
LTYPE
  2
LONG4
 70
    64
  3
----- - ----- - ----- - ----- - 
 72
    65
 73
     4
 40
10.0
 49
6.25
 49
-1.25
 49
1.25
 49
-1.25
  0
LTYPE
  2
LONG5
 70
    64
  3
----------  --  ----------  --  
 72
    65
 73
     4
 40
20.0
 49
12.5
 49
-2.5
 49
2.5
 49
-2.5
  0
ENDTAB
  0
TABLE
  2
STYLE
  5
3
100
AcDbSymbolTable
 70
     1
  0
STYLE
  5
10
100
AcDbSymbolTableRecord
100
AcDbTextStyleTableRecord
  2
STANDARD
 70
     0
 40
0.0
 41
1.0
 50
0.0
 71
     0
 42
0.2
  3
txt
  4
bigfont.shx
  0
STYLE
  5
26
100
AcDbSymbolTableRecord
100
AcDbTextStyleTableRecord
  2
TATEGAKI
 70
    68
 40
0.0
 41
1.0
 50
0.0
 71
     0
 42
1.0
  3
txt
  4
bigfont.shx
  0
ENDTAB
  0
TABLE
  2
LAYER
 70
    6
  0
LAYER
  2
_1-1_1-1___
 70
   64
 62
    7
  6
CONTINUOUS
  0
LAYER
  2
_1-2_仕上
 70
   64
 62
    7
  6
CONTINUOUS
  0
LAYER
  2
_1-4_
 70
   64
 62
    7
  6
CONTINUOUS
  0
LAYER
  2
_1-8_
 70
   64
 62
    7
  6
CONTINUOUS
  0
LAYER
  2
_1-d_
 70
   64
 62
    7
  6
CONTINUOUS
  0
LAYER
  2
ADD_LINE
 70
   64
 62
    7
  6
CONTINUOUS
  0
ENDTAB
  0
ENDSEC
  0
SECTION
  2
BLOCKS
  0
ENDSEC
  0
SECTION
  2
ENTITIES
  0
LINE
  8
_1-d_
  6
CONTINUOUS
 62
    7
 10
250.00005
 20
2757.7012
 11
1850
 21
2757.7012
  0
LINE
  8
_1-d_
  6
CONTINUOUS
 62
    7
 10
250.00005
 20
2767.7015
 11
1850
 21
2767.7015
  0
LINE
  8
_1-d_
  6
CONTINUOUS
 62
    7
 10
249.99968
 20
189.99988
 11
1850.0004
 21
189.99988
  0
LINE
  8
_1-d_
  6
CONTINUOUS
 62
    7
 10
249.99968
 20
89.999802
 11
249.99968
 21
269.9999
  0
LINE
  8
_1-d_
  6
CONTINUOUS
 62
    7
 10
249.99968
 20
89.999802
 11
1850.0004
 21
89.999802
  0
LINE
  8
_1-d_
  6
CONTINUOUS
 62
    7
 10
1850.0004
 20
269.9999
 11
1850.0004
 21
89.999802
  0
LINE
  8
_1-d_
  6
CONTINUOUS
 62
    7
 10
249.99968
 20
269.9999
 11
1850.0004
 21
269.9999
  0
LINE
  8
_1-d_
  6
CONTINUOUS
 62
    7
 10
1050
 20
269.9999
 11
1050
 21
89.999802
  0
LINE
  8
_1-d_
  6
CONTINUOUS
 62
    7
 10
650.00016
 20
89.999802
 11
650.00016
 21
189.99988
  0
LINE
  8
_1-d_
  6
CONTINUOUS
 62
    7
 10
1050
 20
189.99988
 11
1050
 21
269.9999
  0
LINE
  8
_1-d_
  6
CONTINUOUS
 62
    7
 10
849.99977
 20
89.999802
 11
849.99977
 21
189.99988
  0
LINE
  8
_1-d_
  6
CONTINUOUS
 62
    7
 10
285.00001
 20
89.999802
 11
285.00001
 21
189.99988
  0
LINE
  8
_1-d_
  6
CONTINUOUS
 62
    7
 10
685.00003
 20
89.999802
 11
685.00003
 21
189.99988
  0
LINE
  8
_1-d_
  6
CONTINUOUS
 62
    7
 10
885.00013
 20
89.999802
 11
885.00013
 21
189.99988
  0
LINE
  8
_1-d_
  6
CONTINUOUS
 62
    7
 10
1015
 20
189.99988
 11
1015
 21
269.9999
  0
LINE
  8
_1-d_
  6
CONTINUOUS
 62
    7
 10
1550.0004
 20
189.99988
 11
1550.0004
 21
269.9999
  0
LINE
  8
_1-d_
  6
CONTINUOUS
 62
    7
 10
1585.0001
 20
189.99988
 11
1585.0001
 21
269.9999
  0
LINE
  8
_1-8_
  6
CONTINUOUS
 62
    7
 10
583.33362
 20
1840.0426
 11
583.33362
 21
2300.0427
  0
LINE
  8
_1-8_
  6
CONTINUOUS
 62
    7
 10
672.6667
 20
2403.063
 11
1427.3343
 21
2403.0625
  0
LINE
  8
_1-2_仕上
  6
CONTINUOUS
 62
    3
 10
1068.2561
 20
2068.0735
 11
1073.0607
 21
2071.0262
  0
LINE
  8
_1-2_仕上
  6
CONTINUOUS
 62
    3
 10
1073.0607
 20
2071.0262
 11
1077.8426
 21
2074.0383
  0
LINE
  8
_1-2_仕上
  6
CONTINUOUS
 62
    3
 10
1077.8426
 20
2074.0383
 11
1082.5794
 21
2077.1625
  0
LINE
  8
_1-2_仕上
  6
CONTINUOUS
 62
    3
 10
1082.5794
 20
2077.1625
 11
1087.2181
 21
2080.4606
  0
LINE
  8
_1-2_仕上
  6
CONTINUOUS
 62
    3
 10
1087.2181
 20
2080.4606
 11
1091.6743
 21
2083.9988
  0
LINE
  8
_1-2_仕上
  6
CONTINUOUS
 62
    3
 10
1091.6743
 20
2083.9988
 11
1095.8543
 21
2087.8351
  0
LINE
  8
_1-2_仕上
  6
CONTINUOUS
 62
    3
 10
1095.8543
 20
2087.8351
 11
1099.6669
 21
2092.0376
  0
LINE
  8
_1-2_仕上
  6
CONTINUOUS
 62
    3
 10
1099.6669
 20
2092.0376
 11
1103.0209
 21
2096.6652
  0
LINE
  8
_1-2_仕上
  6
CONTINUOUS
 62
    3
 10
1103.0209
 20
2096.6652
 11
1105.9458
 21
2101.6712
  0
LINE
  8
_1-2_仕上
  6
CONTINUOUS
 62
    3
 10
1105.9458
 20
2101.6712
 11
1108.7097
 21
2106.783
  0
LINE
  8
_1-2_仕上
  6
CONTINUOUS
 62
    3
 10
1108.7097
 20
2106.783
 11
1111.593
 21
2111.7123
  0
LINE
  8
_1-2_仕上
  6
CONTINUOUS
 62
    3
 10
1111.593
 20
2111.7123
 11
1114.8918
 21
2116.1706
  0
LINE
  8
_1-2_仕上
  6
CONTINUOUS
 62
    3
 10
1114.8918
 20
2116.1706
 11
1118.8846
 21
2119.8669
  0
LINE
  8
_1-2_仕上
  6
CONTINUOUS
 62
    3
 10
1118.8846
 20
2119.8669
 11
1123.6601
 21
2122.7248
  0
LINE
  8
_1-2_仕上
  6
CONTINUOUS
 62
    3
 10
1123.6601
 20
2122.7248
 11
1128.9268
 21
2125.0599
  0
LINE
  8
_1-2_仕上
  6
CONTINUOUS
 62
    3
 10
1128.9268
 20
2125.0599
 11
1131.4203
 21
2126.0561
  0
LINE
  8
_1-2_仕上
  6
CONTINUOUS
 62
    3
 10
1128.9268
 20
2125.0599
 11
1132.3952
 21
2125.6112
  0
LINE
  8
_1-2_仕上
  6
CONTINUOUS
 62
    3
 10
1132.3952
 20
2125.6112
 11
1135.8947
 21
2126.0905
  0
LINE
  8
_1-2_仕上
  6
CONTINUOUS
 62
    3
 10
1135.8947
 20
2126.0905
 11
1139.4519
 21
2126.4339
  0
LINE
  8
_1-2_仕上
  6
CONTINUOUS
 62
    3
 10
1139.4519
 20
2126.4339
 11
1143.0965
 21
2126.5639
  0
LINE
  8
_1-2_仕上
  6
CONTINUOUS
 62
    3
 10
1143.0965
 20
2126.5639
 11
1146.8521
 21
2126.4164
  0
LINE
  8
_1-2_仕上
  6
CONTINUOUS
 62
    3
 10
1146.8521
 20
2126.4164
 11
1150.6097
 21
2125.869
  0
LINE
  8
_1-2_仕上
  6
CONTINUOUS
 62
    3
 10
1150.6097
 20
2125.869
 11
1154.1155
 21
2124.7712
  0
LINE
  8
_1-2_仕上
  6
CONTINUOUS
 62
    3
 10
1154.1155
 20
2124.7712
 11
1157.1033
 21
2122.9512
  0
LINE
  8
_1-2_仕上
  6
CONTINUOUS
 62
    3
 10
1157.1033
 20
2122.9512
 11
1159.3587
 21
2120.2913
  0
LINE
  8
_1-2_仕上
  6
CONTINUOUS
 62
    3
 10
1159.3587
 20
2120.2913
 11
1161.117
 21
2117.0978
  0
LINE
  8
_1-2_仕上
  6
CONTINUOUS
 62
    3
 10
1066.3698
 20
2054.8756
 11
1072.0001
 21
2055.7117
  0
LINE
  8
_1-2_仕上
  6
CONTINUOUS
 62
    3
 10
1072.0001
 20
2055.7117
 11
1077.5958
 21
2056.6576
  0
LINE
  8
_1-2_仕上
  6
CONTINUOUS
 62
    3
 10
1077.5958
 20
2056.6576
 11
1083.1299
 21
2057.8137
  0
LINE
  8
_1-2_仕上
  6
CONTINUOUS
 62
    3
 10
1083.1299
 20
2057.8137
 11
1088.5647
 21
2059.2926
  0
LINE
  8
_1-2_仕上
  6
CONTINUOUS
 62
    3
 10
1088.5647
 20
2059.2926
 11
1093.8719
 21
2061.1967
  0
LINE
  8
_1-2_仕上
  6
CONTINUOUS
 62
    3
 10
1093.8719
 20
2061.1967
 11
1099.0217
 21
2063.5516
  0
LINE
  8
_1-2_仕上
  6
CONTINUOUS
 62
    3
 10
1099.0217
 20
2063.5516
 11
1103.9922
 21
2066.3123
  0
LINE
  8
_1-2_仕上
  6
CONTINUOUS
 62
    3
 10
1103.9922
 20
2066.3123
 11
1108.756
 21
2069.4466
  0
LINE
  8
_1-2_仕上
  6
CONTINUOUS
 62
    3
 10
1108.756
 20
2069.4466
 11
1113.2909
 21
2072.8989
  0
LINE
  8
_1-2_仕上
  6
CONTINUOUS
 62
    3
 10
1113.2909
 20
2072.8989
 11
1117.5745
 21
2076.6359
  0
LINE
  8
_1-2_仕上
  6
CONTINUOUS
 62
    3
 10
1117.5745
 20
2076.6359
 11
1121.6405
 21
2080.5895
  0
LINE
  8
_1-2_仕上
  6
CONTINUOUS
 62
    3
 10
1121.6405
 20
2080.5895
 11
1125.5701
 21
2084.6706
  0
LINE
  8
_1-2_仕上
  6
CONTINUOUS
 62
    3
 10
1125.5701
 20
2084.6706
 11
1129.4499
 21
2088.7882
  0
LINE
  8
_1-2_仕上
  6
CONTINUOUS
 62
    3
 10
1129.4499
 20
2088.7882
 11
1133.3622
 21
2092.8517
  0
LINE
  8
_1-2_仕上
  6
CONTINUOUS
 62
    3
 10
1133.3622
 20
2092.8517
 11
1137.3962
 21
2096.7721
  0
LINE
  8
_1-2_仕上
  6
CONTINUOUS
 62
    3
 10
1137.3962
 20
2096.7721
 11
1141.6291
 21
2100.4718
  0
LINE
  8
_1-2_仕上
  6
CONTINUOUS
 62
    3
 10
1141.6291
 20
2100.4718
 11
1146.0553
 21
2103.9479
  0
LINE
  8
_1-2_仕上
  6
CONTINUOUS
 62
    3
 10
1146.0553
 20
2103.9479
 11
1150.6392
 21
2107.2534
  0
LINE
  8
_1-2_仕上
  6
CONTINUOUS
 62
    3
 10
1150.6392
 20
2107.2534
 11
1155.3324
 21
2110.4303
  0
LINE
  8
_1-2_仕上
  6
CONTINUOUS
 62
    3
 10
1155.3324
 20
2110.4303
 11
1160.0995
 21
2113.5275
  0
LINE
  8
_1-2_仕上
  6
CONTINUOUS
 62
    3
 10
1160.0995
 20
2113.5275
 11
1163.4744
 21
2115.6842
  0
LINE
  8
_1-2_仕上
  6
CONTINUOUS
 62
    3
 10
1163.4744
 20
2115.6842
 11
1168.7406
 21
2117.8688
  0
LINE
  8
_1-2_仕上
  6
CONTINUOUS
 62
    3
 10
1168.7406
 20
2117.8688
 11
1174.0368
 21
2119.9082
  0
LINE
  8
_1-2_仕上
  6
CONTINUOUS
 62
    3
 10
1174.0368
 20
2119.9082
 11
1179.396
 21
2121.6589
  0
LINE
  8
_1-2_仕上
  6
CONTINUOUS
 62
    3
 10
1179.396
 20
2121.6589
 11
1184.8487
 21
2122.9782
  0
LINE
  8
_1-2_仕上
  6
CONTINUOUS
 62
    3
 10
1184.8487
 20
2122.9782
 11
1190.4084
 21
2123.7866
  0
LINE
  8
_1-2_仕上
  6
CONTINUOUS
 62
    3
 10
1190.4084
 20
2123.7866
 11
1196.0481
 21
2124.1414
  0
LINE
  8
_1-2_仕上
  6
CONTINUOUS
 62
    3
 10
1196.0481
 20
2124.1414
 11
1201.735
 21
2124.1206
  0
LINE
  8
_1-2_仕上
  6
CONTINUOUS
 62
    3
 10
1201.735
 20
2124.1206
 11
1207.4387
 21
2123.8004
  0
LINE
  8
_1-2_仕上
  6
CONTINUOUS
 62
    3
 10
1207.4387
 20
2123.8004
 11
1213.1323
 21
2123.2603
  0
LINE
  8
_1-2_仕上
  6
CONTINUOUS
 62
    3
 10
1213.1323
 20
2123.2603
 11
1218.782
 21
2122.5655
  0
LINE
  8
_1-2_仕上
  6
CONTINUOUS
 62
    3
 10
1218.782
 20
2122.5655
 11
1224.3824
 21
2121.7014
  0
LINE
  8
_1-2_仕上
  6
CONTINUOUS
 62
    3
 10
1224.3824
 20
2121.7014
 11
1229.9346
 21
2120.6493
  0
LINE
  8
_1-2_仕上
  6
CONTINUOUS
 62
    3
 10
1229.9346
 20
2120.6493
 11
1235.4311
 21
2119.3733
  0
LINE
  8
_1-2_仕上
  6
CONTINUOUS
 62
    3
 10
1235.4311
 20
2119.3733
 11
1240.8749
 21
2117.851
  0
LINE
  8
_1-2_仕上
  6
CONTINUOUS
 62
    3
 10
1240.8749
 20
2117.851
 11
1246.2636
 21
2116.0491
  0
LINE
  8
_1-2_仕上
  6
CONTINUOUS
 62
    3
 10
1246.2636
 20
2116.0491
 11
1251.5761
 21
2113.9415
  0
LINE
  8
_1-2_仕上
  6
CONTINUOUS
 62
    3
 10
1251.5761
 20
2113.9415
 11
1256.762
 21
2111.5052
  0
LINE
  8
_1-2_仕上
  6
CONTINUOUS
 62
    3
 10
1256.762
 20
2111.5052
 11
1261.7463
 21
2108.7244
  0
LINE
  8
_1-2_仕上
  6
CONTINUOUS
 62
    3
 10
1261.7463
 20
2108.7244
 11
1266.464
 21
2105.574
  0
LINE
  8
_1-2_仕上
  6
CONTINUOUS
 62
    3
 10
1266.464
 20
2105.574
 11
1270.8467
 21
2102.0304
  0
LINE
  8
_1-2_仕上
  6
CONTINUOUS
 62
    3
 10
1270.8467
 20
2102.0304
 11
1274.8335
 21
2098.0835
  0
LINE
  8
_1-2_仕上
  6
CONTINUOUS
 62
    3
 10
1274.8335
 20
2098.0835
 11
1278.476
 21
2093.7909
  0
LINE
  8
_1-2_仕上
  6
CONTINUOUS
 62
    3
 10
1278.476
 20
2093.7909
 11
1281.8649
 21
2089.2479
  0
LINE
  8
_1-2_仕上
  6
CONTINUOUS
 62
    3
 10
1281.8649
 20
2089.2479
 11
1285.0962
 21
2084.551
  0
LINE
  8
_1-2_仕上
  6
CONTINUOUS
 62
    3
 10
1285.0962
 20
2084.551
 11
1286.9739
 21
2081.7456
  0
LINE
  8
_1-2_仕上
  6
CONTINUOUS
 62
    3
 10
1285.0962
 20
2084.551
 11
1287.6226
 21
2079.3192
  0
LINE
  8
_1-2_仕上
  6
CONTINUOUS
 62
    3
 10
1287.6226
 20
2079.3192
 11
1290.0148
 21
2074.0638
  0
LINE
  8
_1-2_仕上
  6
CONTINUOUS
 62
    3
 10
1290.0148
 20
2074.0638
 11
1292.1428
 21
2068.7718
  0
LINE
  8
_1-2_仕上
  6
CONTINUOUS
 62
    3
 10
1292.1428
 20
2068.7718
 11
1293.8714
 21
2063.414
  0
LINE
  8
_1-2_仕上
  6
CONTINUOUS
 62
    3
 10
1293.8714
 20
2063.414
 11
1295.0691
 21
2057.976
  0
LINE
  8
_1-2_仕上
  6
CONTINUOUS
 62
    3
 10
1295.0691
 20
2057.976
 11
1295.6075
 21
2052.4358
  0
LINE
  8
_1-2_仕上
  6
CONTINUOUS
 62
    3
 10
1295.6075
 20
2052.4358
 11
1295.4531
 21
2046.816
  0
LINE
  8
_1-2_仕上
  6
CONTINUOUS
 62
    3
 10
1295.4531
 20
2046.816
 11
1294.6996
 21
2041.1714
  0
LINE
  8
_1-2_仕上
  6
CONTINUOUS
 62
    3
 10
1294.6996
 20
2041.1714
 11
1293.4446
 21
2035.5674
  0
LINE
  8
_1-2_仕上
  6
CONTINUOUS
 62
    3
 10
1293.4446
 20
2035.5674
 11
1291.7739
 21
2030.0683
  0
LINE
  8
_1-2_仕上
  6
CONTINUOUS
 62
    3
 10
1291.7739
 20
2030.0683
 11
1289.7154
 21
2024.7498
  0
LINE
  8
_1-2_仕上
  6
CONTINUOUS
 62
    3
 10
1289.7154
 20
2024.7498
 11
1287.2136
 21
2019.6867
  0
LINE
  8
_1-2_仕上
  6
CONTINUOUS
 62
    3
 10
1287.2136
 20
2019.6867
 11
1284.2081
 21
2014.9581
  0
LINE
  8
_1-2_仕上
  6
CONTINUOUS
 62
    3
 10
1284.2081
 20
2014.9581
 11
1280.7058
 21
2010.5913
  0
LINE
  8
_1-2_仕上
  6
CONTINUOUS
 62
    3
 10
1280.7058
 20
2010.5913
 11
1276.8126
 21
2006.5058
  0
LINE
  8
_1-2_仕上
  6
CONTINUOUS
 62
    3
 10
1276.8126
 20
2006.5058
 11
1272.6511
 21
2002.6168
  0
LINE
  8
_1-2_仕上
  6
CONTINUOUS
 62
    3
 10
1272.6511
 20
2002.6168
 11
1268.3378
 21
1998.8409
  0
LINE
  8
_1-2_仕上
  6
CONTINUOUS
 62
    3
 10
1268.3378
 20
1998.8409
 11
1267.1749
 21
1997.8414
  0
LINE
  8
_1-2_仕上
  6
CONTINUOUS
 62
    3
 10
1268.3378
 20
1998.8409
 11
1263.3875
 21
1996.0656
  0
LINE
  8
_1-2_仕上
  6
CONTINUOUS
 62
    3
 10
1263.3875
 20
1996.0656
 11
1258.4183
 21
1993.3413
  0
LINE
  8
_1-2_仕上
  6
CONTINUOUS
 62
    3
 10
1258.4183
 20
1993.3413
 11
1253.4077
 21
1990.7164
  0
LINE
  8
_1-2_仕上
  6
CONTINUOUS
 62
    3
 10
1253.4077
 20
1990.7164
 11
1248.3287
 21
1988.2405
  0
LINE
  8
_1-2_仕上
  6
CONTINUOUS
 62
    3
 10
1248.3287
 20
1988.2405
 11
1243.1682
 21
1985.9621
  0
LINE
  8
_1-2_仕上
  6
CONTINUOUS
 62
    3
 10
1243.1682
 20
1985.9621
 11
1237.8976
 21
1983.9304
  0
LINE
  8
_1-2_仕上
  6
CONTINUOUS
 62
    3
 10
1237.8976
 20
1983.9304
 11
1232.5158
 21
1982.1746
  0
LINE
  8
_1-2_仕上
  6
CONTINUOUS
 62
    3
 10
1232.5158
 20
1982.1746
 11
1227.0449
 21
1980.7008
  0
LINE
  8
_1-2_仕上
  6
CONTINUOUS
 62
    3
 10
1227.0449
 20
1980.7008
 11
1221.5057
 21
1979.5071
  0
LINE
  8
_1-2_仕上
  6
CONTINUOUS
 62
    3
 10
1221.5057
 20
1979.5071
 11
1215.9158
 21
1978.5938
  0
LINE
  8
_1-2_仕上
  6
CONTINUOUS
 62
    3
 10
1215.9158
 20
1978.5938
 11
1210.3014
 21
1977.955
  0
LINE
  8
_1-2_仕上
  6
CONTINUOUS
 62
    3
 10
1210.3014
 20
1977.955
 11
1204.6685
 21
1977.5415
  0
LINE
  8
_1-2_仕上
  6
CONTINUOUS
 62
    3
 10
1204.6685
 20
1977.5415
 11
1199.0211
 21
1977.3002
  0
LINE
  8
_1-2_仕上
  6
CONTINUOUS
 62
    3
 10
1199.0211
 20
1977.3002
 11
1193.361
 21
1977.1693
  0
LINE
  8
_1-2_仕上
  6
CONTINUOUS
 62
    3
 10
1193.361
 20
1977.1693
 11
1188.4549
 21
1977.1003
  0
LINE
  8
_1-2_仕上
  6
CONTINUOUS
 62
    3
 10
1125.2123
 20
1976.5804
 11
1130.5059
 21
1974.4378
  0
LINE
  8
_1-2_仕上
  6
CONTINUOUS
 62
    3
 10
1130.5059
 20
1974.4378
 11
1135.8304
 21
1972.3198
  0
LINE
  8
_1-2_仕上
  6
CONTINUOUS
 62
    3
 10
1135.8304
 20
1972.3198
 11
1141.2048
 21
1970.368
  0
LINE
  8
_1-2_仕上
  6
CONTINUOUS
 62
    3
 10
1141.2048
 20
1970.368
 11
1146.6306
 21
1968.7405
  0
LINE
  8
_1-2_仕上
  6
CONTINUOUS
 62
    3
 10
1146.6306
 20
1968.7405
 11
1152.1231
 21
1967.5927
  0
LINE
  8
_1-2_仕上
  6
CONTINUOUS
 62
    3
 10
1152.1231
 20
1967.5927
 11
1157.6934
 21
1967.0787
  0
LINE
  8
_1-2_仕上
  6
CONTINUOUS
 62
    3
 10
1157.6934
 20
1967.0787
 11
1163.3289
 21
1967.1592
  0
LINE
  8
_1-2_仕上
  6
CONTINUOUS
 62
    3
 10
1163.3289
 20
1967.1592
 11
1169.0054
 21
1967.5778
  0
LINE
  8
_1-2_仕上
  6
CONTINUOUS
 62
    3
 10
1169.0054
 20
1967.5778
 11
1170.0719
 21
1967.6719
  0
LINE
  8
_1-2_仕上
  6
CONTINUOUS
 62
    3
 10
1169.0054
 20
1967.5778
 11
1173.6469
 21
1968.6131
  0
LINE
  8
_1-2_仕上
  6
CONTINUOUS
 62
    3
 10
1173.6469
 20
1968.6131
 11
1178.1019
 21
1970.0453
  0
LINE
  8
_1-2_仕上
  6
CONTINUOUS
 62
    3
 10
1178.1019
 20
1970.0453
 11
1182.1895
 21
1972.2757
  0
LINE
  8
_1-2_仕上
  6
CONTINUOUS
 62
    3
 10
1182.1895
 20
1972.2757
 11
1185.6742
 21
1975.4756
  0
LINE
  8
_1-2_仕上
  6
CONTINUOUS
 62
    3
 10
1185.6742
 20
1975.4756
 11
1188.2579
 21
1979.4864
  0
LINE
  8
_1-2_仕上
  6
CONTINUOUS
 62
    3
 10
1188.2579
 20
1979.4864
 11
1189.6653
 21
1984.0727
  0
LINE
  8
_1-2_仕上
  6
CONTINUOUS
 62
    3
 10
1189.6653
 20
1984.0727
 11
1189.7691
 21
1988.8158
  0
LINE
  8
_1-2_仕上
  6
CONTINUOUS
 62
    3
 10
1189.7691
 20
1988.8158
 11
1188.5138
 21
1993.2599
  0
LINE
  8
_1-2_仕上
  6
CONTINUOUS
 62
    3
 10
1188.5138
 20
1993.2599
 11
1186.1683
 21
1997.3028
  0
LINE
  8
_1-2_仕上
  6
CONTINUOUS
 62
    3
 10
1186.1683
 20
1997.3028
 11
1183.2708
 21
2001.1403
  0
LINE
  8
_1-2_仕上
  6
CONTINUOUS
 62
    3
 10
1074.5147
 20
2047.5593
 11
1080.2193
 21
2046.5881
  0
LINE
  8
_1-2_仕上
  6
CONTINUOUS
 62
    3
 10
1080.2193
 20
2046.5881
 11
1085.9052
 21
2045.7812
  0
LINE
  8
_1-2_仕上
  6
CONTINUOUS
 62
    3
 10
1085.9052
 20
2045.7812
 11
1091.5494
 21
2045.3016
  0
LINE
  8
_1-2_仕上
  6
CONTINUOUS
 62
    3
 10
1091.5494
 20
2045.3016
 11
1097.1325
 21
2045.3103
  0
LINE
  8
_1-2_仕上
  6
CONTINUOUS
 62
    3
 10
1097.1325
 20
2045.3103
 11
1102.6341
 21
2045.9673
  0
LINE
  8
_1-2_仕上
  6
CONTINUOUS
 62
    3
 10
1102.6341
 20
2045.9673
 11
1108.0547
 21
2047.3015
  0
LINE
  8
_1-2_仕上
  6
CONTINUOUS
 62
    3
 10
1108.0547
 20
2047.3015
 11
1113.4062
 21
2049.1328
  0
LINE
  8
_1-2_仕上
  6
CONTINUOUS
 62
    3
 10
1113.4062
 20
2049.1328
 11
1118.7142
 21
2051.2805
  0
LINE
  8
_1-2_仕上
  6
CONTINUOUS
 62
    3
 10
1118.7142
 20
2051.2805
 11
1123.9894
 21
2053.5503
  0
LINE
  8
_1-2_仕上
  6
CONTINUOUS
 62
    3
 10
1123.9894
 20
2053.5503
 11
1129.2586
 21
2055.779
  0
LINE
  8
_1-2_仕上
  6
CONTINUOUS
 62
    3
 10
1129.2586
 20
2055.779
 11
1134.5224
 21
2057.9238
  0
LINE
  8
_1-2_仕上
  6
CONTINUOUS
 62
    3
 10
1134.5224
 20
2057.9238
 11
1139.786
 21
2060.005
  0
LINE
  8
_1-2_仕上
  6
CONTINUOUS
 62
    3
 10
1139.786
 20
2060.005
 11
1145.0436
 21
2062.034
  0
LINE
  8
_1-2_仕上
  6
CONTINUOUS
 62
    3
 10
1145.0436
 20
2062.034
 11
1150.3012
 21
2064.0254
  0
LINE
  8
_1-2_仕上
  6
CONTINUOUS
 62
    3
 10
1150.3012
 20
2064.0254
 11
1155.5601
 21
2065.999
  0
LINE
  8
_1-2_仕上
  6
CONTINUOUS
 62
    3
 10
1155.5601
 20
2065.999
 11
1155.4868
 21
2061.1556
  0
LINE
  8
_1-2_仕上
  6
CONTINUOUS
 62
    3
 10
1155.4868
 20
2061.1556
 11
1155.4171
 21
2056.3177
  0
LINE
  8
_1-2_仕上
  6
CONTINUOUS
 62
    3
 10
1155.4171
 20
2056.3177
 11
1155.3473
 21
2051.4738
  0
LINE
  8
_1-2_仕上
  6
CONTINUOUS
 62
    3
 10
1155.3473
 20
2051.4738
 11
1155.2745
 21
2046.6349
  0
LINE
  8
_1-2_仕上
  6
CONTINUOUS
 62
    3
 10
1155.2745
 20
2046.6349
 11
1155.2053
 21
2041.7967
  0
LINE
  8
_1-2_仕上
  6
CONTINUOUS
 62
    3
 10
1155.2053
 20
2041.7967
 11
1155.1352
 21
2036.953
  0
LINE
  8
_1-2_仕上
  6
CONTINUOUS
 62
    3
 10
1155.1352
 20
2036.953
 11
1155.0623
 21
2032.1151
  0
LINE
  8
_1-2_仕上
  6
CONTINUOUS
 62
    3
 10
1155.0623
 20
2032.1151
 11
1154.9929
 21
2027.2719
  0
LINE
  8
_1-2_仕上
  6
CONTINUOUS
 62
    3
 10
1154.9929
 20
2027.2719
 11
1154.9206
 21
2022.4323
  0
LINE
  8
_1-2_仕上
  6
CONTINUOUS
 62
    3
 10
1154.9206
 20
2022.4323
 11
1154.8503
 21
2017.5904
  0
LINE
  8
_1-2_仕上
  6
CONTINUOUS
 62
    3
 10
1183.2708
 20
2001.1403
 11
1182.1134
 21
2002.1605
  0
LINE
  8
_1-2_仕上
  6
CONTINUOUS
 62
    3
 10
1182.1134
 20
2002.1605
 11
1180.45
 21
2003.3942
  0
LINE
  8
_1-2_仕上
  6
CONTINUOUS
 62
    3
 10
1180.45
 20
2003.3942
 11
1178.3465
 21
2004.8056
  0
LINE
  8
_1-2_仕上
  6
CONTINUOUS
 62
    3
 10
1178.3465
 20
2004.8056
 11
1175.8596
 21
2006.3606
  0
LINE
  8
_1-2_仕上
  6
CONTINUOUS
 62
    3
 10
1175.8596
 20
2006.3606
 11
1173.0244
 21
2008.0281
  0
LINE
  8
_1-2_仕上
  6
CONTINUOUS
 62
    3
 10
1173.0244
 20
2008.0281
 11
1169.8917
 21
2009.7869
  0
LINE
  8
_1-2_仕上
  6
CONTINUOUS
 62
    3
 10
1169.8917
 20
2009.7869
 11
1166.4914
 21
2011.6149
  0
LINE
  8
_1-2_仕上
  6
CONTINUOUS
 62
    3
 10
1166.4914
 20
2011.6149
 11
1162.8491
 21
2013.4923
  0
LINE
  8
_1-2_仕上
  6
CONTINUOUS
 62
    3
 10
1162.8491
 20
2013.4923
 11
1158.9977
 21
2015.4047
  0
LINE
  8
_1-2_仕上
  6
CONTINUOUS
 62
    3
 10
1158.9977
 20
2015.4047
 11
1154.9582
 21
2017.338
  0
LINE
  8
_1-2_仕上
  6
CONTINUOUS
 62
    3
 10
1154.9582
 20
2017.338
 11
1150.7456
 21
2019.2794
  0
LINE
  8
_1-2_仕上
  6
CONTINUOUS
 62
    3
 10
1150.7456
 20
2019.2794
 11
1146.3862
 21
2021.2233
  0
LINE
  8
_1-2_仕上
  6
CONTINUOUS
 62
    3
 10
1146.3862
 20
2021.2233
 11
1141.8922
 21
2023.1568
  0
LINE
  8
_1-2_仕上
  6
CONTINUOUS
 62
    3
 10
1141.8922
 20
2023.1568
 11
1137.2861
 21
2025.0749
  0
LINE
  8
_1-2_仕上
  6
CONTINUOUS
 62
    3
 10
1137.2861
 20
2025.0749
 11
1132.5803
 21
2026.9733
  0
LINE
  8
_1-2_仕上
  6
CONTINUOUS
 62
    3
 10
1132.5803
 20
2026.9733
 11
1127.7933
 21
2028.8424
  0
LINE
  8
_1-2_仕上
  6
CONTINUOUS
 62
    3
 10
1127.7933
 20
2028.8424
 11
1122.9426
 21
2030.6809
  0
LINE
  8
_1-2_仕上
  6
CONTINUOUS
 62
    3
 10
1122.9426
 20
2030.6809
 11
1118.0479
 21
2032.4843
  0
LINE
  8
_1-2_仕上
  6
CONTINUOUS
 62
    3
 10
1118.0479
 20
2032.4843
 11
1113.1298
 21
2034.2517
  0
LINE
  8
_1-2_仕上
  6
CONTINUOUS
 62
    3
 10
1113.1298
 20
2034.2517
 11
1108.2066
 21
2035.9717
  0
LINE
  8
_1-2_仕上
  6
CONTINUOUS
 62
    3
 10
1108.2066
 20
2035.9717
 11
1103.298
 21
2037.6449
  0
LINE
  8
_1-2_仕上
  6
CONTINUOUS
 62
    3
 10
1103.298
 20
2037.6449
 11
1098.4284
 21
2039.271
  0
LINE
  8
_1-2_仕上
  6
CONTINUOUS
 62
    3
 10
1098.4284
 20
2039.271
 11
1093.6243
 21
2040.8396
  0
LINE
  8
_1-2_仕上
  6
CONTINUOUS
 62
    3
 10
1093.6243
 20
2040.8396
 11
1088.9037
 21
2042.3509
  0
LINE
  8
_1-2_仕上
  6
CONTINUOUS
 62
    3
 10
1088.9037
 20
2042.3509
 11
1084.2975
 21
2043.7989
  0
LINE
  8
_1-2_仕上
  6
CONTINUOUS
 62
    3
 10
1084.2975
 20
2043.7989
 11
1079.8296
 21
2045.1759
  0
LINE
  8
_1-2_仕上
  6
CONTINUOUS
 62
    3
 10
1079.8296
 20
2045.1759
 11
1075.5252
 21
2046.478
  0
LINE
  8
_1-2_仕上
  6
CONTINUOUS
 62
    3
 10
1075.5252
 20
2046.478
 11
1071.407
 21
2047.6998
  0
LINE
  8
_1-2_仕上
  6
CONTINUOUS
 62
    3
 10
1071.407
 20
2047.6998
 11
1067.5016
 21
2048.8326
  0
LINE
  8
_1-2_仕上
  6
CONTINUOUS
 62
    3
 10
1155.5601
 20
2065.999
 11
1155.6271
 21
2066.022
  0
LINE
  8
_1-2_仕上
  6
CONTINUOUS
 62
    3
 10
1078.5904
 20
1965.2665
 11
1078.5904
 21
1954.1517
  0
LINE
  8
_1-2_仕上
  6
CONTINUOUS
 62
    3
 10
1078.5904
 20
1954.1517
 11
1112.3664
 21
1954.1517
  0
LINE
  8
_1-2_仕上
  6
CONTINUOUS
 62
    3
 10
1112.3664
 20
1965.2665
 11
1112.3664
 21
1954.1517
  0
LINE
  8
_1-2_仕上
  6
CONTINUOUS
 62
    3
 10
1078.5904
 20
1965.2665
 11
1112.3664
 21
1965.2665
  0
LINE
  8
_1-2_仕上
  6
CONTINUOUS
 62
    3
 10
1096.5483
 20
1965.2665
 11
1096.5483
 21
1987.4215
  0
LINE
  8
_1-2_仕上
  6
CONTINUOUS
 62
    3
 10
1089.0135
 20
1994.9541
 11
1050
 21
1994.9541
  0
LINE
  8
_1-2_仕上
  6
CONTINUOUS
 62
    3
 10
1062.9409
 20
2079.0079
 11
1062.9409
 21
2042.54
  0
LINE
  8
_1-2_仕上
  6
CONTINUOUS
 62
    3
 10
1068.2561
 20
2068.0735
 11
1067.7043
 21
2067.7618
  0
LINE
  8
_1-2_仕上
  6
CONTINUOUS
 62
    3
 10
1067.7043
 20
2067.7618
 11
1067.1395
 21
2067.4341
  0
LINE
  8
_1-2_仕上
  6
CONTINUOUS
 62
    3
 10
1067.1395
 20
2067.4341
 11
1066.5679
 21
2067.0907
  0
LINE
  8
_1-2_仕上
  6
CONTINUOUS
 62
    3
 10
1066.5679
 20
2067.0907
 11
1065.9841
 21
2066.7307
  0
LINE
  8
_1-2_仕上
  6
CONTINUOUS
 62
    3
 10
1065.9841
 20
2066.7307
 11
1065.3885
 21
2066.3595
  0
LINE
  8
_1-2_仕上
  6
CONTINUOUS
 62
    3
 10
1065.3885
 20
2066.3595
 11
1064.7827
 21
2065.9693
  0
LINE
  8
_1-2_仕上
  6
CONTINUOUS
 62
    3
 10
1064.7827
 20
2065.9693
 11
1064.1669
 21
2065.5655
  0
LINE
  8
_1-2_仕上
  6
CONTINUOUS
 62
    3
 10
1064.1669
 20
2065.5655
 11
1063.5387
 21
2065.1438
  0
LINE
  8
_1-2_仕上
  6
CONTINUOUS
 62
    3
 10
1063.5387
 20
2065.1438
 11
1062.9022
 21
2064.7103
  0
LINE
  8
_1-2_仕上
  6
CONTINUOUS
 62
    3
 10
1066.3698
 20
2054.8756
 11
1065.9606
 21
2054.7971
  0
LINE
  8
_1-2_仕上
  6
CONTINUOUS
 62
    3
 10
1065.9606
 20
2054.7971
 11
1065.557
 21
2054.7242
  0
LINE
  8
_1-2_仕上
  6
CONTINUOUS
 62
    3
 10
1065.557
 20
2054.7242
 11
1065.1608
 21
2054.6519
  0
LINE
  8
_1-2_仕上
  6
CONTINUOUS
 62
    3
 10
1065.1608
 20
2054.6519
 11
1064.7686
 21
2054.5814
  0
LINE
  8
_1-2_仕上
  6
CONTINUOUS
 62
    3
 10
1064.7686
 20
2054.5814
 11
1064.3846
 21
2054.5143
  0
LINE
  8
_1-2_仕上
  6
CONTINUOUS
 62
    3
 10
1064.3846
 20
2054.5143
 11
1064.0043
 21
2054.4515
  0
LINE
  8
_1-2_仕上
  6
CONTINUOUS
 62
    3
 10
1064.0043
 20
2054.4515
 11
1063.6312
 21
2054.3923
  0
LINE
  8
_1-2_仕上
  6
CONTINUOUS
 62
    3
 10
1063.6312
 20
2054.3923
 11
1063.2625
 21
2054.3347
  0
LINE
  8
_1-2_仕上
  6
CONTINUOUS
 62
    3
 10
1063.2625
 20
2054.3347
 11
1062.9022
 21
2054.2788
  0
LINE
  8
_1-2_仕上
  6
CONTINUOUS
 62
    3
 10
1074.5147
 20
2047.5593
 11
1072.9596
 21
2047.8889
  0
LINE
  8
_1-2_仕上
  6
CONTINUOUS
 62
    3
 10
1072.9596
 20
2047.8889
 11
1071.4677
 21
2048.2076
  0
LINE
  8
_1-2_仕上
  6
CONTINUOUS
 62
    3
 10
1071.4677
 20
2048.2076
 11
1070.0441
 21
2048.5164
  0
LINE
  8
_1-2_仕上
  6
CONTINUOUS
 62
    3
 10
1070.0441
 20
2048.5164
 11
1068.6871
 21
2048.815
  0
LINE
  8
_1-2_仕上
  6
CONTINUOUS
 62
    3
 10
1068.6871
 20
2048.815
 11
1067.396
 21
2049.1028
  0
LINE
  8
_1-2_仕上
  6
CONTINUOUS
 62
    3
 10
1067.396
 20
2049.1028
 11
1066.173
 21
2049.3822
  0
LINE
  8
_1-2_仕上
  6
CONTINUOUS
 62
    3
 10
1066.173
 20
2049.3822
 11
1065.0156
 21
2049.6497
  0
LINE
  8
_1-2_仕上
  6
CONTINUOUS
 62
    3
 10
1065.0156
 20
2049.6497
 11
1063.9256
 21
2049.908
  0
LINE
  8
_1-2_仕上
  6
CONTINUOUS
 62
    3
 10
1063.9256
 20
2049.908
 11
1062.9022
 21
2050.1549
  0
LINE
  8
_1-2_仕上
  6
CONTINUOUS
 62
    3
 10
1067.5016
 20
2048.8326
 11
1066.893
 21
2048.9984
  0
LINE
  8
_1-2_仕上
  6
CONTINUOUS
 62
    3
 10
1066.893
 20
2048.9984
 11
1066.3092
 21
2049.1577
  0
LINE
  8
_1-2_仕上
  6
CONTINUOUS
 62
    3
 10
1066.3092
 20
2049.1577
 11
1065.7509
 21
2049.3151
  0
LINE
  8
_1-2_仕上
  6
CONTINUOUS
 62
    3
 10
1065.7509
 20
2049.3151
 11
1065.2184
 21
2049.4666
  0
LINE
  8
_1-2_仕上
  6
CONTINUOUS
 62
    3
 10
1065.2184
 20
2049.4666
 11
1064.7132
 21
2049.612
  0
LINE
  8
_1-2_仕上
  6
CONTINUOUS
 62
    3
 10
1064.7132
 20
2049.612
 11
1064.2307
 21
2049.7506
  0
LINE
  8
_1-2_仕上
  6
CONTINUOUS
 62
    3
 10
1064.2307
 20
2049.7506
 11
1063.7747
 21
2049.8867
  0
LINE
  8
_1-2_仕上
  6
CONTINUOUS
 62
    3
 10
1063.7747
 20
2049.8867
 11
1063.3451
 21
2050.0183
  0
LINE
  8
_1-2_仕上
  6
CONTINUOUS
 62
    3
 10
1063.3451
 20
2050.0183
 11
1062.9409
 21
2050.147
  0
LINE
  8
_1-2_仕上
  6
CONTINUOUS
 62
    3
 10
1057.959
 20
2083.9921
 11
1050
 21
2083.9921
  0
LINE
  8
_1-2_仕上
  6
CONTINUOUS
 62
    3
 10
1057.959
 20
2007.4226
 11
1050
 21
2007.4226
  0
LINE
  8
_1-2_仕上
  6
CONTINUOUS
 62
    3
 10
1054.1574
 20
2033.384
 11
1057.0441
 21
2030.1254
  0
LINE
  8
_1-2_仕上
  6
CONTINUOUS
 62
    3
 10
1057.0441
 20
2030.1254
 11
1060.217
 21
2026.7402
  0
LINE
  8
_1-2_仕上
  6
CONTINUOUS
 62
    3
 10
1060.217
 20
2026.7402
 11
1063.6293
 21
2023.2681
  0
LINE
  8
_1-2_仕上
  6
CONTINUOUS
 62
    3
 10
1063.6293
 20
2023.2681
 11
1067.2378
 21
2019.7446
  0
LINE
  8
_1-2_仕上
  6
CONTINUOUS
 62
    3
 10
1067.2378
 20
2019.7446
 11
1071.001
 21
2016.2035
  0
LINE
  8
_1-2_仕上
  6
CONTINUOUS
 62
    3
 10
1071.001
 20
2016.2035
 11
1074.881
 21
2012.6762
  0
LINE
  8
_1-2_仕上
  6
CONTINUOUS
 62
    3
 10
1074.881
 20
2012.6762
 11
1078.8414
 21
2009.1908
  0
LINE
  8
_1-2_仕上
  6
CONTINUOUS
 62
    3
 10
1078.8414
 20
2009.1908
 11
1082.8494
 21
2005.7716
  0
LINE
  8
_1-2_仕上
  6
CONTINUOUS
 62
    3
 10
1082.8494
 20
2005.7716
 11
1086.8743
 21
2002.4436
  0
LINE
  8
_1-2_仕上
  6
CONTINUOUS
 62
    3
 10
1086.8743
 20
2002.4436
 11
1090.8884
 21
1999.2259
  0
LINE
  8
_1-2_仕上
  6
CONTINUOUS
 62
    3
 10
1090.8884
 20
1999.2259
 11
1094.8662
 21
1996.1371
  0
LINE
  8
_1-2_仕上
  6
CONTINUOUS
 62
    3
 10
1094.8662
 20
1996.1371
 11
1098.7857
 21
1993.1913
  0
LINE
  8
_1-2_仕上
  6
CONTINUOUS
 62
    3
 10
1098.7857
 20
1993.1913
 11
1102.6264
 21
1990.4024
  0
LINE
  8
_1-2_仕上
  6
CONTINUOUS
 62
    3
 10
1102.6264
 20
1990.4024
 11
1106.3716
 21
1987.7788
  0
LINE
  8
_1-2_仕上
  6
CONTINUOUS
 62
    3
 10
1106.3716
 20
1987.7788
 11
1110.0063
 21
1985.3282
  0
LINE
  8
_1-2_仕上
  6
CONTINUOUS
 62
    3
 10
1110.0063
 20
1985.3282
 11
1113.5185
 21
1983.0554
  0
LINE
  8
_1-2_仕上
  6
CONTINUOUS
 62
    3
 10
1113.5185
 20
1983.0554
 11
1116.8993
 21
1980.9618
  0
LINE
  8
_1-2_仕上
  6
CONTINUOUS
 62
    3
 10
1116.8993
 20
1980.9618
 11
1120.1417
 21
1979.0477
  0
LINE
  8
_1-2_仕上
  6
CONTINUOUS
 62
    3
 10
1120.1417
 20
1979.0477
 11
1123.2415
 21
1977.3082
  0
LINE
  8
_1-2_仕上
  6
CONTINUOUS
 62
    3
 10
1123.2415
 20
1977.3082
 11
1123.4697
 21
1977.2087
  0
LINE
  8
_1-2_仕上
  6
CONTINUOUS
 62
    3
 10
1123.4697
 20
1977.2087
 11
1123.6954
 21
1977.1137
  0
LINE
  8
_1-2_仕上
  6
CONTINUOUS
 62
    3
 10
1123.6954
 20
1977.1137
 11
1123.9194
 21
1977.0231
  0
LINE
  8
_1-2_仕上
  6
CONTINUOUS
 62
    3
 10
1123.9194
 20
1977.0231
 11
1124.1406
 21
1976.9377
  0
LINE
  8
_1-2_仕上
  6
CONTINUOUS
 62
    3
 10
1124.1406
 20
1976.9377
 11
1124.3595
 21
1976.8568
  0
LINE
  8
_1-2_仕上
  6
CONTINUOUS
 62
    3
 10
1124.3595
 20
1976.8568
 11
1124.5761
 21
1976.7806
  0
LINE
  8
_1-2_仕上
  6
CONTINUOUS
 62
    3
 10
1124.5761
 20
1976.7806
 11
1124.7906
 21
1976.7091
  0
LINE
  8
_1-2_仕上
  6
CONTINUOUS
 62
    3
 10
1124.7906
 20
1976.7091
 11
1125.0027
 21
1976.6428
  0
LINE
  8
_1-2_仕上
  6
CONTINUOUS
 62
    3
 10
1125.0027
 20
1976.6428
 11
1125.2123
 21
1976.5804
  0
LINE
  8
_1-2_仕上
  6
CONTINUOUS
 62
    3
 10
1054.1574
 20
2033.384
 11
1055.864
 21
2034.2317
  0
LINE
  8
_1-2_仕上
  6
CONTINUOUS
 62
    3
 10
1055.864
 20
2034.2317
 11
1057.3878
 21
2035.1217
  0
LINE
  8
_1-2_仕上
  6
CONTINUOUS
 62
    3
 10
1057.3878
 20
2035.1217
 11
1058.7289
 21
2036.0541
  0
LINE
  8
_1-2_仕上
  6
CONTINUOUS
 62
    3
 10
1058.7289
 20
2036.0541
 11
1059.8875
 21
2037.029
  0
LINE
  8
_1-2_仕上
  6
CONTINUOUS
 62
    3
 10
1059.8875
 20
2037.029
 11
1060.8634
 21
2038.0465
  0
LINE
  8
_1-2_仕上
  6
CONTINUOUS
 62
    3
 10
1060.8634
 20
2038.0465
 11
1061.6567
 21
2039.1062
  0
LINE
  8
_1-2_仕上
  6
CONTINUOUS
 62
    3
 10
1061.6567
 20
2039.1062
 11
1062.2674
 21
2040.2083
  0
LINE
  8
_1-2_仕上
  6
CONTINUOUS
 62
    3
 10
1062.2674
 20
2040.2083
 11
1062.6955
 21
2041.353
  0
LINE
  8
_1-2_仕上
  6
CONTINUOUS
 62
    3
 10
1062.6955
 20
2041.353
 11
1062.9409
 21
2042.54
  0
LINE
  8
_1-2_仕上
  6
CONTINUOUS
 62
    3
 10
1062.9423
 20
2012.407
 11
1062.9423
 21
2023.9671
  0
LINE
  8
_1-2_仕上
  6
CONTINUOUS
 62
    3
 10
1127.6639
 20
2055.4214
 11
1117.8503
 21
2077.0506
  0
LINE
  8
_1-2_仕上
  6
CONTINUOUS
 62
    3
 10
672.6667
 20
2030.0433
 11
1050
 21
2030.0433
  0
LINE
  8
_1-2_仕上
  6
CONTINUOUS
 62
    3
 10
1427.3343
 20
2030.0428
 11
1304.9999
 21
2030.0433
  0
LINE
  8
_1-2_仕上
  6
CONTINUOUS
 62
    3
 10
795.00002
 20
1950.0437
 11
795.00002
 21
2030.0433
  0
LINE
  8
_1-2_仕上
  6
CONTINUOUS
 62
    3
 10
672.6667
 20
2053.3766
 11
672.6667
 21
2030.0433
  0
LINE
  8
_1-2_仕上
  6
CONTINUOUS
 62
    3
 10
672.6667
 20
2093.3767
 11
672.6667
 21
2063.3764
  0
LINE
  8
_1-2_仕上
  6
CONTINUOUS
 62
    3
 10
672.6667
 20
2213.3764
 11
672.6667
 21
2103.3765
  0
LINE
  8
_1-2_仕上
  6
CONTINUOUS
 62
    3
 10
1427.3333
 20
2053.3759
 11
1427.3333
 21
2030.0428
  0
LINE
  8
_1-2_仕上
  6
CONTINUOUS
 62
    3
 10
1427.3333
 20
2093.376
 11
1427.3333
 21
2063.3759
  0
LINE
  8
_1-2_仕上
  6
CONTINUOUS
 62
    3
 10
1427.3333
 20
2053.3759
 11
1304.9999
 21
2053.3766
  0
LINE
  8
_1-2_仕上
  6
CONTINUOUS
 62
    3
 10
1427.3333
 20
2063.3759
 11
1304.9999
 21
2063.3764
  0
LINE
  8
_1-2_仕上
  6
CONTINUOUS
 62
    3
 10
1427.3333
 20
2093.376
 11
1304.9999
 21
2093.3767
  0
LINE
  8
_1-2_仕上
  6
CONTINUOUS
 62
    3
 10
1427.3333
 20
2103.376
 11
1304.9999
 21
2103.3765
  0
LINE
  8
_1-2_仕上
  6
CONTINUOUS
 62
    3
 10
1118.8846
 20
2121.377
 11
1050
 21
2121.377
  0
LINE
  8
_1-2_仕上
  6
CONTINUOUS
 62
    3
 10
1304.9999
 20
2121.377
 11
1226.0938
 21
2121.377
  0
LINE
  8
_1-2_仕上
  6
CONTINUOUS
 62
    3
 10
1304.9999
 20
2121.377
 11
1304.9999
 21
1950.0437
  0
LINE
  8
_1-2_仕上
  6
CONTINUOUS
 62
    3
 10
1089.8817
 20
1938.7585
 11
1050
 21
1938.7585
  0
LINE
  8
_1-2_仕上
  6
CONTINUOUS
 62
    3
 10
1096.5483
 20
1945.425
 11
1096.5483
 21
1954.1517
  0
LINE
  8
_1-2_仕上
  6
CONTINUOUS
 62
    3
 10
1086.5483
 20
1932.764
 11
1050
 21
1932.764
  0
LINE
  8
_1-2_仕上
  6
CONTINUOUS
 62
    3
 10
1089.8817
 20
1936.0975
 11
1089.8817
 21
1938.7585
  0
LINE
  8
_1-2_仕上
  6
CONTINUOUS
 62
    3
 10
1096.5483
 20
1950.0437
 11
1304.9999
 21
1950.0437
  0
LINE
  8
_1-2_仕上
  6
CONTINUOUS
 62
    3
 10
1093.8168
 20
1940.0437
 11
1305
 21
1940.0437
  0
LINE
  8
_1-2_仕上
  6
CONTINUOUS
 62
    3
 10
795.00002
 20
1950.0437
 11
1050
 21
1950.0437
  0
LINE
  8
_1-2_仕上
  6
CONTINUOUS
 62
    3
 10
795.00002
 20
1940.0437
 11
1050
 21
1940.0437
  0
LINE
  8
_1-2_仕上
  6
CONTINUOUS
 62
    3
 10
672.6667
 20
2103.3765
 11
1050
 21
2103.3765
  0
LINE
  8
_1-2_仕上
  6
CONTINUOUS
 62
    3
 10
672.6667
 20
2093.3767
 11
1050
 21
2093.3767
  0
LINE
  8
_1-2_仕上
  6
CONTINUOUS
 62
    3
 10
672.6667
 20
2063.3764
 11
1050
 21
2063.3764
  0
LINE
  8
_1-2_仕上
  6
CONTINUOUS
 62
    3
 10
672.6667
 20
2053.3766
 11
1050
 21
2053.3766
  0
LINE
  8
_1-2_仕上
  6
CONTINUOUS
 62
    3
 10
1373.3333
 20
1880.0425
 11
726.66667
 21
1880.0425
  0
LINE
  8
_1-2_仕上
  6
CONTINUOUS
 62
    3
 10
1373.3333
 20
1880.0425
 11
1373.3333
 21
1840.0426
  0
LINE
  8
_1-8_
  6
CONTINUOUS
 62
    7
 10
726.66704
 20
1716.8362
 11
1373.3333
 21
1716.8362
  0
LINE
  8
_1-2_仕上
  6
CONTINUOUS
 62
    3
 10
726.66667
 20
1880.0425
 11
830.59164
 21
1940.0437
  0
LINE
  8
_1-2_仕上
  6
CONTINUOUS
 62
    3
 10
795.00002
 20
1940.0437
 11
795.00002
 21
1919.4948
  0
LINE
  8
_1-2_仕上
  6
CONTINUOUS
 62
    3
 10
1305
 20
1940.0437
 11
1305
 21
1880.0425
  0
LINE
  8
_1-2_仕上
  6
CONTINUOUS
 62
    3
 10
1373.3333
 20
1880.0425
 11
1305
 21
1919.4948
  0
LINE
  8
_1-2_仕上
  6
CONTINUOUS
 62
    3
 10
830.59164
 20
1940.0437
 11
830.59164
 21
1880.0425
  0
LINE
  8
_1-8_
  6
CONTINUOUS
 62
    7
 10
672.6667
 20
2255.8784
 11
672.6667
 21
2403.063
  0
LINE
  8
_1-8_
  6
CONTINUOUS
 62
    7
 10
1373.3333
 20
1809.4625
 11
1373.3333
 21
1716.8362
  0
LINE
  8
_1-2_仕上
  6
CONTINUOUS
 62
    3
 10
1373.3333
 20
1840.0426
 11
726.66704
 21
1840.0426
  0
LINE
  8
_1-8_
  6
CONTINUOUS
 62
    7
 10
643.98552
 20
2300.0427
 11
583.33362
 21
2300.0427
  0
LINE
  8
_1-8_
  6
CONTINUOUS
 62
    7
 10
644.65329
 20
1840.0426
 11
583.33362
 21
1840.0426
  0
LINE
  8
_1-2_仕上
  6
CONTINUOUS
 62
    3
 10
1427.3343
 20
2213.2331
 11
1427.3343
 21
2103.376
  0
LINE
  8
_1-2_仕上
  6
CONTINUOUS
 62
    3
 10
726.66667
 20
1880.0425
 11
726.66667
 21
1840.0426
  0
LINE
  8
_1-8_
  6
CONTINUOUS
 62
    7
 10
726.66704
 20
1809.4625
 11
726.66704
 21
1716.8362
  0
LINE
  8
_1-2_仕上
  6
CONTINUOUS
 62
    3
 10
672.6667
 20
2213.3764
 11
1050
 21
2213.3764
  0
LINE
  8
_1-2_仕上
  6
CONTINUOUS
 62
    3
 10
1050
 20
2300.0427
 11
657.56675
 21
2209.908
  0
LINE
  8
_1-2_仕上
  6
CONTINUOUS
 62
    3
 10
1050
 20
2300.0427
 11
1442.4333
 21
2209.908
  0
LINE
  8
_1-2_仕上
  6
CONTINUOUS
 62
    3
 10
1221.6225
 20
2260.4892
 11
1050
 21
2260.4892
  0
LINE
  8
_1-8_
  6
CONTINUOUS
 62
    7
 10
1427.3343
 20
2255.8784
 11
1427.3343
 21
2403.0625
  0
LINE
  8
_1-1_1-1___
  6
CENTER2
 62
    7
 10
1050
 20
2369.3694
 11
1050
 21
1763.9641
  0
LINE
  8
_1-2_仕上
  6
CONTINUOUS
 62
    3
 10
1304.9999
 20
2131.3771
 11
1050
 21
2131.3771
  0
LINE
  8
_1-4_
  6
CONTINUOUS
 62
    3
 10
1304.9999
 20
2131.3771
 11
1304.9999
 21
2241.4739
  0
LINE
  8
_1-4_
  6
CONTINUOUS
 62
    3
 10
1305
 20
2241.4739
 11
1050
 21
2241.4739
  0
LINE
  8
_1-2_仕上
  6
CONTINUOUS
 62
    3
 10
1221.6225
 20
2260.4894
 11
1188.6866
 21
2241.4739
  0
LINE
  8
_1-2_仕上
  6
CONTINUOUS
 62
    3
 10
1427.3343
 20
2213.3756
 11
1305
 21
2213.3761
  0
LINE
  8
_1-4_
  6
CONTINUOUS
 62
    4
 10
1305
 20
2236.4739
 11
1050
 21
2236.4739
  0
LINE
  8
_1-4_
  6
CONTINUOUS
 62
    4
 10
1305
 20
2231.4739
 11
1050
 21
2231.4739
  0
LINE
  8
_1-4_
  6
CONTINUOUS
 62
    4
 10
1305
 20
2226.4739
 11
1050
 21
2226.4739
  0
LINE
  8
_1-4_
  6
CONTINUOUS
 62
    4
 10
1305
 20
2221.4739
 11
1050
 21
2221.4739
  0
LINE
  8
_1-4_
  6
CONTINUOUS
 62
    4
 10
1305
 20
2216.4738
 11
1050
 21
2216.4738
  0
LINE
  8
_1-4_
  6
CONTINUOUS
 62
    4
 10
1305
 20
2211.4738
 11
1050
 21
2211.4738
  0
LINE
  8
_1-4_
  6
CONTINUOUS
 62
    4
 10
1305
 20
2206.4738
 11
1050
 21
2206.4738
  0
LINE
  8
_1-4_
  6
CONTINUOUS
 62
    4
 10
1305
 20
2201.474
 11
1050
 21
2201.474
  0
LINE
  8
_1-4_
  6
CONTINUOUS
 62
    4
 10
1305
 20
2196.474
 11
1050
 21
2196.474
  0
LINE
  8
_1-4_
  6
CONTINUOUS
 62
    4
 10
1305
 20
2191.474
 11
1050
 21
2191.474
  0
LINE
  8
_1-4_
  6
CONTINUOUS
 62
    4
 10
1305
 20
2186.474
 11
1050
 21
2186.474
  0
LINE
  8
_1-4_
  6
CONTINUOUS
 62
    4
 10
1305
 20
2181.474
 11
1050
 21
2181.474
  0
LINE
  8
_1-4_
  6
CONTINUOUS
 62
    4
 10
1305
 20
2176.4739
 11
1050
 21
2176.4739
  0
LINE
  8
_1-4_
  6
CONTINUOUS
 62
    4
 10
1305
 20
2171.4739
 11
1050
 21
2171.4739
  0
LINE
  8
_1-4_
  6
CONTINUOUS
 62
    4
 10
1305
 20
2166.4739
 11
1050
 21
2166.4739
  0
LINE
  8
_1-4_
  6
CONTINUOUS
 62
    4
 10
1305
 20
2161.4739
 11
1050
 21
2161.4739
  0
LINE
  8
_1-4_
  6
CONTINUOUS
 62
    4
 10
1305
 20
2156.4739
 11
1050
 21
2156.4739
  0
LINE
  8
_1-4_
  6
CONTINUOUS
 62
    4
 10
1305
 20
2151.4739
 11
1050
 21
2151.4739
  0
LINE
  8
_1-4_
  6
CONTINUOUS
 62
    4
 10
1305
 20
2146.4739
 11
1050
 21
2146.4739
  0
LINE
  8
_1-4_
  6
CONTINUOUS
 62
    4
 10
1305
 20
2141.4738
 11
1050
 21
2141.4738
  0
LINE
  8
_1-4_
  6
CONTINUOUS
 62
    4
 10
1305
 20
2136.4738
 11
1050
 21
2136.4738
  0
LINE
  8
_1-4_
  6
CONTINUOUS
 62
    4
 10
1299.9999
 20
2131.3771
 11
1299.9999
 21
2241.4739
  0
LINE
  8
_1-4_
  6
CONTINUOUS
 62
    4
 10
1294.9999
 20
2131.3771
 11
1294.9999
 21
2241.4739
  0
LINE
  8
_1-4_
  6
CONTINUOUS
 62
    4
 10
1289.9999
 20
2131.3771
 11
1289.9999
 21
2241.4739
  0
LINE
  8
_1-4_
  6
CONTINUOUS
 62
    4
 10
1285
 20
2131.3771
 11
1285
 21
2241.4739
  0
LINE
  8
_1-4_
  6
CONTINUOUS
 62
    4
 10
1280
 20
2131.3771
 11
1280
 21
2241.4739
  0
LINE
  8
_1-4_
  6
CONTINUOUS
 62
    4
 10
1274.9998
 20
2131.3771
 11
1274.9998
 21
2241.4739
  0
LINE
  8
_1-4_
  6
CONTINUOUS
 62
    4
 10
1269.9998
 20
2131.3771
 11
1269.9998
 21
2241.4739
  0
LINE
  8
_1-4_
  6
CONTINUOUS
 62
    4
 10
1264.9998
 20
2131.3771
 11
1264.9998
 21
2241.4739
  0
LINE
  8
_1-4_
  6
CONTINUOUS
 62
    4
 10
1259.9999
 20
2131.3771
 11
1259.9999
 21
2241.4739
  0
LINE
  8
_1-4_
  6
CONTINUOUS
 62
    4
 10
1254.9999
 20
2131.3771
 11
1254.9999
 21
2241.4739
  0
LINE
  8
_1-4_
  6
CONTINUOUS
 62
    4
 10
1249.9999
 20
2131.3771
 11
1249.9999
 21
2241.4739
  0
LINE
  8
_1-4_
  6
CONTINUOUS
 62
    4
 10
1244.9999
 20
2131.3771
 11
1244.9999
 21
2241.4739
  0
LINE
  8
_1-4_
  6
CONTINUOUS
 62
    4
 10
1239.9998
 20
2131.3771
 11
1239.9998
 21
2241.4739
  0
LINE
  8
_1-4_
  6
CONTINUOUS
 62
    4
 10
1234.9999
 20
2131.3771
 11
1234.9999
 21
2241.4739
  0
LINE
  8
_1-4_
  6
CONTINUOUS
 62
    4
 10
1229.9999
 20
2131.3771
 11
1229.9999
 21
2241.4739
  0
LINE
  8
_1-4_
  6
CONTINUOUS
 62
    4
 10
1224.9998
 20
2131.3771
 11
1224.9998
 21
2241.4739
  0
LINE
  8
_1-4_
  6
CONTINUOUS
 62
    4
 10
1219.9998
 20
2131.3771
 11
1219.9998
 21
2241.4739
  0
LINE
  8
_1-4_
  6
CONTINUOUS
 62
    4
 10
1214.9998
 20
2131.3771
 11
1214.9998
 21
2241.4739
  0
LINE
  8
_1-4_
  6
CONTINUOUS
 62
    4
 10
1209.9999
 20
2131.3771
 11
1209.9999
 21
2241.4739
  0
LINE
  8
_1-4_
  6
CONTINUOUS
 62
    4
 10
1204.9998
 20
2131.3771
 11
1204.9998
 21
2241.4739
  0
LINE
  8
_1-4_
  6
CONTINUOUS
 62
    4
 10
1199.9998
 20
2131.3771
 11
1199.9998
 21
2241.4739
  0
LINE
  8
_1-4_
  6
CONTINUOUS
 62
    4
 10
1194.9998
 20
2131.3771
 11
1194.9998
 21
2241.4739
  0
LINE
  8
_1-4_
  6
CONTINUOUS
 62
    4
 10
1189.9998
 20
2131.3771
 11
1189.9998
 21
2241.4739
  0
LINE
  8
_1-4_
  6
CONTINUOUS
 62
    4
 10
1184.9999
 20
2131.3771
 11
1184.9999
 21
2241.4739
  0
LINE
  8
_1-4_
  6
CONTINUOUS
 62
    4
 10
1179.9999
 20
2131.3771
 11
1179.9999
 21
2241.4739
  0
LINE
  8
_1-4_
  6
CONTINUOUS
 62
    4
 10
1174.9997
 20
2131.3771
 11
1174.9997
 21
2241.4739
  0
LINE
  8
_1-4_
  6
CONTINUOUS
 62
    4
 10
1169.9997
 20
2131.3771
 11
1169.9997
 21
2241.4739
  0
LINE
  8
_1-4_
  6
CONTINUOUS
 62
    4
 10
1164.9997
 20
2131.3771
 11
1164.9997
 21
2241.4739
  0
LINE
  8
_1-4_
  6
CONTINUOUS
 62
    4
 10
1159.9998
 20
2131.3771
 11
1159.9998
 21
2241.4739
  0
LINE
  8
_1-4_
  6
CONTINUOUS
 62
    4
 10
1154.9998
 20
2131.3771
 11
1154.9998
 21
2241.4739
  0
LINE
  8
_1-4_
  6
CONTINUOUS
 62
    4
 10
1149.9998
 20
2131.3771
 11
1149.9998
 21
2241.4739
  0
LINE
  8
_1-4_
  6
CONTINUOUS
 62
    4
 10
1144.9998
 20
2131.3771
 11
1144.9998
 21
2241.4739
  0
LINE
  8
_1-4_
  6
CONTINUOUS
 62
    4
 10
1139.9998
 20
2131.3771
 11
1139.9998
 21
2241.4739
  0
LINE
  8
_1-4_
  6
CONTINUOUS
 62
    4
 10
1134.9999
 20
2131.3771
 11
1134.9999
 21
2241.4739
  0
LINE
  8
_1-4_
  6
CONTINUOUS
 62
    4
 10
1129.9998
 20
2131.3771
 11
1129.9998
 21
2241.4739
  0
LINE
  8
_1-4_
  6
CONTINUOUS
 62
    4
 10
1124.9997
 20
2131.3771
 11
1124.9997
 21
2241.4739
  0
LINE
  8
_1-4_
  6
CONTINUOUS
 62
    4
 10
1119.9997
 20
2131.3771
 11
1119.9997
 21
2241.4739
  0
LINE
  8
_1-4_
  6
CONTINUOUS
 62
    4
 10
1114.9997
 20
2131.3771
 11
1114.9997
 21
2241.4739
  0
LINE
  8
_1-4_
  6
CONTINUOUS
 62
    4
 10
1109.9998
 20
2131.3771
 11
1109.9998
 21
2241.4739
  0
LINE
  8
_1-4_
  6
CONTINUOUS
 62
    4
 10
1104.9998
 20
2131.3771
 11
1104.9998
 21
2241.4739
  0
LINE
  8
_1-4_
  6
CONTINUOUS
 62
    4
 10
1099.9997
 20
2131.3771
 11
1099.9997
 21
2241.4739
  0
LINE
  8
_1-4_
  6
CONTINUOUS
 62
    4
 10
1094.9997
 20
2131.3771
 11
1094.9997
 21
2241.4739
  0
LINE
  8
_1-4_
  6
CONTINUOUS
 62
    4
 10
1089.9997
 20
2131.3771
 11
1089.9997
 21
2241.4739
  0
LINE
  8
_1-4_
  6
CONTINUOUS
 62
    4
 10
1084.9998
 20
2131.3771
 11
1084.9998
 21
2241.4739
  0
LINE
  8
_1-4_
  6
CONTINUOUS
 62
    4
 10
1079.9998
 20
2131.3771
 11
1079.9998
 21
2241.4739
  0
LINE
  8
_1-4_
  6
CONTINUOUS
 62
    4
 10
1074.9997
 20
2131.3771
 11
1074.9997
 21
2241.4739
  0
LINE
  8
_1-4_
  6
CONTINUOUS
 62
    4
 10
1069.9996
 20
2131.3771
 11
1069.9996
 21
2241.4739
  0
LINE
  8
_1-4_
  6
CONTINUOUS
 62
    4
 10
1064.9996
 20
2131.3771
 11
1064.9996
 21
2241.4739
  0
LINE
  8
_1-4_
  6
CONTINUOUS
 62
    4
 10
1059.9997
 20
2131.3771
 11
1059.9997
 21
2241.4739
  0
LINE
  8
_1-4_
  6
CONTINUOUS
 62
    4
 10
1054.9997
 20
2131.3771
 11
1054.9997
 21
2241.4739
  0
ARC
  8
_1-2_仕上
  6
CONTINUOUS
 62
    3
 10
1089.0135
 20
1987.4215
 40
7.5333353
 50
0
 51
90
  0
ARC
  8
_1-2_仕上
  6
CONTINUOUS
 62
    3
 10
1057.959
 20
2012.407
 40
4.9832998
 50
270
 51
0
  0
ARC
  8
_1-2_仕上
  6
CONTINUOUS
 62
    3
 10
1057.959
 20
2079.0079
 40
4.9832998
 50
0
 51
90
  0
ARC
  8
_1-2_仕上
  6
CONTINUOUS
 62
    3
 10
795.00002
 20
1945.0437
 40
5.0000165
 50
90
 51
270
  0
ARC
  8
_1-2_仕上
  6
CONTINUOUS
 62
    3
 10
1305
 20
1945.0437
 40
5.0000165
 50
270
 51
90.000946
  0
ARC
  8
_1-2_仕上
  6
CONTINUOUS
 62
    3
 10
672.6667
 20
2098.3765
 40
5.0000165
 50
90
 51
270
  0
ARC
  8
_1-2_仕上
  6
CONTINUOUS
 62
    3
 10
672.6667
 20
2058.3764
 40
5.0000165
 50
90
 51
270
  0
ARC
  8
_1-2_仕上
  6
CONTINUOUS
 62
    3
 10
1427.3333
 20
2098.376
 40
5.0000165
 50
270
 51
90
  0
ARC
  8
_1-2_仕上
  6
CONTINUOUS
 62
    3
 10
1427.3333
 20
2058.3759
 40
5.0000165
 50
270
 51
90
  0
ARC
  8
_1-2_仕上
  6
CONTINUOUS
 62
    3
 10
1304.9999
 20
2126.3773
 40
5.0000165
 50
270
 51
90
  0
ARC
  8
_1-2_仕上
  6
CONTINUOUS
 62
    3
 10
1089.8817
 20
1945.425
 40
6.6666662
 50
270
 51
0
  0
ARC
  8
_1-2_仕上
  6
CONTINUOUS
 62
    3
 10
1086.5483
 20
1936.0975
 40
3.3333331
 50
270
 51
0
  0
TEXT
  8
_1-d_
 62
    7
 10
254.99978
 20
157.4999
 40
25
 41
1
 50
0
  1
図
  0
TEXT
  8
_1-d_
 62
    7
 10
254.99978
 20
97.499965
 40
25
 41
1
 50
0
  1
番
  0
TEXT
  8
_1-d_
 62
    7
 10
655.00043
 20
157.4999
 40
25
 41
1
 50
0
  1
承
  0
TEXT
  8
_1-d_
 62
    7
 10
655.00043
 20
97.499965
 40
25
 41
1
 50
0
  1
認
  0
TEXT
  8
_1-d_
 62
    7
 10
1020.0002
 20
237.49994
 40
25
 41
1
 50
0
  1
尺
  0
TEXT
  8
_1-d_
 62
    7
 10
1020.0002
 20
197.49978
 40
25
 41
1
 50
0.0000708
  1
度
  0
TEXT
  8
_1-d_
 62
    7
 10
855.0001
 20
157.4999
 40
25
 41
1
 50
0
  1
製
  0
TEXT
  8
_1-d_
 62
    7
 10
855.0001
 20
97.499965
 40
25
 41
1
 50
0
  1
図
  0
TEXT
  8
_1-d_
 62
    7
 10
1555
 20
237.49994
 40
25
 41
1
 50
0
  1
日
  0
TEXT
  8
_1-d_
 62
    7
 10
1555
 20
197.49978
 40
25
 41
1
 50
0.0000708
  1
付
  0
TEXT
  8
_1-d_
 62
    7
 10
1111.4263
 20
163.48225
 40
20
 41
1
 50
0
  1
株式
  0
TEXT
  8
_1-d_
 62
    7
 10
1111.4263
 20
141.8518
 40
20
 41
1
 50
0.0000196
  1
会社
  0
TEXT
  8
_1-d_
 62
    3
 10
1174.2246
 20
143.24711
 40
40
 41
1
 50
0
  1
スズキベンチレーター
  0
TEXT
  8
_1-d_
 62
    7
 10
1237.9181
 20
94.024178
 40
20
 41
1
 50
0
  1
TEL(054)296-7000  FAX(054)296-7001
  0
TEXT
  8
_1-8_
 62
    3
 10
1012.1396
 20
2412.0614
 40
30
 41
1
 50
0
  1
1,130
  0
TEXT
  8
_1-8_
 62
    3
 10
563.33356
 20
2065.8757
 40
30
 41
1
 50
90
  1
690
  0
TEXT
  8
_1-8_
 62
    3
 10
1015.8334
 20
1723.5029
 40
30
 41
1
 50
0
  1
970*970
  0
TEXT
  8
_1-d_
 62
    3
 10
1084.3489
 20
210.10065
 40
40
 41
1
 50
0.000005
  1
１／１５
  0
TEXT
  8
_1-d_
 62
    7
 10
1235.6793
 20
118.64592
 40
20
 41
1
 50
0
  1
〒421-2114　静岡市葵区安倍口新田１５２番地
  0
TEXT
  8
_1-d_
 62
    3
 10
255.00008
 20
2792.7013
 40
50
 41
1
 50
0
  1
ＳＴ－７５Ｌ　架台型（低騒音）網付　断面
  0
TEXT
  8
_1-d_
 62
    3
 10
280.67566
 20
215.81082
 40
30
 41
1
 50
0
  1
ＳＴ－７５Ｌ　架台型（低騒音）網付　断面
  0
TEXT
  8
_1-d_
 62
    3
 10
308.45925
 20
140.30213
 40
30
 41
1
 50
0
  1
75L-04b
  0
POINT
  8
_1-8_
 62
    2
 10
583.33362
 20
1840.0426
  0
POINT
  8
_1-8_
 62
    2
 10
583.33362
 20
2300.0427
  0
POINT
  8
_1-8_
 62
    2
 10
672.6667
 20
2403.063
  0
POINT
  8
_1-8_
 62
    2
 10
1427.3343
 20
2403.0625
  0
POINT
  8
_1-8_
 62
    2
 10
726.66704
 20
1716.8362
  0
POINT
  8
_1-8_
 62
    2
 10
1373.3333
 20
1716.8362
  0
ENDSEC
  0
EOF
