  0
SECTION
  2
HEADER
  9
$ACADVER
  1
AC1009
  9
$INSBASE
 10
0
 20
0
 30
0
  9
$EXTMIN
 10
0
 20
0
  9
$EXTMAX
 10
4200
 20
2970
  9
$LIMMIN
 10
0
 20
0
  9
$LIMMAX
 10
4200
 20
2970
  9
$LTSCALE
 40
10
  0
ENDSEC
  0
SECTION
  2
TABLES
  0
TABLE
  2
LTYPE
 70
     9
  0
LTYPE
  2
CONTINUOUS
 70
    64
  3
実線
 72
    65
 73
     0
 40
0.0
  0
LTYPE
  2
DASHED1
 70
    64
  3
--  --  --  --  --  --  --  --  
 72
    65
 73
     2
 40
2.5
 49
1.25
 49
-1.25
  0
LTYPE
  2
DASHED2
 70
    64
  3
----    ----    ----    ----    
 72
    65
 73
     2
 40
5.0
 49
2.5
 49
-2.5
  0
LTYPE
  2
DASHED3
 70
    64
  3
------  ------  ------  ------  
 72
    65
 73
     2
 40
5.0
 49
3.75
 49
-1.25
  0
LTYPE
  2
CENTER1
 70
    64
  3
----- - ----- - ----- - ----- - 
 72
    65
 73
     4
 40
10.0
 49
6.25
 49
-1.25
 49
1.25
 49
-1.25
  0
LTYPE
  2
CENTER2
 70
    64
  3
----------  --  ----------  --  
 72
    65
 73
     4
 40
20.0
 49
12.5
 49
-2.5
 49
2.5
 49
-2.5
  0
LTYPE
  2
PHANTOM1
 70
    64
  3
--- - - --- - - --- - - --- - - 
 72
    65
 73
     6
 40
10.0
 49
3.25
 49
-1.25
 49
1.25
 49
-1.25
 49
1.25
 49
-1.25
  0
LTYPE
  2
PHANTOM2
 70
    64
  3
--------  -  -  --------  -  -  
 72
    65
 73
     6
 40
20.0
 49
10.0
 49
-2.5
 49
1.25
 49
-2.5
 49
1.25
 49
-2.5
  0
LTYPE
  2
DOT
 70
    64
  3
-   -   -   -   -   -   -   -   
 72
    65
 73
     2
 40
2.5
 49
0.625
 49
-1.875
  0
LTYPE
  2
DUMMY
 70
    64
  3
ダミー
 72
    65
 73
     0
 40
0.0
  0
LTYPE
  2
RAND1
 70
    64
  3
----- - ----- - ----- - ----- - 
 72
    65
 73
     4
 40
10.0
 49
6.25
 49
-1.25
 49
1.25
 49
-1.25
  0
LTYPE
  2
RAND2
 70
    64
  3
----------  --  ----------  --  
 72
    65
 73
     4
 40
20.0
 49
12.5
 49
-2.5
 49
2.5
 49
-2.5
  0
LTYPE
  2
RAND3
 70
    64
  3
--- - - --- - - --- - - --- - - 
 72
    65
 73
     6
 40
10.0
 49
3.25
 49
-1.25
 49
1.25
 49
-1.25
 49
1.25
 49
-1.25
  0
LTYPE
  2
RAND4
 70
    64
  3
--------  -  -  --------  -  -  
 72
    65
 73
     6
 40
20.0
 49
10.0
 49
-2.5
 49
1.25
 49
-2.5
 49
1.25
 49
-2.5
  0
LTYPE
  2
RAND5
 70
    64
  3
----- - ----- - ----- - ----- - 
 72
    65
 73
     4
 40
10.0
 49
6.25
 49
-1.25
 49
1.25
 49
-1.25
  0
LTYPE
  2
LONG1
 70
    64
  3
----------  --  ----------  --  
 72
    65
 73
     4
 40
20.0
 49
12.5
 49
-2.5
 49
2.5
 49
-2.5
  0
LTYPE
  2
LONG2
 70
    64
  3
--- - - --- - - --- - - --- - - 
 72
    65
 73
     6
 40
10.0
 49
3.25
 49
-1.25
 49
1.25
 49
-1.25
 49
1.25
 49
-1.25
  0
LTYPE
  2
LONG3
 70
    64
  3
--------  -  -  --------  -  -  
 72
    65
 73
     6
 40
20.0
 49
10.0
 49
-2.5
 49
1.25
 49
-2.5
 49
1.25
 49
-2.5
  0
LTYPE
  2
LONG4
 70
    64
  3
----- - ----- - ----- - ----- - 
 72
    65
 73
     4
 40
10.0
 49
6.25
 49
-1.25
 49
1.25
 49
-1.25
  0
LTYPE
  2
LONG5
 70
    64
  3
----------  --  ----------  --  
 72
    65
 73
     4
 40
20.0
 49
12.5
 49
-2.5
 49
2.5
 49
-2.5
  0
ENDTAB
  0
TABLE
  2
STYLE
  5
3
100
AcDbSymbolTable
 70
     1
  0
STYLE
  5
10
100
AcDbSymbolTableRecord
100
AcDbTextStyleTableRecord
  2
STANDARD
 70
     0
 40
0.0
 41
1.0
 50
0.0
 71
     0
 42
0.2
  3
txt
  4
bigfont.shx
  0
STYLE
  5
26
100
AcDbSymbolTableRecord
100
AcDbTextStyleTableRecord
  2
TATEGAKI
 70
    68
 40
0.0
 41
1.0
 50
0.0
 71
     0
 42
1.0
  3
txt
  4
bigfont.shx
  0
ENDTAB
  0
TABLE
  2
LAYER
 70
    6
  0
LAYER
  2
_1-1_1-1___
 70
   64
 62
    7
  6
CONTINUOUS
  0
LAYER
  2
_1-2_仕上
 70
   64
 62
    7
  6
CONTINUOUS
  0
LAYER
  2
_1-4_
 70
   64
 62
    7
  6
CONTINUOUS
  0
LAYER
  2
_1-8_
 70
   64
 62
    7
  6
CONTINUOUS
  0
LAYER
  2
_1-d_
 70
   64
 62
    7
  6
CONTINUOUS
  0
LAYER
  2
ADD_LINE
 70
   64
 62
    7
  6
CONTINUOUS
  0
ENDTAB
  0
ENDSEC
  0
SECTION
  2
BLOCKS
  0
ENDSEC
  0
SECTION
  2
ENTITIES
  0
LINE
  8
_1-d_
  6
CONTINUOUS
 62
    7
 10
250.00005
 20
2757.7012
 11
1850
 21
2757.7012
  0
LINE
  8
_1-d_
  6
CONTINUOUS
 62
    7
 10
250.00005
 20
2767.7015
 11
1850
 21
2767.7015
  0
LINE
  8
_1-d_
  6
CONTINUOUS
 62
    7
 10
249.99968
 20
189.99988
 11
1850.0004
 21
189.99988
  0
LINE
  8
_1-d_
  6
CONTINUOUS
 62
    7
 10
249.99968
 20
89.999802
 11
249.99968
 21
269.9999
  0
LINE
  8
_1-d_
  6
CONTINUOUS
 62
    7
 10
249.99968
 20
89.999802
 11
1850.0004
 21
89.999802
  0
LINE
  8
_1-d_
  6
CONTINUOUS
 62
    7
 10
1850.0004
 20
269.9999
 11
1850.0004
 21
89.999802
  0
LINE
  8
_1-d_
  6
CONTINUOUS
 62
    7
 10
249.99968
 20
269.9999
 11
1850.0004
 21
269.9999
  0
LINE
  8
_1-d_
  6
CONTINUOUS
 62
    7
 10
1050
 20
269.9999
 11
1050
 21
89.999802
  0
LINE
  8
_1-d_
  6
CONTINUOUS
 62
    7
 10
650.00016
 20
89.999802
 11
650.00016
 21
189.99988
  0
LINE
  8
_1-d_
  6
CONTINUOUS
 62
    7
 10
1050
 20
189.99988
 11
1050
 21
269.9999
  0
LINE
  8
_1-d_
  6
CONTINUOUS
 62
    7
 10
849.99977
 20
89.999802
 11
849.99977
 21
189.99988
  0
LINE
  8
_1-d_
  6
CONTINUOUS
 62
    7
 10
285.00001
 20
89.999802
 11
285.00001
 21
189.99988
  0
LINE
  8
_1-d_
  6
CONTINUOUS
 62
    7
 10
685.00003
 20
89.999802
 11
685.00003
 21
189.99988
  0
LINE
  8
_1-d_
  6
CONTINUOUS
 62
    7
 10
885.00013
 20
89.999802
 11
885.00013
 21
189.99988
  0
LINE
  8
_1-d_
  6
CONTINUOUS
 62
    7
 10
1015
 20
189.99988
 11
1015
 21
269.9999
  0
LINE
  8
_1-d_
  6
CONTINUOUS
 62
    7
 10
1550.0004
 20
189.99988
 11
1550.0004
 21
269.9999
  0
LINE
  8
_1-d_
  6
CONTINUOUS
 62
    7
 10
1585.0001
 20
189.99988
 11
1585.0001
 21
269.9999
  0
LINE
  8
_1-8_
  6
CONTINUOUS
 62
    7
 10
583.33369
 20
1810.0425
 11
583.33369
 21
2270.0426
  0
LINE
  8
_1-8_
  6
CONTINUOUS
 62
    7
 10
672.66676
 20
2373.0629
 11
1427.3343
 21
2373.0624
  0
LINE
  8
_1-2_仕上
  6
CONTINUOUS
 62
    3
 10
1068.2561
 20
2038.0734
 11
1073.0608
 21
2041.0261
  0
LINE
  8
_1-2_仕上
  6
CONTINUOUS
 62
    3
 10
1073.0608
 20
2041.0261
 11
1077.8426
 21
2044.0382
  0
LINE
  8
_1-2_仕上
  6
CONTINUOUS
 62
    3
 10
1077.8426
 20
2044.0382
 11
1082.5794
 21
2047.1624
  0
LINE
  8
_1-2_仕上
  6
CONTINUOUS
 62
    3
 10
1082.5794
 20
2047.1624
 11
1087.2181
 21
2050.4605
  0
LINE
  8
_1-2_仕上
  6
CONTINUOUS
 62
    3
 10
1087.2181
 20
2050.4605
 11
1091.6743
 21
2053.9987
  0
LINE
  8
_1-2_仕上
  6
CONTINUOUS
 62
    3
 10
1091.6743
 20
2053.9987
 11
1095.8543
 21
2057.835
  0
LINE
  8
_1-2_仕上
  6
CONTINUOUS
 62
    3
 10
1095.8543
 20
2057.835
 11
1099.6671
 21
2062.0375
  0
LINE
  8
_1-2_仕上
  6
CONTINUOUS
 62
    3
 10
1099.6671
 20
2062.0375
 11
1103.0209
 21
2066.6651
  0
LINE
  8
_1-2_仕上
  6
CONTINUOUS
 62
    3
 10
1103.0209
 20
2066.6651
 11
1105.9458
 21
2071.6711
  0
LINE
  8
_1-2_仕上
  6
CONTINUOUS
 62
    3
 10
1105.9458
 20
2071.6711
 11
1108.7097
 21
2076.7829
  0
LINE
  8
_1-2_仕上
  6
CONTINUOUS
 62
    3
 10
1108.7097
 20
2076.7829
 11
1111.5932
 21
2081.7122
  0
LINE
  8
_1-2_仕上
  6
CONTINUOUS
 62
    3
 10
1111.5932
 20
2081.7122
 11
1114.8918
 21
2086.1705
  0
LINE
  8
_1-2_仕上
  6
CONTINUOUS
 62
    3
 10
1114.8918
 20
2086.1705
 11
1118.8847
 21
2089.8668
  0
LINE
  8
_1-2_仕上
  6
CONTINUOUS
 62
    3
 10
1118.8847
 20
2089.8668
 11
1123.6601
 21
2092.7247
  0
LINE
  8
_1-2_仕上
  6
CONTINUOUS
 62
    3
 10
1123.6601
 20
2092.7247
 11
1128.9268
 21
2095.0598
  0
LINE
  8
_1-2_仕上
  6
CONTINUOUS
 62
    3
 10
1128.9268
 20
2095.0598
 11
1131.4203
 21
2096.056
  0
LINE
  8
_1-2_仕上
  6
CONTINUOUS
 62
    3
 10
1128.9268
 20
2095.0598
 11
1132.3952
 21
2095.6111
  0
LINE
  8
_1-2_仕上
  6
CONTINUOUS
 62
    3
 10
1132.3952
 20
2095.6111
 11
1135.8947
 21
2096.0904
  0
LINE
  8
_1-2_仕上
  6
CONTINUOUS
 62
    3
 10
1135.8947
 20
2096.0904
 11
1139.4519
 21
2096.4338
  0
LINE
  8
_1-2_仕上
  6
CONTINUOUS
 62
    3
 10
1139.4519
 20
2096.4338
 11
1143.0965
 21
2096.5638
  0
LINE
  8
_1-2_仕上
  6
CONTINUOUS
 62
    3
 10
1143.0965
 20
2096.5638
 11
1146.8521
 21
2096.4163
  0
LINE
  8
_1-2_仕上
  6
CONTINUOUS
 62
    3
 10
1146.8521
 20
2096.4163
 11
1150.6097
 21
2095.8689
  0
LINE
  8
_1-2_仕上
  6
CONTINUOUS
 62
    3
 10
1150.6097
 20
2095.8689
 11
1154.1155
 21
2094.7711
  0
LINE
  8
_1-2_仕上
  6
CONTINUOUS
 62
    3
 10
1154.1155
 20
2094.7711
 11
1157.1033
 21
2092.9511
  0
LINE
  8
_1-2_仕上
  6
CONTINUOUS
 62
    3
 10
1157.1033
 20
2092.9511
 11
1159.3587
 21
2090.2912
  0
LINE
  8
_1-2_仕上
  6
CONTINUOUS
 62
    3
 10
1159.3587
 20
2090.2912
 11
1161.117
 21
2087.0977
  0
LINE
  8
_1-2_仕上
  6
CONTINUOUS
 62
    3
 10
1066.3698
 20
2024.8755
 11
1072.0001
 21
2025.7116
  0
LINE
  8
_1-2_仕上
  6
CONTINUOUS
 62
    3
 10
1072.0001
 20
2025.7116
 11
1077.5959
 21
2026.6575
  0
LINE
  8
_1-2_仕上
  6
CONTINUOUS
 62
    3
 10
1077.5959
 20
2026.6575
 11
1083.1299
 21
2027.8136
  0
LINE
  8
_1-2_仕上
  6
CONTINUOUS
 62
    3
 10
1083.1299
 20
2027.8136
 11
1088.5647
 21
2029.2925
  0
LINE
  8
_1-2_仕上
  6
CONTINUOUS
 62
    3
 10
1088.5647
 20
2029.2925
 11
1093.872
 21
2031.1966
  0
LINE
  8
_1-2_仕上
  6
CONTINUOUS
 62
    3
 10
1093.872
 20
2031.1966
 11
1099.0217
 21
2033.5515
  0
LINE
  8
_1-2_仕上
  6
CONTINUOUS
 62
    3
 10
1099.0217
 20
2033.5515
 11
1103.9923
 21
2036.3122
  0
LINE
  8
_1-2_仕上
  6
CONTINUOUS
 62
    3
 10
1103.9923
 20
2036.3122
 11
1108.756
 21
2039.4465
  0
LINE
  8
_1-2_仕上
  6
CONTINUOUS
 62
    3
 10
1108.756
 20
2039.4465
 11
1113.2909
 21
2042.8988
  0
LINE
  8
_1-2_仕上
  6
CONTINUOUS
 62
    3
 10
1113.2909
 20
2042.8988
 11
1117.5745
 21
2046.6358
  0
LINE
  8
_1-2_仕上
  6
CONTINUOUS
 62
    3
 10
1117.5745
 20
2046.6358
 11
1121.6405
 21
2050.5894
  0
LINE
  8
_1-2_仕上
  6
CONTINUOUS
 62
    3
 10
1121.6405
 20
2050.5894
 11
1125.5701
 21
2054.6705
  0
LINE
  8
_1-2_仕上
  6
CONTINUOUS
 62
    3
 10
1125.5701
 20
2054.6705
 11
1129.4499
 21
2058.7881
  0
LINE
  8
_1-2_仕上
  6
CONTINUOUS
 62
    3
 10
1129.4499
 20
2058.7881
 11
1133.3622
 21
2062.8516
  0
LINE
  8
_1-2_仕上
  6
CONTINUOUS
 62
    3
 10
1133.3622
 20
2062.8516
 11
1137.3962
 21
2066.772
  0
LINE
  8
_1-2_仕上
  6
CONTINUOUS
 62
    3
 10
1137.3962
 20
2066.772
 11
1141.6291
 21
2070.4717
  0
LINE
  8
_1-2_仕上
  6
CONTINUOUS
 62
    3
 10
1141.6291
 20
2070.4717
 11
1146.0553
 21
2073.9478
  0
LINE
  8
_1-2_仕上
  6
CONTINUOUS
 62
    3
 10
1146.0553
 20
2073.9478
 11
1150.6392
 21
2077.2533
  0
LINE
  8
_1-2_仕上
  6
CONTINUOUS
 62
    3
 10
1150.6392
 20
2077.2533
 11
1155.3324
 21
2080.4302
  0
LINE
  8
_1-2_仕上
  6
CONTINUOUS
 62
    3
 10
1155.3324
 20
2080.4302
 11
1160.0995
 21
2083.5274
  0
LINE
  8
_1-2_仕上
  6
CONTINUOUS
 62
    3
 10
1160.0995
 20
2083.5274
 11
1163.4744
 21
2085.6841
  0
LINE
  8
_1-2_仕上
  6
CONTINUOUS
 62
    3
 10
1163.4744
 20
2085.6841
 11
1168.7406
 21
2087.8687
  0
LINE
  8
_1-2_仕上
  6
CONTINUOUS
 62
    3
 10
1168.7406
 20
2087.8687
 11
1174.0368
 21
2089.9081
  0
LINE
  8
_1-2_仕上
  6
CONTINUOUS
 62
    3
 10
1174.0368
 20
2089.9081
 11
1179.3961
 21
2091.6588
  0
LINE
  8
_1-2_仕上
  6
CONTINUOUS
 62
    3
 10
1179.3961
 20
2091.6588
 11
1184.8487
 21
2092.9781
  0
LINE
  8
_1-2_仕上
  6
CONTINUOUS
 62
    3
 10
1184.8487
 20
2092.9781
 11
1190.4084
 21
2093.7865
  0
LINE
  8
_1-2_仕上
  6
CONTINUOUS
 62
    3
 10
1190.4084
 20
2093.7865
 11
1196.0481
 21
2094.1413
  0
LINE
  8
_1-2_仕上
  6
CONTINUOUS
 62
    3
 10
1196.0481
 20
2094.1413
 11
1201.735
 21
2094.1205
  0
LINE
  8
_1-2_仕上
  6
CONTINUOUS
 62
    3
 10
1201.735
 20
2094.1205
 11
1207.4387
 21
2093.8003
  0
LINE
  8
_1-2_仕上
  6
CONTINUOUS
 62
    3
 10
1207.4387
 20
2093.8003
 11
1213.1323
 21
2093.2602
  0
LINE
  8
_1-2_仕上
  6
CONTINUOUS
 62
    3
 10
1213.1323
 20
2093.2602
 11
1218.7821
 21
2092.5654
  0
LINE
  8
_1-2_仕上
  6
CONTINUOUS
 62
    3
 10
1218.7821
 20
2092.5654
 11
1224.3824
 21
2091.7013
  0
LINE
  8
_1-2_仕上
  6
CONTINUOUS
 62
    3
 10
1224.3824
 20
2091.7013
 11
1229.9347
 21
2090.6492
  0
LINE
  8
_1-2_仕上
  6
CONTINUOUS
 62
    3
 10
1229.9347
 20
2090.6492
 11
1235.4311
 21
2089.3732
  0
LINE
  8
_1-2_仕上
  6
CONTINUOUS
 62
    3
 10
1235.4311
 20
2089.3732
 11
1240.875
 21
2087.8509
  0
LINE
  8
_1-2_仕上
  6
CONTINUOUS
 62
    3
 10
1240.875
 20
2087.8509
 11
1246.2638
 21
2086.049
  0
LINE
  8
_1-2_仕上
  6
CONTINUOUS
 62
    3
 10
1246.2638
 20
2086.049
 11
1251.5761
 21
2083.9414
  0
LINE
  8
_1-2_仕上
  6
CONTINUOUS
 62
    3
 10
1251.5761
 20
2083.9414
 11
1256.7622
 21
2081.5051
  0
LINE
  8
_1-2_仕上
  6
CONTINUOUS
 62
    3
 10
1256.7622
 20
2081.5051
 11
1261.7463
 21
2078.7243
  0
LINE
  8
_1-2_仕上
  6
CONTINUOUS
 62
    3
 10
1261.7463
 20
2078.7243
 11
1266.464
 21
2075.5739
  0
LINE
  8
_1-2_仕上
  6
CONTINUOUS
 62
    3
 10
1266.464
 20
2075.5739
 11
1270.8467
 21
2072.0303
  0
LINE
  8
_1-2_仕上
  6
CONTINUOUS
 62
    3
 10
1270.8467
 20
2072.0303
 11
1274.8337
 21
2068.0834
  0
LINE
  8
_1-2_仕上
  6
CONTINUOUS
 62
    3
 10
1274.8337
 20
2068.0834
 11
1278.476
 21
2063.7908
  0
LINE
  8
_1-2_仕上
  6
CONTINUOUS
 62
    3
 10
1278.476
 20
2063.7908
 11
1281.8649
 21
2059.2478
  0
LINE
  8
_1-2_仕上
  6
CONTINUOUS
 62
    3
 10
1281.8649
 20
2059.2478
 11
1285.0962
 21
2054.5509
  0
LINE
  8
_1-2_仕上
  6
CONTINUOUS
 62
    3
 10
1285.0962
 20
2054.5509
 11
1286.9741
 21
2051.7455
  0
LINE
  8
_1-2_仕上
  6
CONTINUOUS
 62
    3
 10
1285.0962
 20
2054.5509
 11
1287.6226
 21
2049.3191
  0
LINE
  8
_1-2_仕上
  6
CONTINUOUS
 62
    3
 10
1287.6226
 20
2049.3191
 11
1290.0148
 21
2044.0637
  0
LINE
  8
_1-2_仕上
  6
CONTINUOUS
 62
    3
 10
1290.0148
 20
2044.0637
 11
1292.1428
 21
2038.7717
  0
LINE
  8
_1-2_仕上
  6
CONTINUOUS
 62
    3
 10
1292.1428
 20
2038.7717
 11
1293.8714
 21
2033.4139
  0
LINE
  8
_1-2_仕上
  6
CONTINUOUS
 62
    3
 10
1293.8714
 20
2033.4139
 11
1295.0691
 21
2027.9759
  0
LINE
  8
_1-2_仕上
  6
CONTINUOUS
 62
    3
 10
1295.0691
 20
2027.9759
 11
1295.6075
 21
2022.4357
  0
LINE
  8
_1-2_仕上
  6
CONTINUOUS
 62
    3
 10
1295.6075
 20
2022.4357
 11
1295.4531
 21
2016.8159
  0
LINE
  8
_1-2_仕上
  6
CONTINUOUS
 62
    3
 10
1295.4531
 20
2016.8159
 11
1294.6996
 21
2011.1713
  0
LINE
  8
_1-2_仕上
  6
CONTINUOUS
 62
    3
 10
1294.6996
 20
2011.1713
 11
1293.4446
 21
2005.5673
  0
LINE
  8
_1-2_仕上
  6
CONTINUOUS
 62
    3
 10
1293.4446
 20
2005.5673
 11
1291.7739
 21
2000.0682
  0
LINE
  8
_1-2_仕上
  6
CONTINUOUS
 62
    3
 10
1291.7739
 20
2000.0682
 11
1289.7154
 21
1994.7497
  0
LINE
  8
_1-2_仕上
  6
CONTINUOUS
 62
    3
 10
1289.7154
 20
1994.7497
 11
1287.2136
 21
1989.6866
  0
LINE
  8
_1-2_仕上
  6
CONTINUOUS
 62
    3
 10
1287.2136
 20
1989.6866
 11
1284.2082
 21
1984.958
  0
LINE
  8
_1-2_仕上
  6
CONTINUOUS
 62
    3
 10
1284.2082
 20
1984.958
 11
1280.7059
 21
1980.5912
  0
LINE
  8
_1-2_仕上
  6
CONTINUOUS
 62
    3
 10
1280.7059
 20
1980.5912
 11
1276.8127
 21
1976.5057
  0
LINE
  8
_1-2_仕上
  6
CONTINUOUS
 62
    3
 10
1276.8127
 20
1976.5057
 11
1272.6513
 21
1972.6167
  0
LINE
  8
_1-2_仕上
  6
CONTINUOUS
 62
    3
 10
1272.6513
 20
1972.6167
 11
1268.3379
 21
1968.8408
  0
LINE
  8
_1-2_仕上
  6
CONTINUOUS
 62
    3
 10
1268.3379
 20
1968.8408
 11
1267.1749
 21
1967.8414
  0
LINE
  8
_1-2_仕上
  6
CONTINUOUS
 62
    3
 10
1268.3379
 20
1968.8408
 11
1263.3876
 21
1966.0655
  0
LINE
  8
_1-2_仕上
  6
CONTINUOUS
 62
    3
 10
1263.3876
 20
1966.0655
 11
1258.4183
 21
1963.3412
  0
LINE
  8
_1-2_仕上
  6
CONTINUOUS
 62
    3
 10
1258.4183
 20
1963.3412
 11
1253.4079
 21
1960.7163
  0
LINE
  8
_1-2_仕上
  6
CONTINUOUS
 62
    3
 10
1253.4079
 20
1960.7163
 11
1248.3287
 21
1958.2404
  0
LINE
  8
_1-2_仕上
  6
CONTINUOUS
 62
    3
 10
1248.3287
 20
1958.2404
 11
1243.1683
 21
1955.962
  0
LINE
  8
_1-2_仕上
  6
CONTINUOUS
 62
    3
 10
1243.1683
 20
1955.962
 11
1237.8976
 21
1953.9303
  0
LINE
  8
_1-2_仕上
  6
CONTINUOUS
 62
    3
 10
1237.8976
 20
1953.9303
 11
1232.5158
 21
1952.1745
  0
LINE
  8
_1-2_仕上
  6
CONTINUOUS
 62
    3
 10
1232.5158
 20
1952.1745
 11
1227.0449
 21
1950.7007
  0
LINE
  8
_1-2_仕上
  6
CONTINUOUS
 62
    3
 10
1227.0449
 20
1950.7007
 11
1221.5057
 21
1949.507
  0
LINE
  8
_1-2_仕上
  6
CONTINUOUS
 62
    3
 10
1221.5057
 20
1949.507
 11
1215.9158
 21
1948.5937
  0
LINE
  8
_1-2_仕上
  6
CONTINUOUS
 62
    3
 10
1215.9158
 20
1948.5937
 11
1210.3014
 21
1947.9549
  0
LINE
  8
_1-2_仕上
  6
CONTINUOUS
 62
    3
 10
1210.3014
 20
1947.9549
 11
1204.6686
 21
1947.5414
  0
LINE
  8
_1-2_仕上
  6
CONTINUOUS
 62
    3
 10
1204.6686
 20
1947.5414
 11
1199.0211
 21
1947.3001
  0
LINE
  8
_1-2_仕上
  6
CONTINUOUS
 62
    3
 10
1199.0211
 20
1947.3001
 11
1193.3611
 21
1947.1692
  0
LINE
  8
_1-2_仕上
  6
CONTINUOUS
 62
    3
 10
1193.3611
 20
1947.1692
 11
1188.4549
 21
1947.1002
  0
LINE
  8
_1-2_仕上
  6
CONTINUOUS
 62
    3
 10
1125.2123
 20
1946.5803
 11
1130.506
 21
1944.4378
  0
LINE
  8
_1-2_仕上
  6
CONTINUOUS
 62
    3
 10
1130.506
 20
1944.4378
 11
1135.8304
 21
1942.3197
  0
LINE
  8
_1-2_仕上
  6
CONTINUOUS
 62
    3
 10
1135.8304
 20
1942.3197
 11
1141.2048
 21
1940.3679
  0
LINE
  8
_1-2_仕上
  6
CONTINUOUS
 62
    3
 10
1141.2048
 20
1940.3679
 11
1146.6306
 21
1938.7404
  0
LINE
  8
_1-2_仕上
  6
CONTINUOUS
 62
    3
 10
1146.6306
 20
1938.7404
 11
1152.1231
 21
1937.5926
  0
LINE
  8
_1-2_仕上
  6
CONTINUOUS
 62
    3
 10
1152.1231
 20
1937.5926
 11
1157.6934
 21
1937.0786
  0
LINE
  8
_1-2_仕上
  6
CONTINUOUS
 62
    3
 10
1157.6934
 20
1937.0786
 11
1163.3289
 21
1937.1591
  0
LINE
  8
_1-2_仕上
  6
CONTINUOUS
 62
    3
 10
1163.3289
 20
1937.1591
 11
1169.0054
 21
1937.5777
  0
LINE
  8
_1-2_仕上
  6
CONTINUOUS
 62
    3
 10
1169.0054
 20
1937.5777
 11
1170.0719
 21
1937.6718
  0
LINE
  8
_1-2_仕上
  6
CONTINUOUS
 62
    3
 10
1169.0054
 20
1937.5777
 11
1173.6469
 21
1938.613
  0
LINE
  8
_1-2_仕上
  6
CONTINUOUS
 62
    3
 10
1173.6469
 20
1938.613
 11
1178.102
 21
1940.0452
  0
LINE
  8
_1-2_仕上
  6
CONTINUOUS
 62
    3
 10
1178.102
 20
1940.0452
 11
1182.1895
 21
1942.2756
  0
LINE
  8
_1-2_仕上
  6
CONTINUOUS
 62
    3
 10
1182.1895
 20
1942.2756
 11
1185.6742
 21
1945.4755
  0
LINE
  8
_1-2_仕上
  6
CONTINUOUS
 62
    3
 10
1185.6742
 20
1945.4755
 11
1188.2579
 21
1949.4863
  0
LINE
  8
_1-2_仕上
  6
CONTINUOUS
 62
    3
 10
1188.2579
 20
1949.4863
 11
1189.6654
 21
1954.0726
  0
LINE
  8
_1-2_仕上
  6
CONTINUOUS
 62
    3
 10
1189.6654
 20
1954.0726
 11
1189.7691
 21
1958.8157
  0
LINE
  8
_1-2_仕上
  6
CONTINUOUS
 62
    3
 10
1189.7691
 20
1958.8157
 11
1188.5138
 21
1963.2598
  0
LINE
  8
_1-2_仕上
  6
CONTINUOUS
 62
    3
 10
1188.5138
 20
1963.2598
 11
1186.1683
 21
1967.3027
  0
LINE
  8
_1-2_仕上
  6
CONTINUOUS
 62
    3
 10
1186.1683
 20
1967.3027
 11
1183.2708
 21
1971.1402
  0
LINE
  8
_1-2_仕上
  6
CONTINUOUS
 62
    3
 10
1074.5148
 20
2017.5592
 11
1080.2193
 21
2016.588
  0
LINE
  8
_1-2_仕上
  6
CONTINUOUS
 62
    3
 10
1080.2193
 20
2016.588
 11
1085.9052
 21
2015.7811
  0
LINE
  8
_1-2_仕上
  6
CONTINUOUS
 62
    3
 10
1085.9052
 20
2015.7811
 11
1091.5496
 21
2015.3015
  0
LINE
  8
_1-2_仕上
  6
CONTINUOUS
 62
    3
 10
1091.5496
 20
2015.3015
 11
1097.1325
 21
2015.3102
  0
LINE
  8
_1-2_仕上
  6
CONTINUOUS
 62
    3
 10
1097.1325
 20
2015.3102
 11
1102.6341
 21
2015.9672
  0
LINE
  8
_1-2_仕上
  6
CONTINUOUS
 62
    3
 10
1102.6341
 20
2015.9672
 11
1108.0548
 21
2017.3014
  0
LINE
  8
_1-2_仕上
  6
CONTINUOUS
 62
    3
 10
1108.0548
 20
2017.3014
 11
1113.4062
 21
2019.1327
  0
LINE
  8
_1-2_仕上
  6
CONTINUOUS
 62
    3
 10
1113.4062
 20
2019.1327
 11
1118.7142
 21
2021.2804
  0
LINE
  8
_1-2_仕上
  6
CONTINUOUS
 62
    3
 10
1118.7142
 20
2021.2804
 11
1123.9894
 21
2023.5502
  0
LINE
  8
_1-2_仕上
  6
CONTINUOUS
 62
    3
 10
1123.9894
 20
2023.5502
 11
1129.2586
 21
2025.7789
  0
LINE
  8
_1-2_仕上
  6
CONTINUOUS
 62
    3
 10
1129.2586
 20
2025.7789
 11
1134.5224
 21
2027.9237
  0
LINE
  8
_1-2_仕上
  6
CONTINUOUS
 62
    3
 10
1134.5224
 20
2027.9237
 11
1139.786
 21
2030.0049
  0
LINE
  8
_1-2_仕上
  6
CONTINUOUS
 62
    3
 10
1139.786
 20
2030.0049
 11
1145.0436
 21
2032.0339
  0
LINE
  8
_1-2_仕上
  6
CONTINUOUS
 62
    3
 10
1145.0436
 20
2032.0339
 11
1150.3012
 21
2034.0253
  0
LINE
  8
_1-2_仕上
  6
CONTINUOUS
 62
    3
 10
1150.3012
 20
2034.0253
 11
1155.5603
 21
2035.9989
  0
LINE
  8
_1-2_仕上
  6
CONTINUOUS
 62
    3
 10
1155.5603
 20
2035.9989
 11
1155.4868
 21
2031.1555
  0
LINE
  8
_1-2_仕上
  6
CONTINUOUS
 62
    3
 10
1155.4868
 20
2031.1555
 11
1155.4172
 21
2026.3176
  0
LINE
  8
_1-2_仕上
  6
CONTINUOUS
 62
    3
 10
1155.4172
 20
2026.3176
 11
1155.3475
 21
2021.4737
  0
LINE
  8
_1-2_仕上
  6
CONTINUOUS
 62
    3
 10
1155.3475
 20
2021.4737
 11
1155.2745
 21
2016.6348
  0
LINE
  8
_1-2_仕上
  6
CONTINUOUS
 62
    3
 10
1155.2745
 20
2016.6348
 11
1155.2054
 21
2011.7966
  0
LINE
  8
_1-2_仕上
  6
CONTINUOUS
 62
    3
 10
1155.2054
 20
2011.7966
 11
1155.1352
 21
2006.9529
  0
LINE
  8
_1-2_仕上
  6
CONTINUOUS
 62
    3
 10
1155.1352
 20
2006.9529
 11
1155.0624
 21
2002.115
  0
LINE
  8
_1-2_仕上
  6
CONTINUOUS
 62
    3
 10
1155.0624
 20
2002.115
 11
1154.9929
 21
1997.2718
  0
LINE
  8
_1-2_仕上
  6
CONTINUOUS
 62
    3
 10
1154.9929
 20
1997.2718
 11
1154.9206
 21
1992.4322
  0
LINE
  8
_1-2_仕上
  6
CONTINUOUS
 62
    3
 10
1154.9206
 20
1992.4322
 11
1154.8503
 21
1987.5903
  0
LINE
  8
_1-2_仕上
  6
CONTINUOUS
 62
    3
 10
1183.2708
 20
1971.1402
 11
1182.1135
 21
1972.1604
  0
LINE
  8
_1-2_仕上
  6
CONTINUOUS
 62
    3
 10
1182.1135
 20
1972.1604
 11
1180.45
 21
1973.3941
  0
LINE
  8
_1-2_仕上
  6
CONTINUOUS
 62
    3
 10
1180.45
 20
1973.3941
 11
1178.3465
 21
1974.8055
  0
LINE
  8
_1-2_仕上
  6
CONTINUOUS
 62
    3
 10
1178.3465
 20
1974.8055
 11
1175.8597
 21
1976.3605
  0
LINE
  8
_1-2_仕上
  6
CONTINUOUS
 62
    3
 10
1175.8597
 20
1976.3605
 11
1173.0246
 21
1978.028
  0
LINE
  8
_1-2_仕上
  6
CONTINUOUS
 62
    3
 10
1173.0246
 20
1978.028
 11
1169.8917
 21
1979.7868
  0
LINE
  8
_1-2_仕上
  6
CONTINUOUS
 62
    3
 10
1169.8917
 20
1979.7868
 11
1166.4914
 21
1981.6148
  0
LINE
  8
_1-2_仕上
  6
CONTINUOUS
 62
    3
 10
1166.4914
 20
1981.6148
 11
1162.8491
 21
1983.4922
  0
LINE
  8
_1-2_仕上
  6
CONTINUOUS
 62
    3
 10
1162.8491
 20
1983.4922
 11
1158.9977
 21
1985.4046
  0
LINE
  8
_1-2_仕上
  6
CONTINUOUS
 62
    3
 10
1158.9977
 20
1985.4046
 11
1154.9582
 21
1987.3379
  0
LINE
  8
_1-2_仕上
  6
CONTINUOUS
 62
    3
 10
1154.9582
 20
1987.3379
 11
1150.7456
 21
1989.2793
  0
LINE
  8
_1-2_仕上
  6
CONTINUOUS
 62
    3
 10
1150.7456
 20
1989.2793
 11
1146.3862
 21
1991.2232
  0
LINE
  8
_1-2_仕上
  6
CONTINUOUS
 62
    3
 10
1146.3862
 20
1991.2232
 11
1141.8922
 21
1993.1567
  0
LINE
  8
_1-2_仕上
  6
CONTINUOUS
 62
    3
 10
1141.8922
 20
1993.1567
 11
1137.2861
 21
1995.0748
  0
LINE
  8
_1-2_仕上
  6
CONTINUOUS
 62
    3
 10
1137.2861
 20
1995.0748
 11
1132.5803
 21
1996.9732
  0
LINE
  8
_1-2_仕上
  6
CONTINUOUS
 62
    3
 10
1132.5803
 20
1996.9732
 11
1127.7933
 21
1998.8423
  0
LINE
  8
_1-2_仕上
  6
CONTINUOUS
 62
    3
 10
1127.7933
 20
1998.8423
 11
1122.9427
 21
2000.6808
  0
LINE
  8
_1-2_仕上
  6
CONTINUOUS
 62
    3
 10
1122.9427
 20
2000.6808
 11
1118.0479
 21
2002.4842
  0
LINE
  8
_1-2_仕上
  6
CONTINUOUS
 62
    3
 10
1118.0479
 20
2002.4842
 11
1113.1298
 21
2004.2516
  0
LINE
  8
_1-2_仕上
  6
CONTINUOUS
 62
    3
 10
1113.1298
 20
2004.2516
 11
1108.2067
 21
2005.9716
  0
LINE
  8
_1-2_仕上
  6
CONTINUOUS
 62
    3
 10
1108.2067
 20
2005.9716
 11
1103.298
 21
2007.6448
  0
LINE
  8
_1-2_仕上
  6
CONTINUOUS
 62
    3
 10
1103.298
 20
2007.6448
 11
1098.4284
 21
2009.2709
  0
LINE
  8
_1-2_仕上
  6
CONTINUOUS
 62
    3
 10
1098.4284
 20
2009.2709
 11
1093.6243
 21
2010.8395
  0
LINE
  8
_1-2_仕上
  6
CONTINUOUS
 62
    3
 10
1093.6243
 20
2010.8395
 11
1088.9037
 21
2012.3508
  0
LINE
  8
_1-2_仕上
  6
CONTINUOUS
 62
    3
 10
1088.9037
 20
2012.3508
 11
1084.2976
 21
2013.7988
  0
LINE
  8
_1-2_仕上
  6
CONTINUOUS
 62
    3
 10
1084.2976
 20
2013.7988
 11
1079.8296
 21
2015.1758
  0
LINE
  8
_1-2_仕上
  6
CONTINUOUS
 62
    3
 10
1079.8296
 20
2015.1758
 11
1075.5253
 21
2016.4779
  0
LINE
  8
_1-2_仕上
  6
CONTINUOUS
 62
    3
 10
1075.5253
 20
2016.4779
 11
1071.407
 21
2017.6997
  0
LINE
  8
_1-2_仕上
  6
CONTINUOUS
 62
    3
 10
1071.407
 20
2017.6997
 11
1067.5016
 21
2018.8325
  0
LINE
  8
_1-2_仕上
  6
CONTINUOUS
 62
    3
 10
1155.5603
 20
2035.9989
 11
1155.6271
 21
2036.0219
  0
LINE
  8
_1-2_仕上
  6
CONTINUOUS
 62
    3
 10
1078.5904
 20
1935.2664
 11
1078.5904
 21
1924.1516
  0
LINE
  8
_1-2_仕上
  6
CONTINUOUS
 62
    3
 10
1078.5904
 20
1924.1516
 11
1112.3664
 21
1924.1516
  0
LINE
  8
_1-2_仕上
  6
CONTINUOUS
 62
    3
 10
1112.3664
 20
1935.2664
 11
1112.3664
 21
1924.1516
  0
LINE
  8
_1-2_仕上
  6
CONTINUOUS
 62
    3
 10
1078.5904
 20
1935.2664
 11
1112.3664
 21
1935.2664
  0
LINE
  8
_1-2_仕上
  6
CONTINUOUS
 62
    3
 10
1096.5483
 20
1935.2664
 11
1096.5483
 21
1957.4214
  0
LINE
  8
_1-2_仕上
  6
CONTINUOUS
 62
    3
 10
1089.0135
 20
1964.954
 11
1050
 21
1964.954
  0
LINE
  8
_1-2_仕上
  6
CONTINUOUS
 62
    3
 10
1062.9411
 20
2049.0078
 11
1062.9411
 21
2012.5399
  0
LINE
  8
_1-2_仕上
  6
CONTINUOUS
 62
    3
 10
1068.2561
 20
2038.0734
 11
1067.7043
 21
2037.7617
  0
LINE
  8
_1-2_仕上
  6
CONTINUOUS
 62
    3
 10
1067.7043
 20
2037.7617
 11
1067.1396
 21
2037.434
  0
LINE
  8
_1-2_仕上
  6
CONTINUOUS
 62
    3
 10
1067.1396
 20
2037.434
 11
1066.568
 21
2037.0906
  0
LINE
  8
_1-2_仕上
  6
CONTINUOUS
 62
    3
 10
1066.568
 20
2037.0906
 11
1065.9841
 21
2036.7306
  0
LINE
  8
_1-2_仕上
  6
CONTINUOUS
 62
    3
 10
1065.9841
 20
2036.7306
 11
1065.3885
 21
2036.3594
  0
LINE
  8
_1-2_仕上
  6
CONTINUOUS
 62
    3
 10
1065.3885
 20
2036.3594
 11
1064.7827
 21
2035.9692
  0
LINE
  8
_1-2_仕上
  6
CONTINUOUS
 62
    3
 10
1064.7827
 20
2035.9692
 11
1064.1669
 21
2035.5654
  0
LINE
  8
_1-2_仕上
  6
CONTINUOUS
 62
    3
 10
1064.1669
 20
2035.5654
 11
1063.5389
 21
2035.1437
  0
LINE
  8
_1-2_仕上
  6
CONTINUOUS
 62
    3
 10
1063.5389
 20
2035.1437
 11
1062.9022
 21
2034.7102
  0
LINE
  8
_1-2_仕上
  6
CONTINUOUS
 62
    3
 10
1066.3698
 20
2024.8755
 11
1065.9606
 21
2024.797
  0
LINE
  8
_1-2_仕上
  6
CONTINUOUS
 62
    3
 10
1065.9606
 20
2024.797
 11
1065.557
 21
2024.7241
  0
LINE
  8
_1-2_仕上
  6
CONTINUOUS
 62
    3
 10
1065.557
 20
2024.7241
 11
1065.1608
 21
2024.6518
  0
LINE
  8
_1-2_仕上
  6
CONTINUOUS
 62
    3
 10
1065.1608
 20
2024.6518
 11
1064.7686
 21
2024.5813
  0
LINE
  8
_1-2_仕上
  6
CONTINUOUS
 62
    3
 10
1064.7686
 20
2024.5813
 11
1064.3846
 21
2024.5142
  0
LINE
  8
_1-2_仕上
  6
CONTINUOUS
 62
    3
 10
1064.3846
 20
2024.5142
 11
1064.0043
 21
2024.4514
  0
LINE
  8
_1-2_仕上
  6
CONTINUOUS
 62
    3
 10
1064.0043
 20
2024.4514
 11
1063.6312
 21
2024.3922
  0
LINE
  8
_1-2_仕上
  6
CONTINUOUS
 62
    3
 10
1063.6312
 20
2024.3922
 11
1063.2625
 21
2024.3346
  0
LINE
  8
_1-2_仕上
  6
CONTINUOUS
 62
    3
 10
1063.2625
 20
2024.3346
 11
1062.9022
 21
2024.2787
  0
LINE
  8
_1-2_仕上
  6
CONTINUOUS
 62
    3
 10
1074.5148
 20
2017.5592
 11
1072.9596
 21
2017.8888
  0
LINE
  8
_1-2_仕上
  6
CONTINUOUS
 62
    3
 10
1072.9596
 20
2017.8888
 11
1071.4678
 21
2018.2075
  0
LINE
  8
_1-2_仕上
  6
CONTINUOUS
 62
    3
 10
1071.4678
 20
2018.2075
 11
1070.0441
 21
2018.5163
  0
LINE
  8
_1-2_仕上
  6
CONTINUOUS
 62
    3
 10
1070.0441
 20
2018.5163
 11
1068.6871
 21
2018.8149
  0
LINE
  8
_1-2_仕上
  6
CONTINUOUS
 62
    3
 10
1068.6871
 20
2018.8149
 11
1067.396
 21
2019.1027
  0
LINE
  8
_1-2_仕上
  6
CONTINUOUS
 62
    3
 10
1067.396
 20
2019.1027
 11
1066.1731
 21
2019.3821
  0
LINE
  8
_1-2_仕上
  6
CONTINUOUS
 62
    3
 10
1066.1731
 20
2019.3821
 11
1065.0156
 21
2019.6496
  0
LINE
  8
_1-2_仕上
  6
CONTINUOUS
 62
    3
 10
1065.0156
 20
2019.6496
 11
1063.9256
 21
2019.9079
  0
LINE
  8
_1-2_仕上
  6
CONTINUOUS
 62
    3
 10
1063.9256
 20
2019.9079
 11
1062.9022
 21
2020.1548
  0
LINE
  8
_1-2_仕上
  6
CONTINUOUS
 62
    3
 10
1067.5016
 20
2018.8325
 11
1066.8932
 21
2018.9983
  0
LINE
  8
_1-2_仕上
  6
CONTINUOUS
 62
    3
 10
1066.8932
 20
2018.9983
 11
1066.3092
 21
2019.1576
  0
LINE
  8
_1-2_仕上
  6
CONTINUOUS
 62
    3
 10
1066.3092
 20
2019.1576
 11
1065.751
 21
2019.315
  0
LINE
  8
_1-2_仕上
  6
CONTINUOUS
 62
    3
 10
1065.751
 20
2019.315
 11
1065.2185
 21
2019.4665
  0
LINE
  8
_1-2_仕上
  6
CONTINUOUS
 62
    3
 10
1065.2185
 20
2019.4665
 11
1064.7132
 21
2019.6119
  0
LINE
  8
_1-2_仕上
  6
CONTINUOUS
 62
    3
 10
1064.7132
 20
2019.6119
 11
1064.2307
 21
2019.7505
  0
LINE
  8
_1-2_仕上
  6
CONTINUOUS
 62
    3
 10
1064.2307
 20
2019.7505
 11
1063.7747
 21
2019.8866
  0
LINE
  8
_1-2_仕上
  6
CONTINUOUS
 62
    3
 10
1063.7747
 20
2019.8866
 11
1063.3451
 21
2020.0182
  0
LINE
  8
_1-2_仕上
  6
CONTINUOUS
 62
    3
 10
1063.3451
 20
2020.0182
 11
1062.9411
 21
2020.1469
  0
LINE
  8
_1-2_仕上
  6
CONTINUOUS
 62
    3
 10
1057.9591
 20
2053.992
 11
1050
 21
2053.992
  0
LINE
  8
_1-2_仕上
  6
CONTINUOUS
 62
    3
 10
1057.9591
 20
1977.4225
 11
1050
 21
1977.4225
  0
LINE
  8
_1-2_仕上
  6
CONTINUOUS
 62
    3
 10
1054.1574
 20
2003.3839
 11
1057.0441
 21
2000.1253
  0
LINE
  8
_1-2_仕上
  6
CONTINUOUS
 62
    3
 10
1057.0441
 20
2000.1253
 11
1060.217
 21
1996.7401
  0
LINE
  8
_1-2_仕上
  6
CONTINUOUS
 62
    3
 10
1060.217
 20
1996.7401
 11
1063.6294
 21
1993.268
  0
LINE
  8
_1-2_仕上
  6
CONTINUOUS
 62
    3
 10
1063.6294
 20
1993.268
 11
1067.2378
 21
1989.7445
  0
LINE
  8
_1-2_仕上
  6
CONTINUOUS
 62
    3
 10
1067.2378
 20
1989.7445
 11
1071.0012
 21
1986.2034
  0
LINE
  8
_1-2_仕上
  6
CONTINUOUS
 62
    3
 10
1071.0012
 20
1986.2034
 11
1074.881
 21
1982.6761
  0
LINE
  8
_1-2_仕上
  6
CONTINUOUS
 62
    3
 10
1074.881
 20
1982.6761
 11
1078.8415
 21
1979.1907
  0
LINE
  8
_1-2_仕上
  6
CONTINUOUS
 62
    3
 10
1078.8415
 20
1979.1907
 11
1082.8496
 21
1975.7715
  0
LINE
  8
_1-2_仕上
  6
CONTINUOUS
 62
    3
 10
1082.8496
 20
1975.7715
 11
1086.8744
 21
1972.4435
  0
LINE
  8
_1-2_仕上
  6
CONTINUOUS
 62
    3
 10
1086.8744
 20
1972.4435
 11
1090.8884
 21
1969.2258
  0
LINE
  8
_1-2_仕上
  6
CONTINUOUS
 62
    3
 10
1090.8884
 20
1969.2258
 11
1094.8662
 21
1966.137
  0
LINE
  8
_1-2_仕上
  6
CONTINUOUS
 62
    3
 10
1094.8662
 20
1966.137
 11
1098.7857
 21
1963.1912
  0
LINE
  8
_1-2_仕上
  6
CONTINUOUS
 62
    3
 10
1098.7857
 20
1963.1912
 11
1102.6264
 21
1960.4023
  0
LINE
  8
_1-2_仕上
  6
CONTINUOUS
 62
    3
 10
1102.6264
 20
1960.4023
 11
1106.3717
 21
1957.7787
  0
LINE
  8
_1-2_仕上
  6
CONTINUOUS
 62
    3
 10
1106.3717
 20
1957.7787
 11
1110.0063
 21
1955.3281
  0
LINE
  8
_1-2_仕上
  6
CONTINUOUS
 62
    3
 10
1110.0063
 20
1955.3281
 11
1113.5185
 21
1953.0553
  0
LINE
  8
_1-2_仕上
  6
CONTINUOUS
 62
    3
 10
1113.5185
 20
1953.0553
 11
1116.8993
 21
1950.9617
  0
LINE
  8
_1-2_仕上
  6
CONTINUOUS
 62
    3
 10
1116.8993
 20
1950.9617
 11
1120.1417
 21
1949.0476
  0
LINE
  8
_1-2_仕上
  6
CONTINUOUS
 62
    3
 10
1120.1417
 20
1949.0476
 11
1123.2416
 21
1947.3081
  0
LINE
  8
_1-2_仕上
  6
CONTINUOUS
 62
    3
 10
1123.2416
 20
1947.3081
 11
1123.4698
 21
1947.2086
  0
LINE
  8
_1-2_仕上
  6
CONTINUOUS
 62
    3
 10
1123.4698
 20
1947.2086
 11
1123.6954
 21
1947.1136
  0
LINE
  8
_1-2_仕上
  6
CONTINUOUS
 62
    3
 10
1123.6954
 20
1947.1136
 11
1123.9194
 21
1947.023
  0
LINE
  8
_1-2_仕上
  6
CONTINUOUS
 62
    3
 10
1123.9194
 20
1947.023
 11
1124.1406
 21
1946.9376
  0
LINE
  8
_1-2_仕上
  6
CONTINUOUS
 62
    3
 10
1124.1406
 20
1946.9376
 11
1124.3596
 21
1946.8567
  0
LINE
  8
_1-2_仕上
  6
CONTINUOUS
 62
    3
 10
1124.3596
 20
1946.8567
 11
1124.5761
 21
1946.7805
  0
LINE
  8
_1-2_仕上
  6
CONTINUOUS
 62
    3
 10
1124.5761
 20
1946.7805
 11
1124.7906
 21
1946.709
  0
LINE
  8
_1-2_仕上
  6
CONTINUOUS
 62
    3
 10
1124.7906
 20
1946.709
 11
1125.0027
 21
1946.6427
  0
LINE
  8
_1-2_仕上
  6
CONTINUOUS
 62
    3
 10
1125.0027
 20
1946.6427
 11
1125.2123
 21
1946.5803
  0
LINE
  8
_1-2_仕上
  6
CONTINUOUS
 62
    3
 10
1054.1574
 20
2003.3839
 11
1055.864
 21
2004.2316
  0
LINE
  8
_1-2_仕上
  6
CONTINUOUS
 62
    3
 10
1055.864
 20
2004.2316
 11
1057.3878
 21
2005.1216
  0
LINE
  8
_1-2_仕上
  6
CONTINUOUS
 62
    3
 10
1057.3878
 20
2005.1216
 11
1058.7289
 21
2006.054
  0
LINE
  8
_1-2_仕上
  6
CONTINUOUS
 62
    3
 10
1058.7289
 20
2006.054
 11
1059.8876
 21
2007.0289
  0
LINE
  8
_1-2_仕上
  6
CONTINUOUS
 62
    3
 10
1059.8876
 20
2007.0289
 11
1060.8635
 21
2008.0464
  0
LINE
  8
_1-2_仕上
  6
CONTINUOUS
 62
    3
 10
1060.8635
 20
2008.0464
 11
1061.6568
 21
2009.1061
  0
LINE
  8
_1-2_仕上
  6
CONTINUOUS
 62
    3
 10
1061.6568
 20
2009.1061
 11
1062.2675
 21
2010.2082
  0
LINE
  8
_1-2_仕上
  6
CONTINUOUS
 62
    3
 10
1062.2675
 20
2010.2082
 11
1062.6956
 21
2011.3529
  0
LINE
  8
_1-2_仕上
  6
CONTINUOUS
 62
    3
 10
1062.6956
 20
2011.3529
 11
1062.9411
 21
2012.5399
  0
LINE
  8
_1-2_仕上
  6
CONTINUOUS
 62
    3
 10
1062.9423
 20
1982.4069
 11
1062.9423
 21
1993.967
  0
LINE
  8
_1-2_仕上
  6
CONTINUOUS
 62
    3
 10
1127.6639
 20
2025.4213
 11
1117.8504
 21
2047.0505
  0
LINE
  8
_1-2_仕上
  6
CONTINUOUS
 62
    3
 10
672.66676
 20
2000.0432
 11
1050
 21
2000.0432
  0
LINE
  8
_1-2_仕上
  6
CONTINUOUS
 62
    3
 10
1427.3343
 20
2000.0427
 11
1305
 21
2000.0432
  0
LINE
  8
_1-2_仕上
  6
CONTINUOUS
 62
    3
 10
795.00002
 20
1920.0436
 11
795.00002
 21
2000.0432
  0
LINE
  8
_1-2_仕上
  6
CONTINUOUS
 62
    3
 10
672.66676
 20
2023.3765
 11
672.66676
 21
2000.0432
  0
LINE
  8
_1-2_仕上
  6
CONTINUOUS
 62
    3
 10
672.66676
 20
2063.3766
 11
672.66676
 21
2033.3763
  0
LINE
  8
_1-2_仕上
  6
CONTINUOUS
 62
    3
 10
672.66676
 20
2183.3763
 11
672.66676
 21
2073.3764
  0
LINE
  8
_1-2_仕上
  6
CONTINUOUS
 62
    3
 10
1427.3333
 20
2023.3758
 11
1427.3333
 21
2000.0427
  0
LINE
  8
_1-2_仕上
  6
CONTINUOUS
 62
    3
 10
1427.3333
 20
2063.3759
 11
1427.3333
 21
2033.3758
  0
LINE
  8
_1-2_仕上
  6
CONTINUOUS
 62
    3
 10
1427.3333
 20
2023.3758
 11
1305
 21
2023.3765
  0
LINE
  8
_1-2_仕上
  6
CONTINUOUS
 62
    3
 10
1427.3333
 20
2033.3758
 11
1305
 21
2033.3763
  0
LINE
  8
_1-2_仕上
  6
CONTINUOUS
 62
    3
 10
1427.3333
 20
2063.3759
 11
1305
 21
2063.3766
  0
LINE
  8
_1-2_仕上
  6
CONTINUOUS
 62
    3
 10
1427.3333
 20
2073.3759
 11
1305
 21
2073.3764
  0
LINE
  8
_1-2_仕上
  6
CONTINUOUS
 62
    3
 10
1305
 20
2101.377
 11
1050
 21
2101.377
  0
LINE
  8
_1-2_仕上
  6
CONTINUOUS
 62
    3
 10
1118.8847
 20
2091.3769
 11
1050
 21
2091.3769
  0
LINE
  8
_1-2_仕上
  6
CONTINUOUS
 62
    3
 10
1305
 20
2091.3769
 11
1226.094
 21
2091.3769
  0
LINE
  8
_1-2_仕上
  6
CONTINUOUS
 62
    3
 10
1305
 20
2091.3769
 11
1305
 21
1920.0436
  0
LINE
  8
_1-2_仕上
  6
CONTINUOUS
 62
    3
 10
1089.8818
 20
1908.7584
 11
1050
 21
1908.7584
  0
LINE
  8
_1-2_仕上
  6
CONTINUOUS
 62
    3
 10
1096.5483
 20
1915.4249
 11
1096.5483
 21
1924.1516
  0
LINE
  8
_1-2_仕上
  6
CONTINUOUS
 62
    3
 10
1086.5483
 20
1902.7639
 11
1050
 21
1902.7639
  0
LINE
  8
_1-2_仕上
  6
CONTINUOUS
 62
    3
 10
1089.8818
 20
1906.0974
 11
1089.8818
 21
1908.7584
  0
LINE
  8
_1-2_仕上
  6
CONTINUOUS
 62
    3
 10
1096.5483
 20
1920.0436
 11
1305
 21
1920.0436
  0
LINE
  8
_1-2_仕上
  6
CONTINUOUS
 62
    3
 10
1093.8168
 20
1910.0436
 11
1305
 21
1910.0436
  0
LINE
  8
_1-2_仕上
  6
CONTINUOUS
 62
    3
 10
795.00002
 20
1920.0436
 11
1050
 21
1920.0436
  0
LINE
  8
_1-2_仕上
  6
CONTINUOUS
 62
    3
 10
795.00002
 20
1910.0436
 11
1050
 21
1910.0436
  0
LINE
  8
_1-2_仕上
  6
CONTINUOUS
 62
    3
 10
672.66676
 20
2073.3764
 11
1050
 21
2073.3764
  0
LINE
  8
_1-2_仕上
  6
CONTINUOUS
 62
    3
 10
672.66676
 20
2063.3766
 11
1050
 21
2063.3766
  0
LINE
  8
_1-2_仕上
  6
CONTINUOUS
 62
    3
 10
672.66676
 20
2033.3763
 11
1050
 21
2033.3763
  0
LINE
  8
_1-2_仕上
  6
CONTINUOUS
 62
    3
 10
672.66676
 20
2023.3765
 11
1050
 21
2023.3765
  0
LINE
  8
_1-2_仕上
  6
CONTINUOUS
 62
    3
 10
1373.3333
 20
1850.0424
 11
726.66673
 21
1850.0424
  0
LINE
  8
_1-2_仕上
  6
CONTINUOUS
 62
    3
 10
1373.3333
 20
1850.0424
 11
1373.3333
 21
1810.0425
  0
LINE
  8
_1-8_
  6
CONTINUOUS
 62
    7
 10
726.66704
 20
1686.8361
 11
1373.3333
 21
1686.8361
  0
LINE
  8
_1-2_仕上
  6
CONTINUOUS
 62
    3
 10
726.66673
 20
1850.0424
 11
830.59164
 21
1910.0436
  0
LINE
  8
_1-2_仕上
  6
CONTINUOUS
 62
    3
 10
795.00002
 20
1910.0436
 11
795.00002
 21
1889.4947
  0
LINE
  8
_1-2_仕上
  6
CONTINUOUS
 62
    3
 10
1305
 20
1910.0436
 11
1305
 21
1850.0424
  0
LINE
  8
_1-2_仕上
  6
CONTINUOUS
 62
    3
 10
1373.3333
 20
1850.0424
 11
1305
 21
1889.4947
  0
LINE
  8
_1-2_仕上
  6
CONTINUOUS
 62
    3
 10
830.59164
 20
1910.0436
 11
830.59164
 21
1850.0424
  0
LINE
  8
_1-8_
  6
CONTINUOUS
 62
    7
 10
672.66676
 20
2225.8783
 11
672.66676
 21
2373.0629
  0
LINE
  8
_1-8_
  6
CONTINUOUS
 62
    7
 10
1373.3333
 20
1779.4624
 11
1373.3333
 21
1686.8361
  0
LINE
  8
_1-2_仕上
  6
CONTINUOUS
 62
    3
 10
1373.3333
 20
1810.0425
 11
726.66704
 21
1810.0425
  0
LINE
  8
_1-8_
  6
CONTINUOUS
 62
    7
 10
643.98552
 20
2270.0426
 11
583.33369
 21
2270.0426
  0
LINE
  8
_1-8_
  6
CONTINUOUS
 62
    7
 10
644.65336
 20
1810.0425
 11
583.33369
 21
1810.0425
  0
LINE
  8
_1-2_仕上
  6
CONTINUOUS
 62
    3
 10
1427.3343
 20
2183.233
 11
1427.3343
 21
2073.3759
  0
LINE
  8
_1-2_仕上
  6
CONTINUOUS
 62
    3
 10
726.66673
 20
1850.0424
 11
726.66673
 21
1810.0425
  0
LINE
  8
_1-8_
  6
CONTINUOUS
 62
    7
 10
726.66704
 20
1779.4624
 11
726.66704
 21
1686.8361
  0
LINE
  8
_1-2_仕上
  6
CONTINUOUS
 62
    3
 10
1221.6225
 20
2230.4893
 11
1050
 21
2131.4028
  0
LINE
  8
_1-2_仕上
  6
CONTINUOUS
 62
    3
 10
672.66676
 20
2183.3763
 11
1050
 21
2183.3763
  0
LINE
  8
_1-2_仕上
  6
CONTINUOUS
 62
    3
 10
1427.3343
 20
2183.3755
 11
1140.0203
 21
2183.3763
  0
LINE
  8
_1-2_仕上
  6
CONTINUOUS
 62
    3
 10
1050
 20
2270.0426
 11
657.56681
 21
2179.9079
  0
LINE
  8
_1-2_仕上
  6
CONTINUOUS
 62
    3
 10
1050
 20
2270.0426
 11
1442.4333
 21
2179.9079
  0
LINE
  8
_1-2_仕上
  6
CONTINUOUS
 62
    3
 10
1221.6225
 20
2230.4891
 11
1050
 21
2230.4891
  0
LINE
  8
_1-8_
  6
CONTINUOUS
 62
    7
 10
1427.3343
 20
2225.8783
 11
1427.3343
 21
2373.0624
  0
LINE
  8
_1-4_
  6
CONTINUOUS
 62
    2
 10
1050
 20
2101.377
 11
1276.7934
 21
2217.9523
  0
LINE
  8
_1-1_1-1___
  6
CENTER2
 62
    7
 10
1050
 20
2339.3693
 11
1050
 21
1759.4594
  0
ARC
  8
_1-2_仕上
  6
CONTINUOUS
 62
    3
 10
1089.0135
 20
1957.4214
 40
7.5333353
 50
0
 51
90
  0
ARC
  8
_1-2_仕上
  6
CONTINUOUS
 62
    3
 10
1057.9591
 20
1982.4069
 40
4.9832998
 50
270
 51
0
  0
ARC
  8
_1-2_仕上
  6
CONTINUOUS
 62
    3
 10
1057.9591
 20
2049.0078
 40
4.9832998
 50
0
 51
90
  0
ARC
  8
_1-2_仕上
  6
CONTINUOUS
 62
    3
 10
795.00002
 20
1915.0436
 40
5.0000165
 50
90
 51
270
  0
ARC
  8
_1-2_仕上
  6
CONTINUOUS
 62
    3
 10
1305
 20
1915.0436
 40
5.0000165
 50
270
 51
90.000946
  0
ARC
  8
_1-2_仕上
  6
CONTINUOUS
 62
    3
 10
672.66676
 20
2068.3764
 40
5.0000165
 50
90
 51
270
  0
ARC
  8
_1-2_仕上
  6
CONTINUOUS
 62
    3
 10
672.66676
 20
2028.3763
 40
5.0000165
 50
90
 51
270
  0
ARC
  8
_1-2_仕上
  6
CONTINUOUS
 62
    3
 10
1427.3333
 20
2068.3759
 40
5.0000165
 50
270
 51
90
  0
ARC
  8
_1-2_仕上
  6
CONTINUOUS
 62
    3
 10
1427.3333
 20
2028.3758
 40
5.0000165
 50
270
 51
90
  0
ARC
  8
_1-2_仕上
  6
CONTINUOUS
 62
    3
 10
1305
 20
2096.3772
 40
5.0000165
 50
270
 51
90
  0
ARC
  8
_1-2_仕上
  6
CONTINUOUS
 62
    3
 10
1089.8818
 20
1915.4249
 40
6.6666662
 50
270
 51
0
  0
ARC
  8
_1-2_仕上
  6
CONTINUOUS
 62
    3
 10
1086.5483
 20
1906.0974
 40
3.3333331
 50
270
 51
0
  0
ARC
  8
_1-4_
  6
DASHED1
 62
    2
 10
1050
 20
2101.377
 40
254.99994
 50
0
 51
27.203857
  0
TEXT
  8
_1-d_
 62
    7
 10
254.99978
 20
157.4999
 40
25
 41
1
 50
0
  1
図
  0
TEXT
  8
_1-d_
 62
    7
 10
254.99978
 20
97.499965
 40
25
 41
1
 50
0
  1
番
  0
TEXT
  8
_1-d_
 62
    7
 10
655.00043
 20
157.4999
 40
25
 41
1
 50
0
  1
承
  0
TEXT
  8
_1-d_
 62
    7
 10
655.00043
 20
97.499965
 40
25
 41
1
 50
0
  1
認
  0
TEXT
  8
_1-d_
 62
    7
 10
1020.0002
 20
237.49994
 40
25
 41
1
 50
0
  1
尺
  0
TEXT
  8
_1-d_
 62
    7
 10
1020.0002
 20
197.49978
 40
25
 41
1
 50
0.0000708
  1
度
  0
TEXT
  8
_1-d_
 62
    7
 10
855.0001
 20
157.4999
 40
25
 41
1
 50
0
  1
製
  0
TEXT
  8
_1-d_
 62
    7
 10
855.0001
 20
97.499965
 40
25
 41
1
 50
0
  1
図
  0
TEXT
  8
_1-d_
 62
    7
 10
1555
 20
237.49994
 40
25
 41
1
 50
0
  1
日
  0
TEXT
  8
_1-d_
 62
    7
 10
1555
 20
197.49978
 40
25
 41
1
 50
0.0000708
  1
付
  0
TEXT
  8
_1-d_
 62
    7
 10
1111.4263
 20
163.48225
 40
20
 41
1
 50
0
  1
株式
  0
TEXT
  8
_1-d_
 62
    7
 10
1111.4263
 20
141.8518
 40
20
 41
1
 50
0.0000196
  1
会社
  0
TEXT
  8
_1-d_
 62
    3
 10
1174.2246
 20
143.24711
 40
40
 41
1
 50
0
  1
スズキベンチレーター
  0
TEXT
  8
_1-d_
 62
    7
 10
1237.9181
 20
94.024178
 40
20
 41
1
 50
0
  1
TEL(054)296-7000  FAX(054)296-7001
  0
TEXT
  8
_1-8_
 62
    3
 10
1012.1397
 20
2382.0613
 40
30
 41
1
 50
0
  1
1,130
  0
TEXT
  8
_1-8_
 62
    3
 10
563.33362
 20
2035.8756
 40
30
 41
1
 50
90
  1
690
  0
TEXT
  8
_1-8_
 62
    3
 10
1015.8335
 20
1693.5028
 40
30
 41
1
 50
0
  1
970*970
  0
TEXT
  8
_1-d_
 62
    3
 10
1084.3489
 20
210.10065
 40
40
 41
1
 50
0.000005
  1
１／１５
  0
TEXT
  8
_1-d_
 62
    7
 10
1235.6793
 20
118.64592
 40
20
 41
1
 50
0
  1
〒421-2114　静岡市葵区安倍口新田１５２番地
  0
TEXT
  8
_1-d_
 62
    3
 10
255.00005
 20
2792.7013
 40
50
 41
1
 50
0
  1
ＳＴ－７５Ｌ　架台型（低騒音）ダンパー付　断面
  0
TEXT
  8
_1-d_
 62
    7
 10
280.67567
 20
215.81082
 40
25
 41
1
 50
0
  1
ＳＴ－７５Ｌ　架台型（低騒音）ダンパー付　断面
  0
TEXT
  8
_1-d_
 62
    3
 10
308.45925
 20
140.30213
 40
30
 41
1
 50
0
  1
75L-03b
  0
POINT
  8
_1-8_
 62
    2
 10
583.33369
 20
1810.0425
  0
POINT
  8
_1-8_
 62
    2
 10
583.33369
 20
2270.0426
  0
POINT
  8
_1-8_
 62
    2
 10
672.66676
 20
2373.0629
  0
POINT
  8
_1-8_
 62
    2
 10
1427.3343
 20
2373.0624
  0
POINT
  8
_1-8_
 62
    2
 10
726.66704
 20
1686.8361
  0
POINT
  8
_1-8_
 62
    2
 10
1373.3333
 20
1686.8361
  0
ENDSEC
  0
EOF
