  0
SECTION
  2
HEADER
  9
$ACADVER
  1
AC1009
  9
$INSBASE
 10
0
 20
0
 30
0
  9
$EXTMIN
 10
0
 20
0
  9
$EXTMAX
 10
4200
 20
2970
  9
$LIMMIN
 10
0
 20
0
  9
$LIMMAX
 10
4200
 20
2970
  9
$LTSCALE
 40
10
  0
ENDSEC
  0
SECTION
  2
TABLES
  0
TABLE
  2
LTYPE
 70
     9
  0
LTYPE
  2
CONTINUOUS
 70
    64
  3
実線
 72
    65
 73
     0
 40
0.0
  0
LTYPE
  2
DASHED1
 70
    64
  3
--  --  --  --  --  --  --  --  
 72
    65
 73
     2
 40
2.5
 49
1.25
 49
-1.25
  0
LTYPE
  2
DASHED2
 70
    64
  3
----    ----    ----    ----    
 72
    65
 73
     2
 40
5.0
 49
2.5
 49
-2.5
  0
LTYPE
  2
DASHED3
 70
    64
  3
------  ------  ------  ------  
 72
    65
 73
     2
 40
5.0
 49
3.75
 49
-1.25
  0
LTYPE
  2
CENTER1
 70
    64
  3
----- - ----- - ----- - ----- - 
 72
    65
 73
     4
 40
10.0
 49
6.25
 49
-1.25
 49
1.25
 49
-1.25
  0
LTYPE
  2
CENTER2
 70
    64
  3
----------  --  ----------  --  
 72
    65
 73
     4
 40
20.0
 49
12.5
 49
-2.5
 49
2.5
 49
-2.5
  0
LTYPE
  2
PHANTOM1
 70
    64
  3
--- - - --- - - --- - - --- - - 
 72
    65
 73
     6
 40
10.0
 49
3.25
 49
-1.25
 49
1.25
 49
-1.25
 49
1.25
 49
-1.25
  0
LTYPE
  2
PHANTOM2
 70
    64
  3
--------  -  -  --------  -  -  
 72
    65
 73
     6
 40
20.0
 49
10.0
 49
-2.5
 49
1.25
 49
-2.5
 49
1.25
 49
-2.5
  0
LTYPE
  2
DOT
 70
    64
  3
-   -   -   -   -   -   -   -   
 72
    65
 73
     2
 40
2.5
 49
0.625
 49
-1.875
  0
LTYPE
  2
DUMMY
 70
    64
  3
ダミー
 72
    65
 73
     0
 40
0.0
  0
LTYPE
  2
RAND1
 70
    64
  3
----- - ----- - ----- - ----- - 
 72
    65
 73
     4
 40
10.0
 49
6.25
 49
-1.25
 49
1.25
 49
-1.25
  0
LTYPE
  2
RAND2
 70
    64
  3
----------  --  ----------  --  
 72
    65
 73
     4
 40
20.0
 49
12.5
 49
-2.5
 49
2.5
 49
-2.5
  0
LTYPE
  2
RAND3
 70
    64
  3
--- - - --- - - --- - - --- - - 
 72
    65
 73
     6
 40
10.0
 49
3.25
 49
-1.25
 49
1.25
 49
-1.25
 49
1.25
 49
-1.25
  0
LTYPE
  2
RAND4
 70
    64
  3
--------  -  -  --------  -  -  
 72
    65
 73
     6
 40
20.0
 49
10.0
 49
-2.5
 49
1.25
 49
-2.5
 49
1.25
 49
-2.5
  0
LTYPE
  2
RAND5
 70
    64
  3
----- - ----- - ----- - ----- - 
 72
    65
 73
     4
 40
10.0
 49
6.25
 49
-1.25
 49
1.25
 49
-1.25
  0
LTYPE
  2
LONG1
 70
    64
  3
----------  --  ----------  --  
 72
    65
 73
     4
 40
20.0
 49
12.5
 49
-2.5
 49
2.5
 49
-2.5
  0
LTYPE
  2
LONG2
 70
    64
  3
--- - - --- - - --- - - --- - - 
 72
    65
 73
     6
 40
10.0
 49
3.25
 49
-1.25
 49
1.25
 49
-1.25
 49
1.25
 49
-1.25
  0
LTYPE
  2
LONG3
 70
    64
  3
--------  -  -  --------  -  -  
 72
    65
 73
     6
 40
20.0
 49
10.0
 49
-2.5
 49
1.25
 49
-2.5
 49
1.25
 49
-2.5
  0
LTYPE
  2
LONG4
 70
    64
  3
----- - ----- - ----- - ----- - 
 72
    65
 73
     4
 40
10.0
 49
6.25
 49
-1.25
 49
1.25
 49
-1.25
  0
LTYPE
  2
LONG5
 70
    64
  3
----------  --  ----------  --  
 72
    65
 73
     4
 40
20.0
 49
12.5
 49
-2.5
 49
2.5
 49
-2.5
  0
ENDTAB
  0
TABLE
  2
STYLE
  5
3
100
AcDbSymbolTable
 70
     1
  0
STYLE
  5
10
100
AcDbSymbolTableRecord
100
AcDbTextStyleTableRecord
  2
STANDARD
 70
     0
 40
0.0
 41
1.0
 50
0.0
 71
     0
 42
0.2
  3
txt
  4
bigfont.shx
  0
STYLE
  5
26
100
AcDbSymbolTableRecord
100
AcDbTextStyleTableRecord
  2
TATEGAKI
 70
    68
 40
0.0
 41
1.0
 50
0.0
 71
     0
 42
1.0
  3
txt
  4
bigfont.shx
  0
ENDTAB
  0
TABLE
  2
LAYER
 70
    5
  0
LAYER
  2
_1-1_1-1___
 70
   64
 62
    7
  6
CONTINUOUS
  0
LAYER
  2
_1-2_仕上
 70
   64
 62
    7
  6
CONTINUOUS
  0
LAYER
  2
_1-8_
 70
   64
 62
    7
  6
CONTINUOUS
  0
LAYER
  2
_1-d_
 70
   64
 62
    7
  6
CONTINUOUS
  0
LAYER
  2
ADD_LINE
 70
   64
 62
    7
  6
CONTINUOUS
  0
ENDTAB
  0
ENDSEC
  0
SECTION
  2
BLOCKS
  0
ENDSEC
  0
SECTION
  2
ENTITIES
  0
LINE
  8
_1-d_
  6
CONTINUOUS
 62
    7
 10
250.00005
 20
2757.7012
 11
1850
 21
2757.7012
  0
LINE
  8
_1-d_
  6
CONTINUOUS
 62
    7
 10
250.00005
 20
2767.7015
 11
1850
 21
2767.7015
  0
LINE
  8
_1-d_
  6
CONTINUOUS
 62
    7
 10
249.99968
 20
189.99988
 11
1850.0004
 21
189.99988
  0
LINE
  8
_1-d_
  6
CONTINUOUS
 62
    7
 10
249.99968
 20
89.999802
 11
249.99968
 21
269.9999
  0
LINE
  8
_1-d_
  6
CONTINUOUS
 62
    7
 10
249.99968
 20
89.999802
 11
1850.0004
 21
89.999802
  0
LINE
  8
_1-d_
  6
CONTINUOUS
 62
    7
 10
1850.0004
 20
269.9999
 11
1850.0004
 21
89.999802
  0
LINE
  8
_1-d_
  6
CONTINUOUS
 62
    7
 10
249.99968
 20
269.9999
 11
1850.0004
 21
269.9999
  0
LINE
  8
_1-d_
  6
CONTINUOUS
 62
    7
 10
1050
 20
269.9999
 11
1050
 21
89.999802
  0
LINE
  8
_1-d_
  6
CONTINUOUS
 62
    7
 10
650.00016
 20
89.999802
 11
650.00016
 21
189.99988
  0
LINE
  8
_1-d_
  6
CONTINUOUS
 62
    7
 10
1050
 20
189.99988
 11
1050
 21
269.9999
  0
LINE
  8
_1-d_
  6
CONTINUOUS
 62
    7
 10
849.99977
 20
89.999802
 11
849.99977
 21
189.99988
  0
LINE
  8
_1-d_
  6
CONTINUOUS
 62
    7
 10
285.00001
 20
89.999802
 11
285.00001
 21
189.99988
  0
LINE
  8
_1-d_
  6
CONTINUOUS
 62
    7
 10
685.00003
 20
89.999802
 11
685.00003
 21
189.99988
  0
LINE
  8
_1-d_
  6
CONTINUOUS
 62
    7
 10
885.00013
 20
89.999802
 11
885.00013
 21
189.99988
  0
LINE
  8
_1-d_
  6
CONTINUOUS
 62
    7
 10
1015
 20
189.99988
 11
1015
 21
269.9999
  0
LINE
  8
_1-d_
  6
CONTINUOUS
 62
    7
 10
1550.0004
 20
189.99988
 11
1550.0004
 21
269.9999
  0
LINE
  8
_1-d_
  6
CONTINUOUS
 62
    7
 10
1585.0001
 20
189.99988
 11
1585.0001
 21
269.9999
  0
LINE
  8
_1-2_仕上
  6
CONTINUOUS
 62
    3
 10
1068.2561
 20
2068.0735
 11
1073.0606
 21
2071.0265
  0
LINE
  8
_1-2_仕上
  6
CONTINUOUS
 62
    3
 10
1073.0606
 20
2071.0265
 11
1077.8426
 21
2074.0383
  0
LINE
  8
_1-2_仕上
  6
CONTINUOUS
 62
    3
 10
1077.8426
 20
2074.0383
 11
1082.5794
 21
2077.1625
  0
LINE
  8
_1-2_仕上
  6
CONTINUOUS
 62
    3
 10
1082.5794
 20
2077.1625
 11
1087.2181
 21
2080.4609
  0
LINE
  8
_1-2_仕上
  6
CONTINUOUS
 62
    3
 10
1087.2181
 20
2080.4609
 11
1091.6743
 21
2083.9988
  0
LINE
  8
_1-2_仕上
  6
CONTINUOUS
 62
    3
 10
1091.6743
 20
2083.9988
 11
1095.8543
 21
2087.8351
  0
LINE
  8
_1-2_仕上
  6
CONTINUOUS
 62
    3
 10
1095.8543
 20
2087.8351
 11
1099.6668
 21
2092.0376
  0
LINE
  8
_1-2_仕上
  6
CONTINUOUS
 62
    3
 10
1099.6668
 20
2092.0376
 11
1103.0209
 21
2096.6655
  0
LINE
  8
_1-2_仕上
  6
CONTINUOUS
 62
    3
 10
1103.0209
 20
2096.6655
 11
1105.9458
 21
2101.6714
  0
LINE
  8
_1-2_仕上
  6
CONTINUOUS
 62
    3
 10
1105.9458
 20
2101.6714
 11
1108.7097
 21
2106.783
  0
LINE
  8
_1-2_仕上
  6
CONTINUOUS
 62
    3
 10
1108.7097
 20
2106.783
 11
1111.5929
 21
2111.7125
  0
LINE
  8
_1-2_仕上
  6
CONTINUOUS
 62
    3
 10
1111.5929
 20
2111.7125
 11
1114.8918
 21
2116.1706
  0
LINE
  8
_1-2_仕上
  6
CONTINUOUS
 62
    3
 10
1114.8918
 20
2116.1706
 11
1118.8845
 21
2119.8671
  0
LINE
  8
_1-2_仕上
  6
CONTINUOUS
 62
    3
 10
1118.8845
 20
2119.8671
 11
1123.6601
 21
2122.7248
  0
LINE
  8
_1-2_仕上
  6
CONTINUOUS
 62
    3
 10
1123.6601
 20
2122.7248
 11
1128.9268
 21
2125.0599
  0
LINE
  8
_1-2_仕上
  6
CONTINUOUS
 62
    3
 10
1128.9268
 20
2125.0599
 11
1131.4203
 21
2126.0561
  0
LINE
  8
_1-2_仕上
  6
CONTINUOUS
 62
    3
 10
1128.9268
 20
2125.0599
 11
1132.3952
 21
2125.6112
  0
LINE
  8
_1-2_仕上
  6
CONTINUOUS
 62
    3
 10
1132.3952
 20
2125.6112
 11
1135.8947
 21
2126.0905
  0
LINE
  8
_1-2_仕上
  6
CONTINUOUS
 62
    3
 10
1135.8947
 20
2126.0905
 11
1139.4519
 21
2126.4339
  0
LINE
  8
_1-2_仕上
  6
CONTINUOUS
 62
    3
 10
1139.4519
 20
2126.4339
 11
1143.0965
 21
2126.5639
  0
LINE
  8
_1-2_仕上
  6
CONTINUOUS
 62
    3
 10
1143.0965
 20
2126.5639
 11
1146.8521
 21
2126.4164
  0
LINE
  8
_1-2_仕上
  6
CONTINUOUS
 62
    3
 10
1146.8521
 20
2126.4164
 11
1150.6097
 21
2125.869
  0
LINE
  8
_1-2_仕上
  6
CONTINUOUS
 62
    3
 10
1150.6097
 20
2125.869
 11
1154.1155
 21
2124.7712
  0
LINE
  8
_1-2_仕上
  6
CONTINUOUS
 62
    3
 10
1154.1155
 20
2124.7712
 11
1157.1033
 21
2122.9512
  0
LINE
  8
_1-2_仕上
  6
CONTINUOUS
 62
    3
 10
1157.1033
 20
2122.9512
 11
1159.3587
 21
2120.2913
  0
LINE
  8
_1-2_仕上
  6
CONTINUOUS
 62
    3
 10
1159.3587
 20
2120.2913
 11
1161.117
 21
2117.098
  0
LINE
  8
_1-2_仕上
  6
CONTINUOUS
 62
    3
 10
1066.3698
 20
2054.8758
 11
1072.0001
 21
2055.7119
  0
LINE
  8
_1-2_仕上
  6
CONTINUOUS
 62
    3
 10
1072.0001
 20
2055.7119
 11
1077.5957
 21
2056.6576
  0
LINE
  8
_1-2_仕上
  6
CONTINUOUS
 62
    3
 10
1077.5957
 20
2056.6576
 11
1083.1299
 21
2057.8137
  0
LINE
  8
_1-2_仕上
  6
CONTINUOUS
 62
    3
 10
1083.1299
 20
2057.8137
 11
1088.5647
 21
2059.2929
  0
LINE
  8
_1-2_仕上
  6
CONTINUOUS
 62
    3
 10
1088.5647
 20
2059.2929
 11
1093.8718
 21
2061.1967
  0
LINE
  8
_1-2_仕上
  6
CONTINUOUS
 62
    3
 10
1093.8718
 20
2061.1967
 11
1099.0217
 21
2063.5518
  0
LINE
  8
_1-2_仕上
  6
CONTINUOUS
 62
    3
 10
1099.0217
 20
2063.5518
 11
1103.9921
 21
2066.3125
  0
LINE
  8
_1-2_仕上
  6
CONTINUOUS
 62
    3
 10
1103.9921
 20
2066.3125
 11
1108.756
 21
2069.4468
  0
LINE
  8
_1-2_仕上
  6
CONTINUOUS
 62
    3
 10
1108.756
 20
2069.4468
 11
1113.2909
 21
2072.8991
  0
LINE
  8
_1-2_仕上
  6
CONTINUOUS
 62
    3
 10
1113.2909
 20
2072.8991
 11
1117.5745
 21
2076.6359
  0
LINE
  8
_1-2_仕上
  6
CONTINUOUS
 62
    3
 10
1117.5745
 20
2076.6359
 11
1121.6405
 21
2080.5898
  0
LINE
  8
_1-2_仕上
  6
CONTINUOUS
 62
    3
 10
1121.6405
 20
2080.5898
 11
1125.5701
 21
2084.6706
  0
LINE
  8
_1-2_仕上
  6
CONTINUOUS
 62
    3
 10
1125.5701
 20
2084.6706
 11
1129.4499
 21
2088.7882
  0
LINE
  8
_1-2_仕上
  6
CONTINUOUS
 62
    3
 10
1129.4499
 20
2088.7882
 11
1133.3622
 21
2092.8519
  0
LINE
  8
_1-2_仕上
  6
CONTINUOUS
 62
    3
 10
1133.3622
 20
2092.8519
 11
1137.3962
 21
2096.7723
  0
LINE
  8
_1-2_仕上
  6
CONTINUOUS
 62
    3
 10
1137.3962
 20
2096.7723
 11
1141.6291
 21
2100.4721
  0
LINE
  8
_1-2_仕上
  6
CONTINUOUS
 62
    3
 10
1141.6291
 20
2100.4721
 11
1146.0553
 21
2103.9481
  0
LINE
  8
_1-2_仕上
  6
CONTINUOUS
 62
    3
 10
1146.0553
 20
2103.9481
 11
1150.6392
 21
2107.2536
  0
LINE
  8
_1-2_仕上
  6
CONTINUOUS
 62
    3
 10
1150.6392
 20
2107.2536
 11
1155.3324
 21
2110.4303
  0
LINE
  8
_1-2_仕上
  6
CONTINUOUS
 62
    3
 10
1155.3324
 20
2110.4303
 11
1160.0995
 21
2113.5277
  0
LINE
  8
_1-2_仕上
  6
CONTINUOUS
 62
    3
 10
1160.0995
 20
2113.5277
 11
1163.4744
 21
2115.6844
  0
LINE
  8
_1-2_仕上
  6
CONTINUOUS
 62
    3
 10
1163.4744
 20
2115.6844
 11
1168.7406
 21
2117.8691
  0
LINE
  8
_1-2_仕上
  6
CONTINUOUS
 62
    3
 10
1168.7406
 20
2117.8691
 11
1174.0368
 21
2119.9082
  0
LINE
  8
_1-2_仕上
  6
CONTINUOUS
 62
    3
 10
1174.0368
 20
2119.9082
 11
1179.3959
 21
2121.6589
  0
LINE
  8
_1-2_仕上
  6
CONTINUOUS
 62
    3
 10
1179.3959
 20
2121.6589
 11
1184.8487
 21
2122.9782
  0
LINE
  8
_1-2_仕上
  6
CONTINUOUS
 62
    3
 10
1184.8487
 20
2122.9782
 11
1190.4084
 21
2123.7866
  0
LINE
  8
_1-2_仕上
  6
CONTINUOUS
 62
    3
 10
1190.4084
 20
2123.7866
 11
1196.0481
 21
2124.1414
  0
LINE
  8
_1-2_仕上
  6
CONTINUOUS
 62
    3
 10
1196.0481
 20
2124.1414
 11
1201.735
 21
2124.1206
  0
LINE
  8
_1-2_仕上
  6
CONTINUOUS
 62
    3
 10
1201.735
 20
2124.1206
 11
1207.4387
 21
2123.8004
  0
LINE
  8
_1-2_仕上
  6
CONTINUOUS
 62
    3
 10
1207.4387
 20
2123.8004
 11
1213.1323
 21
2123.2603
  0
LINE
  8
_1-2_仕上
  6
CONTINUOUS
 62
    3
 10
1213.1323
 20
2123.2603
 11
1218.7819
 21
2122.5655
  0
LINE
  8
_1-2_仕上
  6
CONTINUOUS
 62
    3
 10
1218.7819
 20
2122.5655
 11
1224.3824
 21
2121.7014
  0
LINE
  8
_1-2_仕上
  6
CONTINUOUS
 62
    3
 10
1224.3824
 20
2121.7014
 11
1229.9345
 21
2120.6493
  0
LINE
  8
_1-2_仕上
  6
CONTINUOUS
 62
    3
 10
1229.9345
 20
2120.6493
 11
1235.4311
 21
2119.3735
  0
LINE
  8
_1-2_仕上
  6
CONTINUOUS
 62
    3
 10
1235.4311
 20
2119.3735
 11
1240.8748
 21
2117.8512
  0
LINE
  8
_1-2_仕上
  6
CONTINUOUS
 62
    3
 10
1240.8748
 20
2117.8512
 11
1246.2635
 21
2116.0491
  0
LINE
  8
_1-2_仕上
  6
CONTINUOUS
 62
    3
 10
1246.2635
 20
2116.0491
 11
1251.5761
 21
2113.9417
  0
LINE
  8
_1-2_仕上
  6
CONTINUOUS
 62
    3
 10
1251.5761
 20
2113.9417
 11
1256.7619
 21
2111.5052
  0
LINE
  8
_1-2_仕上
  6
CONTINUOUS
 62
    3
 10
1256.7619
 20
2111.5052
 11
1261.7463
 21
2108.7247
  0
LINE
  8
_1-2_仕上
  6
CONTINUOUS
 62
    3
 10
1261.7463
 20
2108.7247
 11
1266.464
 21
2105.5743
  0
LINE
  8
_1-2_仕上
  6
CONTINUOUS
 62
    3
 10
1266.464
 20
2105.5743
 11
1270.8467
 21
2102.0307
  0
LINE
  8
_1-2_仕上
  6
CONTINUOUS
 62
    3
 10
1270.8467
 20
2102.0307
 11
1274.8334
 21
2098.0838
  0
LINE
  8
_1-2_仕上
  6
CONTINUOUS
 62
    3
 10
1274.8334
 20
2098.0838
 11
1278.476
 21
2093.7912
  0
LINE
  8
_1-2_仕上
  6
CONTINUOUS
 62
    3
 10
1278.476
 20
2093.7912
 11
1281.8649
 21
2089.2482
  0
LINE
  8
_1-2_仕上
  6
CONTINUOUS
 62
    3
 10
1281.8649
 20
2089.2482
 11
1285.0962
 21
2084.551
  0
LINE
  8
_1-2_仕上
  6
CONTINUOUS
 62
    3
 10
1285.0962
 20
2084.551
 11
1286.9738
 21
2081.7458
  0
LINE
  8
_1-2_仕上
  6
CONTINUOUS
 62
    3
 10
1285.0962
 20
2084.551
 11
1287.6226
 21
2079.3192
  0
LINE
  8
_1-2_仕上
  6
CONTINUOUS
 62
    3
 10
1287.6226
 20
2079.3192
 11
1290.0148
 21
2074.0641
  0
LINE
  8
_1-2_仕上
  6
CONTINUOUS
 62
    3
 10
1290.0148
 20
2074.0641
 11
1292.1428
 21
2068.7721
  0
LINE
  8
_1-2_仕上
  6
CONTINUOUS
 62
    3
 10
1292.1428
 20
2068.7721
 11
1293.8714
 21
2063.4142
  0
LINE
  8
_1-2_仕上
  6
CONTINUOUS
 62
    3
 10
1293.8714
 20
2063.4142
 11
1295.0691
 21
2057.976
  0
LINE
  8
_1-2_仕上
  6
CONTINUOUS
 62
    3
 10
1295.0691
 20
2057.976
 11
1295.6075
 21
2052.4361
  0
LINE
  8
_1-2_仕上
  6
CONTINUOUS
 62
    3
 10
1295.6075
 20
2052.4361
 11
1295.4531
 21
2046.8162
  0
LINE
  8
_1-2_仕上
  6
CONTINUOUS
 62
    3
 10
1295.4531
 20
2046.8162
 11
1294.6996
 21
2041.1716
  0
LINE
  8
_1-2_仕上
  6
CONTINUOUS
 62
    3
 10
1294.6996
 20
2041.1716
 11
1293.4446
 21
2035.5676
  0
LINE
  8
_1-2_仕上
  6
CONTINUOUS
 62
    3
 10
1293.4446
 20
2035.5676
 11
1291.7739
 21
2030.0685
  0
LINE
  8
_1-2_仕上
  6
CONTINUOUS
 62
    3
 10
1291.7739
 20
2030.0685
 11
1289.7154
 21
2024.75
  0
LINE
  8
_1-2_仕上
  6
CONTINUOUS
 62
    3
 10
1289.7154
 20
2024.75
 11
1287.2136
 21
2019.6869
  0
LINE
  8
_1-2_仕上
  6
CONTINUOUS
 62
    3
 10
1287.2136
 20
2019.6869
 11
1284.2079
 21
2014.9583
  0
LINE
  8
_1-2_仕上
  6
CONTINUOUS
 62
    3
 10
1284.2079
 20
2014.9583
 11
1280.7057
 21
2010.5915
  0
LINE
  8
_1-2_仕上
  6
CONTINUOUS
 62
    3
 10
1280.7057
 20
2010.5915
 11
1276.8124
 21
2006.5061
  0
LINE
  8
_1-2_仕上
  6
CONTINUOUS
 62
    3
 10
1276.8124
 20
2006.5061
 11
1272.651
 21
2002.617
  0
LINE
  8
_1-2_仕上
  6
CONTINUOUS
 62
    3
 10
1272.651
 20
2002.617
 11
1268.3376
 21
1998.8411
  0
LINE
  8
_1-2_仕上
  6
CONTINUOUS
 62
    3
 10
1268.3376
 20
1998.8411
 11
1267.1749
 21
1997.8417
  0
LINE
  8
_1-2_仕上
  6
CONTINUOUS
 62
    3
 10
1268.3376
 20
1998.8411
 11
1263.3874
 21
1996.0658
  0
LINE
  8
_1-2_仕上
  6
CONTINUOUS
 62
    3
 10
1263.3874
 20
1996.0658
 11
1258.4183
 21
1993.3415
  0
LINE
  8
_1-2_仕上
  6
CONTINUOUS
 62
    3
 10
1258.4183
 20
1993.3415
 11
1253.4076
 21
1990.7167
  0
LINE
  8
_1-2_仕上
  6
CONTINUOUS
 62
    3
 10
1253.4076
 20
1990.7167
 11
1248.3287
 21
1988.2408
  0
LINE
  8
_1-2_仕上
  6
CONTINUOUS
 62
    3
 10
1248.3287
 20
1988.2408
 11
1243.1681
 21
1985.9624
  0
LINE
  8
_1-2_仕上
  6
CONTINUOUS
 62
    3
 10
1243.1681
 20
1985.9624
 11
1237.8976
 21
1983.9306
  0
LINE
  8
_1-2_仕上
  6
CONTINUOUS
 62
    3
 10
1237.8976
 20
1983.9306
 11
1232.5158
 21
1982.1748
  0
LINE
  8
_1-2_仕上
  6
CONTINUOUS
 62
    3
 10
1232.5158
 20
1982.1748
 11
1227.0449
 21
1980.701
  0
LINE
  8
_1-2_仕上
  6
CONTINUOUS
 62
    3
 10
1227.0449
 20
1980.701
 11
1221.5057
 21
1979.5074
  0
LINE
  8
_1-2_仕上
  6
CONTINUOUS
 62
    3
 10
1221.5057
 20
1979.5074
 11
1215.9158
 21
1978.5941
  0
LINE
  8
_1-2_仕上
  6
CONTINUOUS
 62
    3
 10
1215.9158
 20
1978.5941
 11
1210.3014
 21
1977.9552
  0
LINE
  8
_1-2_仕上
  6
CONTINUOUS
 62
    3
 10
1210.3014
 20
1977.9552
 11
1204.6684
 21
1977.5417
  0
LINE
  8
_1-2_仕上
  6
CONTINUOUS
 62
    3
 10
1204.6684
 20
1977.5417
 11
1199.0211
 21
1977.3005
  0
LINE
  8
_1-2_仕上
  6
CONTINUOUS
 62
    3
 10
1199.0211
 20
1977.3005
 11
1193.3609
 21
1977.1696
  0
LINE
  8
_1-2_仕上
  6
CONTINUOUS
 62
    3
 10
1193.3609
 20
1977.1696
 11
1188.4549
 21
1977.1005
  0
LINE
  8
_1-2_仕上
  6
CONTINUOUS
 62
    3
 10
1125.2123
 20
1976.5807
 11
1130.5057
 21
1974.4383
  0
LINE
  8
_1-2_仕上
  6
CONTINUOUS
 62
    3
 10
1130.5057
 20
1974.4383
 11
1135.8304
 21
1972.32
  0
LINE
  8
_1-2_仕上
  6
CONTINUOUS
 62
    3
 10
1135.8304
 20
1972.32
 11
1141.2048
 21
1970.3682
  0
LINE
  8
_1-2_仕上
  6
CONTINUOUS
 62
    3
 10
1141.2048
 20
1970.3682
 11
1146.6306
 21
1968.7408
  0
LINE
  8
_1-2_仕上
  6
CONTINUOUS
 62
    3
 10
1146.6306
 20
1968.7408
 11
1152.1231
 21
1967.5929
  0
LINE
  8
_1-2_仕上
  6
CONTINUOUS
 62
    3
 10
1152.1231
 20
1967.5929
 11
1157.6934
 21
1967.079
  0
LINE
  8
_1-2_仕上
  6
CONTINUOUS
 62
    3
 10
1157.6934
 20
1967.079
 11
1163.3289
 21
1967.1594
  0
LINE
  8
_1-2_仕上
  6
CONTINUOUS
 62
    3
 10
1163.3289
 20
1967.1594
 11
1169.0054
 21
1967.5781
  0
LINE
  8
_1-2_仕上
  6
CONTINUOUS
 62
    3
 10
1169.0054
 20
1967.5781
 11
1170.0719
 21
1967.6721
  0
LINE
  8
_1-2_仕上
  6
CONTINUOUS
 62
    3
 10
1169.0054
 20
1967.5781
 11
1173.6469
 21
1968.6134
  0
LINE
  8
_1-2_仕上
  6
CONTINUOUS
 62
    3
 10
1173.6469
 20
1968.6134
 11
1178.1018
 21
1970.0455
  0
LINE
  8
_1-2_仕上
  6
CONTINUOUS
 62
    3
 10
1178.1018
 20
1970.0455
 11
1182.1895
 21
1972.276
  0
LINE
  8
_1-2_仕上
  6
CONTINUOUS
 62
    3
 10
1182.1895
 20
1972.276
 11
1185.6742
 21
1975.4759
  0
LINE
  8
_1-2_仕上
  6
CONTINUOUS
 62
    3
 10
1185.6742
 20
1975.4759
 11
1188.2579
 21
1979.4866
  0
LINE
  8
_1-2_仕上
  6
CONTINUOUS
 62
    3
 10
1188.2579
 20
1979.4866
 11
1189.6651
 21
1984.0729
  0
LINE
  8
_1-2_仕上
  6
CONTINUOUS
 62
    3
 10
1189.6651
 20
1984.0729
 11
1189.7691
 21
1988.8161
  0
LINE
  8
_1-2_仕上
  6
CONTINUOUS
 62
    3
 10
1189.7691
 20
1988.8161
 11
1188.5138
 21
1993.2601
  0
LINE
  8
_1-2_仕上
  6
CONTINUOUS
 62
    3
 10
1188.5138
 20
1993.2601
 11
1186.1683
 21
1997.303
  0
LINE
  8
_1-2_仕上
  6
CONTINUOUS
 62
    3
 10
1186.1683
 20
1997.303
 11
1183.2708
 21
2001.1406
  0
LINE
  8
_1-2_仕上
  6
CONTINUOUS
 62
    3
 10
1074.5146
 20
2047.5595
 11
1080.2193
 21
2046.5883
  0
LINE
  8
_1-2_仕上
  6
CONTINUOUS
 62
    3
 10
1080.2193
 20
2046.5883
 11
1085.9052
 21
2045.7814
  0
LINE
  8
_1-2_仕上
  6
CONTINUOUS
 62
    3
 10
1085.9052
 20
2045.7814
 11
1091.5493
 21
2045.3019
  0
LINE
  8
_1-2_仕上
  6
CONTINUOUS
 62
    3
 10
1091.5493
 20
2045.3019
 11
1097.1325
 21
2045.3106
  0
LINE
  8
_1-2_仕上
  6
CONTINUOUS
 62
    3
 10
1097.1325
 20
2045.3106
 11
1102.6341
 21
2045.9675
  0
LINE
  8
_1-2_仕上
  6
CONTINUOUS
 62
    3
 10
1102.6341
 20
2045.9675
 11
1108.0545
 21
2047.3017
  0
LINE
  8
_1-2_仕上
  6
CONTINUOUS
 62
    3
 10
1108.0545
 20
2047.3017
 11
1113.4062
 21
2049.133
  0
LINE
  8
_1-2_仕上
  6
CONTINUOUS
 62
    3
 10
1113.4062
 20
2049.133
 11
1118.7142
 21
2051.2808
  0
LINE
  8
_1-2_仕上
  6
CONTINUOUS
 62
    3
 10
1118.7142
 20
2051.2808
 11
1123.9894
 21
2053.5505
  0
LINE
  8
_1-2_仕上
  6
CONTINUOUS
 62
    3
 10
1123.9894
 20
2053.5505
 11
1129.2586
 21
2055.7792
  0
LINE
  8
_1-2_仕上
  6
CONTINUOUS
 62
    3
 10
1129.2586
 20
2055.7792
 11
1134.5224
 21
2057.924
  0
LINE
  8
_1-2_仕上
  6
CONTINUOUS
 62
    3
 10
1134.5224
 20
2057.924
 11
1139.786
 21
2060.005
  0
LINE
  8
_1-2_仕上
  6
CONTINUOUS
 62
    3
 10
1139.786
 20
2060.005
 11
1145.0436
 21
2062.034
  0
LINE
  8
_1-2_仕上
  6
CONTINUOUS
 62
    3
 10
1145.0436
 20
2062.034
 11
1150.3012
 21
2064.0254
  0
LINE
  8
_1-2_仕上
  6
CONTINUOUS
 62
    3
 10
1150.3012
 20
2064.0254
 11
1155.56
 21
2065.999
  0
LINE
  8
_1-2_仕上
  6
CONTINUOUS
 62
    3
 10
1155.56
 20
2065.999
 11
1155.4868
 21
2061.1559
  0
LINE
  8
_1-2_仕上
  6
CONTINUOUS
 62
    3
 10
1155.4868
 20
2061.1559
 11
1155.417
 21
2056.3179
  0
LINE
  8
_1-2_仕上
  6
CONTINUOUS
 62
    3
 10
1155.417
 20
2056.3179
 11
1155.3472
 21
2051.474
  0
LINE
  8
_1-2_仕上
  6
CONTINUOUS
 62
    3
 10
1155.3472
 20
2051.474
 11
1155.2745
 21
2046.6351
  0
LINE
  8
_1-2_仕上
  6
CONTINUOUS
 62
    3
 10
1155.2745
 20
2046.6351
 11
1155.2052
 21
2041.7969
  0
LINE
  8
_1-2_仕上
  6
CONTINUOUS
 62
    3
 10
1155.2052
 20
2041.7969
 11
1155.1352
 21
2036.9533
  0
LINE
  8
_1-2_仕上
  6
CONTINUOUS
 62
    3
 10
1155.1352
 20
2036.9533
 11
1155.0622
 21
2032.1153
  0
LINE
  8
_1-2_仕上
  6
CONTINUOUS
 62
    3
 10
1155.0622
 20
2032.1153
 11
1154.9929
 21
2027.2722
  0
LINE
  8
_1-2_仕上
  6
CONTINUOUS
 62
    3
 10
1154.9929
 20
2027.2722
 11
1154.9206
 21
2022.4325
  0
LINE
  8
_1-2_仕上
  6
CONTINUOUS
 62
    3
 10
1154.9206
 20
2022.4325
 11
1154.8503
 21
2017.5906
  0
LINE
  8
_1-2_仕上
  6
CONTINUOUS
 62
    3
 10
1183.2708
 20
2001.1406
 11
1182.1133
 21
2002.1608
  0
LINE
  8
_1-2_仕上
  6
CONTINUOUS
 62
    3
 10
1182.1133
 20
2002.1608
 11
1180.45
 21
2003.3945
  0
LINE
  8
_1-2_仕上
  6
CONTINUOUS
 62
    3
 10
1180.45
 20
2003.3945
 11
1178.3465
 21
2004.8059
  0
LINE
  8
_1-2_仕上
  6
CONTINUOUS
 62
    3
 10
1178.3465
 20
2004.8059
 11
1175.8595
 21
2006.3608
  0
LINE
  8
_1-2_仕上
  6
CONTINUOUS
 62
    3
 10
1175.8595
 20
2006.3608
 11
1173.0243
 21
2008.0283
  0
LINE
  8
_1-2_仕上
  6
CONTINUOUS
 62
    3
 10
1173.0243
 20
2008.0283
 11
1169.8917
 21
2009.7871
  0
LINE
  8
_1-2_仕上
  6
CONTINUOUS
 62
    3
 10
1169.8917
 20
2009.7871
 11
1166.4914
 21
2011.6152
  0
LINE
  8
_1-2_仕上
  6
CONTINUOUS
 62
    3
 10
1166.4914
 20
2011.6152
 11
1162.8491
 21
2013.4925
  0
LINE
  8
_1-2_仕上
  6
CONTINUOUS
 62
    3
 10
1162.8491
 20
2013.4925
 11
1158.9977
 21
2015.405
  0
LINE
  8
_1-2_仕上
  6
CONTINUOUS
 62
    3
 10
1158.9977
 20
2015.405
 11
1154.9582
 21
2017.3382
  0
LINE
  8
_1-2_仕上
  6
CONTINUOUS
 62
    3
 10
1154.9582
 20
2017.3382
 11
1150.7456
 21
2019.2796
  0
LINE
  8
_1-2_仕上
  6
CONTINUOUS
 62
    3
 10
1150.7456
 20
2019.2796
 11
1146.3862
 21
2021.2235
  0
LINE
  8
_1-2_仕上
  6
CONTINUOUS
 62
    3
 10
1146.3862
 20
2021.2235
 11
1141.8922
 21
2023.157
  0
LINE
  8
_1-2_仕上
  6
CONTINUOUS
 62
    3
 10
1141.8922
 20
2023.157
 11
1137.2861
 21
2025.0752
  0
LINE
  8
_1-2_仕上
  6
CONTINUOUS
 62
    3
 10
1137.2861
 20
2025.0752
 11
1132.5803
 21
2026.9735
  0
LINE
  8
_1-2_仕上
  6
CONTINUOUS
 62
    3
 10
1132.5803
 20
2026.9735
 11
1127.7933
 21
2028.8427
  0
LINE
  8
_1-2_仕上
  6
CONTINUOUS
 62
    3
 10
1127.7933
 20
2028.8427
 11
1122.9425
 21
2030.6812
  0
LINE
  8
_1-2_仕上
  6
CONTINUOUS
 62
    3
 10
1122.9425
 20
2030.6812
 11
1118.0479
 21
2032.4845
  0
LINE
  8
_1-2_仕上
  6
CONTINUOUS
 62
    3
 10
1118.0479
 20
2032.4845
 11
1113.1298
 21
2034.252
  0
LINE
  8
_1-2_仕上
  6
CONTINUOUS
 62
    3
 10
1113.1298
 20
2034.252
 11
1108.2065
 21
2035.9719
  0
LINE
  8
_1-2_仕上
  6
CONTINUOUS
 62
    3
 10
1108.2065
 20
2035.9719
 11
1103.298
 21
2037.6451
  0
LINE
  8
_1-2_仕上
  6
CONTINUOUS
 62
    3
 10
1103.298
 20
2037.6451
 11
1098.4284
 21
2039.2713
  0
LINE
  8
_1-2_仕上
  6
CONTINUOUS
 62
    3
 10
1098.4284
 20
2039.2713
 11
1093.6243
 21
2040.8398
  0
LINE
  8
_1-2_仕上
  6
CONTINUOUS
 62
    3
 10
1093.6243
 20
2040.8398
 11
1088.9037
 21
2042.3512
  0
LINE
  8
_1-2_仕上
  6
CONTINUOUS
 62
    3
 10
1088.9037
 20
2042.3512
 11
1084.2973
 21
2043.7992
  0
LINE
  8
_1-2_仕上
  6
CONTINUOUS
 62
    3
 10
1084.2973
 20
2043.7992
 11
1079.8296
 21
2045.1762
  0
LINE
  8
_1-2_仕上
  6
CONTINUOUS
 62
    3
 10
1079.8296
 20
2045.1762
 11
1075.5251
 21
2046.4782
  0
LINE
  8
_1-2_仕上
  6
CONTINUOUS
 62
    3
 10
1075.5251
 20
2046.4782
 11
1071.407
 21
2047.7001
  0
LINE
  8
_1-2_仕上
  6
CONTINUOUS
 62
    3
 10
1071.407
 20
2047.7001
 11
1067.5016
 21
2048.8329
  0
LINE
  8
_1-2_仕上
  6
CONTINUOUS
 62
    3
 10
1155.56
 20
2065.999
 11
1155.6271
 21
2066.0223
  0
LINE
  8
_1-2_仕上
  6
CONTINUOUS
 62
    3
 10
1078.5904
 20
1965.2667
 11
1078.5904
 21
1954.152
  0
LINE
  8
_1-2_仕上
  6
CONTINUOUS
 62
    3
 10
1078.5904
 20
1954.152
 11
1112.3664
 21
1954.152
  0
LINE
  8
_1-2_仕上
  6
CONTINUOUS
 62
    3
 10
1112.3664
 20
1965.2667
 11
1112.3664
 21
1954.152
  0
LINE
  8
_1-2_仕上
  6
CONTINUOUS
 62
    3
 10
1078.5904
 20
1965.2667
 11
1112.3664
 21
1965.2667
  0
LINE
  8
_1-2_仕上
  6
CONTINUOUS
 62
    3
 10
1096.5483
 20
1965.2667
 11
1096.5483
 21
1987.4218
  0
LINE
  8
_1-2_仕上
  6
CONTINUOUS
 62
    3
 10
1089.0135
 20
1994.9543
 11
1050
 21
1994.9543
  0
LINE
  8
_1-2_仕上
  6
CONTINUOUS
 62
    3
 10
1062.9408
 20
2079.0081
 11
1062.9408
 21
2042.5402
  0
LINE
  8
_1-2_仕上
  6
CONTINUOUS
 62
    3
 10
1068.2561
 20
2068.0735
 11
1067.7043
 21
2067.7618
  0
LINE
  8
_1-2_仕上
  6
CONTINUOUS
 62
    3
 10
1067.7043
 20
2067.7618
 11
1067.1394
 21
2067.4341
  0
LINE
  8
_1-2_仕上
  6
CONTINUOUS
 62
    3
 10
1067.1394
 20
2067.4341
 11
1066.5678
 21
2067.0907
  0
LINE
  8
_1-2_仕上
  6
CONTINUOUS
 62
    3
 10
1066.5678
 20
2067.0907
 11
1065.9841
 21
2066.7309
  0
LINE
  8
_1-2_仕上
  6
CONTINUOUS
 62
    3
 10
1065.9841
 20
2066.7309
 11
1065.3885
 21
2066.3598
  0
LINE
  8
_1-2_仕上
  6
CONTINUOUS
 62
    3
 10
1065.3885
 20
2066.3598
 11
1064.7827
 21
2065.9693
  0
LINE
  8
_1-2_仕上
  6
CONTINUOUS
 62
    3
 10
1064.7827
 20
2065.9693
 11
1064.1669
 21
2065.5655
  0
LINE
  8
_1-2_仕上
  6
CONTINUOUS
 62
    3
 10
1064.1669
 20
2065.5655
 11
1063.5386
 21
2065.1438
  0
LINE
  8
_1-2_仕上
  6
CONTINUOUS
 62
    3
 10
1063.5386
 20
2065.1438
 11
1062.9022
 21
2064.7103
  0
LINE
  8
_1-2_仕上
  6
CONTINUOUS
 62
    3
 10
1066.3698
 20
2054.8758
 11
1065.9606
 21
2054.7974
  0
LINE
  8
_1-2_仕上
  6
CONTINUOUS
 62
    3
 10
1065.9606
 20
2054.7974
 11
1065.557
 21
2054.7244
  0
LINE
  8
_1-2_仕上
  6
CONTINUOUS
 62
    3
 10
1065.557
 20
2054.7244
 11
1065.1608
 21
2054.6521
  0
LINE
  8
_1-2_仕上
  6
CONTINUOUS
 62
    3
 10
1065.1608
 20
2054.6521
 11
1064.7686
 21
2054.5816
  0
LINE
  8
_1-2_仕上
  6
CONTINUOUS
 62
    3
 10
1064.7686
 20
2054.5816
 11
1064.3846
 21
2054.5146
  0
LINE
  8
_1-2_仕上
  6
CONTINUOUS
 62
    3
 10
1064.3846
 20
2054.5146
 11
1064.0043
 21
2054.4515
  0
LINE
  8
_1-2_仕上
  6
CONTINUOUS
 62
    3
 10
1064.0043
 20
2054.4515
 11
1063.6312
 21
2054.3926
  0
LINE
  8
_1-2_仕上
  6
CONTINUOUS
 62
    3
 10
1063.6312
 20
2054.3926
 11
1063.2625
 21
2054.3347
  0
LINE
  8
_1-2_仕上
  6
CONTINUOUS
 62
    3
 10
1063.2625
 20
2054.3347
 11
1062.9022
 21
2054.279
  0
LINE
  8
_1-2_仕上
  6
CONTINUOUS
 62
    3
 10
1074.5146
 20
2047.5595
 11
1072.9596
 21
2047.8891
  0
LINE
  8
_1-2_仕上
  6
CONTINUOUS
 62
    3
 10
1072.9596
 20
2047.8891
 11
1071.4676
 21
2048.2078
  0
LINE
  8
_1-2_仕上
  6
CONTINUOUS
 62
    3
 10
1071.4676
 20
2048.2078
 11
1070.0441
 21
2048.5166
  0
LINE
  8
_1-2_仕上
  6
CONTINUOUS
 62
    3
 10
1070.0441
 20
2048.5166
 11
1068.6871
 21
2048.8153
  0
LINE
  8
_1-2_仕上
  6
CONTINUOUS
 62
    3
 10
1068.6871
 20
2048.8153
 11
1067.396
 21
2049.1031
  0
LINE
  8
_1-2_仕上
  6
CONTINUOUS
 62
    3
 10
1067.396
 20
2049.1031
 11
1066.1729
 21
2049.3824
  0
LINE
  8
_1-2_仕上
  6
CONTINUOUS
 62
    3
 10
1066.1729
 20
2049.3824
 11
1065.0156
 21
2049.6499
  0
LINE
  8
_1-2_仕上
  6
CONTINUOUS
 62
    3
 10
1065.0156
 20
2049.6499
 11
1063.9256
 21
2049.9082
  0
LINE
  8
_1-2_仕上
  6
CONTINUOUS
 62
    3
 10
1063.9256
 20
2049.9082
 11
1062.9022
 21
2050.1552
  0
LINE
  8
_1-2_仕上
  6
CONTINUOUS
 62
    3
 10
1067.5016
 20
2048.8329
 11
1066.8929
 21
2048.9986
  0
LINE
  8
_1-2_仕上
  6
CONTINUOUS
 62
    3
 10
1066.8929
 20
2048.9986
 11
1066.3092
 21
2049.158
  0
LINE
  8
_1-2_仕上
  6
CONTINUOUS
 62
    3
 10
1066.3092
 20
2049.158
 11
1065.7507
 21
2049.3154
  0
LINE
  8
_1-2_仕上
  6
CONTINUOUS
 62
    3
 10
1065.7507
 20
2049.3154
 11
1065.2182
 21
2049.4668
  0
LINE
  8
_1-2_仕上
  6
CONTINUOUS
 62
    3
 10
1065.2182
 20
2049.4668
 11
1064.7132
 21
2049.6123
  0
LINE
  8
_1-2_仕上
  6
CONTINUOUS
 62
    3
 10
1064.7132
 20
2049.6123
 11
1064.2307
 21
2049.7509
  0
LINE
  8
_1-2_仕上
  6
CONTINUOUS
 62
    3
 10
1064.2307
 20
2049.7509
 11
1063.7747
 21
2049.887
  0
LINE
  8
_1-2_仕上
  6
CONTINUOUS
 62
    3
 10
1063.7747
 20
2049.887
 11
1063.3451
 21
2050.0186
  0
LINE
  8
_1-2_仕上
  6
CONTINUOUS
 62
    3
 10
1063.3451
 20
2050.0186
 11
1062.9408
 21
2050.1473
  0
LINE
  8
_1-2_仕上
  6
CONTINUOUS
 62
    3
 10
672.66664
 20
2213.3764
 11
1050
 21
2213.3764
  0
LINE
  8
_1-8_
  6
CONTINUOUS
 62
    7
 10
583.33362
 20
1876.7107
 11
583.33362
 21
2300.0427
  0
LINE
  8
_1-8_
  6
CONTINUOUS
 62
    7
 10
672.66664
 20
2403.063
 11
1427.3343
 21
2403.062
  0
LINE
  8
_1-2_仕上
  6
CONTINUOUS
 62
    3
 10
1057.9589
 20
2083.9923
 11
1050
 21
2083.9923
  0
LINE
  8
_1-2_仕上
  6
CONTINUOUS
 62
    3
 10
1057.9589
 20
2007.4228
 11
1050
 21
2007.4228
  0
LINE
  8
_1-8_
  6
CONTINUOUS
 62
    7
 10
794.99996
 20
1808.2088
 11
1304.9998
 21
1808.2088
  0
LINE
  8
_1-2_仕上
  6
CONTINUOUS
 62
    3
 10
1054.1574
 20
2033.3842
 11
1057.0441
 21
2030.1257
  0
LINE
  8
_1-2_仕上
  6
CONTINUOUS
 62
    3
 10
1057.0441
 20
2030.1257
 11
1060.217
 21
2026.7404
  0
LINE
  8
_1-2_仕上
  6
CONTINUOUS
 62
    3
 10
1060.217
 20
2026.7404
 11
1063.6292
 21
2023.2684
  0
LINE
  8
_1-2_仕上
  6
CONTINUOUS
 62
    3
 10
1063.6292
 20
2023.2684
 11
1067.2378
 21
2019.7448
  0
LINE
  8
_1-2_仕上
  6
CONTINUOUS
 62
    3
 10
1067.2378
 20
2019.7448
 11
1071.0009
 21
2016.2037
  0
LINE
  8
_1-2_仕上
  6
CONTINUOUS
 62
    3
 10
1071.0009
 20
2016.2037
 11
1074.881
 21
2012.6765
  0
LINE
  8
_1-2_仕上
  6
CONTINUOUS
 62
    3
 10
1074.881
 20
2012.6765
 11
1078.8413
 21
2009.191
  0
LINE
  8
_1-2_仕上
  6
CONTINUOUS
 62
    3
 10
1078.8413
 20
2009.191
 11
1082.8493
 21
2005.7719
  0
LINE
  8
_1-2_仕上
  6
CONTINUOUS
 62
    3
 10
1082.8493
 20
2005.7719
 11
1086.8742
 21
2002.4438
  0
LINE
  8
_1-2_仕上
  6
CONTINUOUS
 62
    3
 10
1086.8742
 20
2002.4438
 11
1090.8884
 21
1999.2261
  0
LINE
  8
_1-2_仕上
  6
CONTINUOUS
 62
    3
 10
1090.8884
 20
1999.2261
 11
1094.8662
 21
1996.1373
  0
LINE
  8
_1-2_仕上
  6
CONTINUOUS
 62
    3
 10
1094.8662
 20
1996.1373
 11
1098.7857
 21
1993.1916
  0
LINE
  8
_1-2_仕上
  6
CONTINUOUS
 62
    3
 10
1098.7857
 20
1993.1916
 11
1102.6264
 21
1990.4027
  0
LINE
  8
_1-2_仕上
  6
CONTINUOUS
 62
    3
 10
1102.6264
 20
1990.4027
 11
1106.3714
 21
1987.7791
  0
LINE
  8
_1-2_仕上
  6
CONTINUOUS
 62
    3
 10
1106.3714
 20
1987.7791
 11
1110.0063
 21
1985.3284
  0
LINE
  8
_1-2_仕上
  6
CONTINUOUS
 62
    3
 10
1110.0063
 20
1985.3284
 11
1113.5185
 21
1983.0557
  0
LINE
  8
_1-2_仕上
  6
CONTINUOUS
 62
    3
 10
1113.5185
 20
1983.0557
 11
1116.8993
 21
1980.9621
  0
LINE
  8
_1-2_仕上
  6
CONTINUOUS
 62
    3
 10
1116.8993
 20
1980.9621
 11
1120.1417
 21
1979.0479
  0
LINE
  8
_1-2_仕上
  6
CONTINUOUS
 62
    3
 10
1120.1417
 20
1979.0479
 11
1123.2414
 21
1977.3084
  0
LINE
  8
_1-2_仕上
  6
CONTINUOUS
 62
    3
 10
1123.2414
 20
1977.3084
 11
1123.4695
 21
1977.2089
  0
LINE
  8
_1-2_仕上
  6
CONTINUOUS
 62
    3
 10
1123.4695
 20
1977.2089
 11
1123.6954
 21
1977.1139
  0
LINE
  8
_1-2_仕上
  6
CONTINUOUS
 62
    3
 10
1123.6954
 20
1977.1139
 11
1123.9194
 21
1977.0233
  0
LINE
  8
_1-2_仕上
  6
CONTINUOUS
 62
    3
 10
1123.9194
 20
1977.0233
 11
1124.1406
 21
1976.938
  0
LINE
  8
_1-2_仕上
  6
CONTINUOUS
 62
    3
 10
1124.1406
 20
1976.938
 11
1124.3593
 21
1976.8571
  0
LINE
  8
_1-2_仕上
  6
CONTINUOUS
 62
    3
 10
1124.3593
 20
1976.8571
 11
1124.5761
 21
1976.7809
  0
LINE
  8
_1-2_仕上
  6
CONTINUOUS
 62
    3
 10
1124.5761
 20
1976.7809
 11
1124.7906
 21
1976.7093
  0
LINE
  8
_1-2_仕上
  6
CONTINUOUS
 62
    3
 10
1124.7906
 20
1976.7093
 11
1125.0027
 21
1976.643
  0
LINE
  8
_1-2_仕上
  6
CONTINUOUS
 62
    3
 10
1125.0027
 20
1976.643
 11
1125.2123
 21
1976.5807
  0
LINE
  8
_1-2_仕上
  6
CONTINUOUS
 62
    3
 10
1054.1574
 20
2033.3842
 11
1055.864
 21
2034.2319
  0
LINE
  8
_1-2_仕上
  6
CONTINUOUS
 62
    3
 10
1055.864
 20
2034.2319
 11
1057.3878
 21
2035.122
  0
LINE
  8
_1-2_仕上
  6
CONTINUOUS
 62
    3
 10
1057.3878
 20
2035.122
 11
1058.7289
 21
2036.0543
  0
LINE
  8
_1-2_仕上
  6
CONTINUOUS
 62
    3
 10
1058.7289
 20
2036.0543
 11
1059.8874
 21
2037.0292
  0
LINE
  8
_1-2_仕上
  6
CONTINUOUS
 62
    3
 10
1059.8874
 20
2037.0292
 11
1060.8633
 21
2038.0467
  0
LINE
  8
_1-2_仕上
  6
CONTINUOUS
 62
    3
 10
1060.8633
 20
2038.0467
 11
1061.6566
 21
2039.1065
  0
LINE
  8
_1-2_仕上
  6
CONTINUOUS
 62
    3
 10
1061.6566
 20
2039.1065
 11
1062.2673
 21
2040.2086
  0
LINE
  8
_1-2_仕上
  6
CONTINUOUS
 62
    3
 10
1062.2673
 20
2040.2086
 11
1062.6953
 21
2041.3532
  0
LINE
  8
_1-2_仕上
  6
CONTINUOUS
 62
    3
 10
1062.6953
 20
2041.3532
 11
1062.9408
 21
2042.5402
  0
LINE
  8
_1-2_仕上
  6
CONTINUOUS
 62
    3
 10
1062.9423
 20
2012.4072
 11
1062.9423
 21
2023.9674
  0
LINE
  8
_1-2_仕上
  6
CONTINUOUS
 62
    3
 10
1127.6639
 20
2055.4214
 11
1117.8502
 21
2077.0506
  0
LINE
  8
_1-2_仕上
  6
CONTINUOUS
 62
    3
 10
672.66664
 20
2030.0435
 11
1050
 21
2030.0435
  0
LINE
  8
_1-2_仕上
  6
CONTINUOUS
 62
    3
 10
794.99996
 20
1940.044
 11
794.99996
 21
1910.0439
  0
LINE
  8
_1-2_仕上
  6
CONTINUOUS
 62
    3
 10
794.99996
 20
1950.044
 11
794.99996
 21
2030.0435
  0
LINE
  8
_1-2_仕上
  6
CONTINUOUS
 62
    3
 10
1305
 20
1940.044
 11
1305
 21
1910.0439
  0
LINE
  8
_1-2_仕上
  6
CONTINUOUS
 62
    3
 10
672.66664
 20
2053.3766
 11
672.66664
 21
2030.0435
  0
LINE
  8
_1-2_仕上
  6
CONTINUOUS
 62
    3
 10
672.66664
 20
2093.3767
 11
672.66664
 21
2063.3766
  0
LINE
  8
_1-2_仕上
  6
CONTINUOUS
 62
    3
 10
1427.3333
 20
2093.376
 11
1427.3333
 21
2063.3756
  0
LINE
  8
_1-2_仕上
  6
CONTINUOUS
 62
    3
 10
1427.3343
 20
2213.3756
 11
1427.3343
 21
2103.3758
  0
LINE
  8
_1-2_仕上
  6
CONTINUOUS
 62
    3
 10
1427.3333
 20
2053.3759
 11
1304.9998
 21
2053.3766
  0
LINE
  8
_1-2_仕上
  6
CONTINUOUS
 62
    3
 10
1427.3333
 20
2063.3756
 11
1304.9998
 21
2063.3766
  0
LINE
  8
_1-2_仕上
  6
CONTINUOUS
 62
    3
 10
1427.3333
 20
2093.376
 11
1304.9998
 21
2093.3767
  0
LINE
  8
_1-2_仕上
  6
CONTINUOUS
 62
    3
 10
1427.3333
 20
2103.3758
 11
1304.9998
 21
2103.3768
  0
LINE
  8
_1-2_仕上
  6
CONTINUOUS
 62
    3
 10
1304.9998
 20
2131.3771
 11
1050
 21
2131.3771
  0
LINE
  8
_1-2_仕上
  6
CONTINUOUS
 62
    3
 10
1118.8845
 20
2121.377
 11
1050
 21
2121.377
  0
LINE
  8
_1-2_仕上
  6
CONTINUOUS
 62
    3
 10
1304.9998
 20
2121.377
 11
1226.0937
 21
2121.377
  0
LINE
  8
_1-2_仕上
  6
CONTINUOUS
 62
    3
 10
1304.9998
 20
2121.377
 11
1304.9998
 21
1950.044
  0
LINE
  8
_1-2_仕上
  6
CONTINUOUS
 62
    3
 10
1089.8816
 20
1938.7588
 11
1050
 21
1938.7588
  0
LINE
  8
_1-2_仕上
  6
CONTINUOUS
 62
    3
 10
1096.5483
 20
1945.4253
 11
1096.5483
 21
1954.152
  0
LINE
  8
_1-2_仕上
  6
CONTINUOUS
 62
    3
 10
1086.5483
 20
1932.7643
 11
1050
 21
1932.7643
  0
LINE
  8
_1-2_仕上
  6
CONTINUOUS
 62
    3
 10
1089.8816
 20
1936.0978
 11
1089.8816
 21
1938.7588
  0
LINE
  8
_1-2_仕上
  6
CONTINUOUS
 62
    3
 10
794.99996
 20
1910.0439
 11
1305
 21
1910.0439
  0
LINE
  8
_1-2_仕上
  6
CONTINUOUS
 62
    3
 10
1096.5483
 20
1950.044
 11
1304.9998
 21
1950.044
  0
LINE
  8
_1-2_仕上
  6
CONTINUOUS
 62
    3
 10
1093.8168
 20
1940.044
 11
1305
 21
1940.044
  0
LINE
  8
_1-2_仕上
  6
CONTINUOUS
 62
    3
 10
794.99996
 20
1950.044
 11
1050
 21
1950.044
  0
LINE
  8
_1-2_仕上
  6
CONTINUOUS
 62
    3
 10
794.99996
 20
1940.044
 11
1050
 21
1940.044
  0
LINE
  8
_1-2_仕上
  6
CONTINUOUS
 62
    3
 10
794.99996
 20
1876.7107
 11
1050
 21
1876.7107
  0
LINE
  8
_1-2_仕上
  6
CONTINUOUS
 62
    3
 10
794.99996
 20
1900.0438
 11
794.99996
 21
1876.7107
  0
LINE
  8
_1-2_仕上
  6
CONTINUOUS
 62
    3
 10
794.99996
 20
1900.0438
 11
1305
 21
1900.0426
  0
LINE
  8
_1-2_仕上
  6
CONTINUOUS
 62
    3
 10
1305
 20
1900.0426
 11
1305
 21
1876.7095
  0
LINE
  8
_1-2_仕上
  6
CONTINUOUS
 62
    3
 10
1305
 20
1876.7095
 11
1050
 21
1876.7107
  0
LINE
  8
_1-2_仕上
  6
CONTINUOUS
 62
    3
 10
1306.9999
 20
2121.377
 11
1306.9999
 21
2112.5766
  0
LINE
  8
_1-2_仕上
  6
CONTINUOUS
 62
    3
 10
1408.5353
 20
2038.6839
 11
1408.5353
 21
2029.9955
  0
LINE
  8
_1-2_仕上
  6
CONTINUOUS
 62
    3
 10
1420.1199
 20
2035.3768
 11
1398.9814
 21
2035.3768
  0
LINE
  8
_1-2_仕上
  6
CONTINUOUS
 62
    3
 10
1420.1199
 20
2035.3768
 11
1420.1199
 21
2033.377
  0
LINE
  8
_1-2_仕上
  6
CONTINUOUS
 62
    3
 10
1301.3768
 20
2116.8568
 11
1310.0654
 21
2116.8568
  0
LINE
  8
_1-2_仕上
  6
CONTINUOUS
 62
    3
 10
1301.7905
 20
2014.2497
 11
1311.7203
 21
2014.2497
  0
LINE
  8
_1-2_仕上
  6
CONTINUOUS
 62
    3
 10
1301.7905
 20
1965.8378
 11
1311.7203
 21
1965.8378
  0
LINE
  8
_1-2_仕上
  6
CONTINUOUS
 62
    3
 10
672.66664
 20
2103.3768
 11
1050
 21
2103.3768
  0
LINE
  8
_1-2_仕上
  6
CONTINUOUS
 62
    3
 10
672.66664
 20
2093.3767
 11
1050
 21
2093.3767
  0
LINE
  8
_1-2_仕上
  6
CONTINUOUS
 62
    3
 10
672.66664
 20
2063.3766
 11
1050
 21
2063.3766
  0
LINE
  8
_1-2_仕上
  6
CONTINUOUS
 62
    3
 10
672.66664
 20
2053.3766
 11
1050
 21
2053.3766
  0
LINE
  8
_1-2_仕上
  6
CONTINUOUS
 62
    3
 10
1306.9999
 20
2112.5766
 11
1398.9814
 21
2035.3768
  0
LINE
  8
_1-2_仕上
  6
CONTINUOUS
 62
    3
 10
1304.9998
 20
2111.6695
 11
1398.2294
 21
2033.377
  0
LINE
  8
_1-8_
  6
CONTINUOUS
 62
    7
 10
672.66664
 20
2247.4031
 11
672.66664
 21
2403.063
  0
LINE
  8
_1-8_
  6
CONTINUOUS
 62
    7
 10
1427.3343
 20
2247.4023
 11
1427.3343
 21
2403.062
  0
LINE
  8
_1-8_
  6
CONTINUOUS
 62
    7
 10
636.28865
 20
2300.0427
 11
583.33362
 21
2300.0427
  0
LINE
  8
_1-8_
  6
CONTINUOUS
 62
    7
 10
636.95649
 20
1876.7107
 11
583.33362
 21
1876.7107
  0
LINE
  8
_1-8_
  6
CONTINUOUS
 62
    7
 10
1304.9998
 20
1858.7132
 11
1304.9998
 21
1808.2088
  0
LINE
  8
_1-8_
  6
CONTINUOUS
 62
    7
 10
794.99996
 20
1858.7132
 11
794.99996
 21
1808.2088
  0
LINE
  8
_1-2_仕上
  6
CONTINUOUS
 62
    3
 10
1221.6225
 20
2260.4894
 11
1050
 21
2161.4031
  0
LINE
  8
_1-2_仕上
  6
CONTINUOUS
 62
    3
 10
1427.3343
 20
2213.3756
 11
1140.0203
 21
2213.3764
  0
LINE
  8
_1-2_仕上
  6
CONTINUOUS
 62
    3
 10
1050
 20
2300.0427
 11
657.56675
 21
2209.908
  0
LINE
  8
_1-2_仕上
  6
CONTINUOUS
 62
    3
 10
1050
 20
2300.0427
 11
1442.4333
 21
2209.908
  0
LINE
  8
_1-2_仕上
  6
CONTINUOUS
 62
    3
 10
1221.6225
 20
2260.4894
 11
1050
 21
2260.4894
  0
LINE
  8
_1-2_仕上
  6
CONTINUOUS
 62
    3
 10
1423.9998
 20
2053.3759
 11
1423.9998
 21
2033.376
  0
LINE
  8
_1-2_仕上
  6
CONTINUOUS
 62
    3
 10
1427.3333
 20
2053.3759
 11
1427.3333
 21
2030.0428
  0
LINE
  8
_1-2_仕上
  6
CONTINUOUS
 62
    3
 10
672.66664
 20
2213.3764
 11
672.66664
 21
2103.3768
  0
LINE
  8
_1-1_1-1___
  6
CENTER2
 62
    7
 10
1050
 20
2363.9641
 11
1050
 21
1735.1351
  0
LINE
  8
_1-2_仕上
  6
CONTINUOUS
 62
    3
 10
1427.3333
 20
2030.0428
 11
1308.521
 21
2030.0435
  0
LINE
  8
_1-2_仕上
  6
CONTINUOUS
 62
    3
 10
1423.9998
 20
2033.376
 11
1304.9999
 21
2033.3768
  0
LINE
  8
_1-2_仕上
  6
CONTINUOUS
 62
    3
 10
1308.3333
 20
2030.0435
 11
1308.3333
 21
1950.044
  0
ARC
  8
_1-2_仕上
  6
CONTINUOUS
 62
    3
 10
1089.0135
 20
1987.4218
 40
7.5333353
 50
0
 51
90
  0
ARC
  8
_1-2_仕上
  6
CONTINUOUS
 62
    3
 10
1057.9589
 20
2012.4072
 40
4.9832998
 50
270
 51
0
  0
ARC
  8
_1-2_仕上
  6
CONTINUOUS
 62
    3
 10
1057.9589
 20
2079.0081
 40
4.9832998
 50
0
 51
90
  0
ARC
  8
_1-2_仕上
  6
CONTINUOUS
 62
    3
 10
794.99996
 20
1945.044
 40
5.0000165
 50
90
 51
270
  0
ARC
  8
_1-2_仕上
  6
CONTINUOUS
 62
    3
 10
794.99996
 20
1905.0438
 40
5.0000165
 50
90
 51
270
  0
ARC
  8
_1-2_仕上
  6
CONTINUOUS
 62
    3
 10
1305
 20
1905.0438
 40
5.0000165
 50
270
 51
90
  0
ARC
  8
_1-2_仕上
  6
CONTINUOUS
 62
    3
 10
1305
 20
1945.044
 40
5.0000165
 50
270
 51
90.000946
  0
ARC
  8
_1-2_仕上
  6
CONTINUOUS
 62
    3
 10
672.66664
 20
2098.3767
 40
5.0000165
 50
90
 51
270
  0
ARC
  8
_1-2_仕上
  6
CONTINUOUS
 62
    3
 10
672.66664
 20
2058.3766
 40
5.0000165
 50
90
 51
270
  0
ARC
  8
_1-2_仕上
  6
CONTINUOUS
 62
    3
 10
1427.3333
 20
2098.376
 40
5.0000165
 50
270
 51
90
  0
ARC
  8
_1-2_仕上
  6
CONTINUOUS
 62
    3
 10
1427.3333
 20
2058.3759
 40
5.0000165
 50
270
 51
90
  0
ARC
  8
_1-2_仕上
  6
CONTINUOUS
 62
    3
 10
1304.9998
 20
2126.3773
 40
5.0000165
 50
270
 51
90
  0
ARC
  8
_1-2_仕上
  6
CONTINUOUS
 62
    3
 10
1089.8816
 20
1945.4253
 40
6.6666662
 50
270
 51
0
  0
ARC
  8
_1-2_仕上
  6
CONTINUOUS
 62
    3
 10
1086.5483
 20
1936.0978
 40
3.3333331
 50
270
 51
0
  0
TEXT
  8
_1-d_
 62
    7
 10
254.99978
 20
157.4999
 40
25
 41
1
 50
0
  1
図
  0
TEXT
  8
_1-d_
 62
    7
 10
254.99978
 20
97.499965
 40
25
 41
1
 50
0
  1
番
  0
TEXT
  8
_1-d_
 62
    7
 10
655.00043
 20
157.4999
 40
25
 41
1
 50
0
  1
承
  0
TEXT
  8
_1-d_
 62
    7
 10
655.00043
 20
97.499965
 40
25
 41
1
 50
0
  1
認
  0
TEXT
  8
_1-d_
 62
    7
 10
1020.0002
 20
237.49994
 40
25
 41
1
 50
0
  1
尺
  0
TEXT
  8
_1-d_
 62
    7
 10
1020.0002
 20
197.49978
 40
25
 41
1
 50
0.0000708
  1
度
  0
TEXT
  8
_1-d_
 62
    7
 10
855.0001
 20
157.4999
 40
25
 41
1
 50
0
  1
製
  0
TEXT
  8
_1-d_
 62
    7
 10
855.0001
 20
97.499965
 40
25
 41
1
 50
0
  1
図
  0
TEXT
  8
_1-d_
 62
    7
 10
1555
 20
237.49994
 40
25
 41
1
 50
0
  1
日
  0
TEXT
  8
_1-d_
 62
    7
 10
1555
 20
197.49978
 40
25
 41
1
 50
0.0000708
  1
付
  0
TEXT
  8
_1-d_
 62
    7
 10
1111.4263
 20
163.48225
 40
20
 41
1
 50
0
  1
株式
  0
TEXT
  8
_1-d_
 62
    7
 10
1111.4263
 20
141.8518
 40
20
 41
1
 50
0.0000196
  1
会社
  0
TEXT
  8
_1-d_
 62
    3
 10
1174.2246
 20
143.24711
 40
40
 41
1
 50
0
  1
スズキベンチレーター
  0
TEXT
  8
_1-d_
 62
    7
 10
1237.9181
 20
94.024178
 40
20
 41
1
 50
0
  1
TEL(054)296-7000  FAX(054)296-7001
  0
TEXT
  8
_1-8_
 62
    3
 10
563.33356
 20
2065.8757
 40
30
 41
1
 50
90
  1
635
  0
TEXT
  8
_1-8_
 62
    3
 10
1011.6666
 20
2423.0636
 40
30
 41
1
 50
0
  1
1,130
  0
TEXT
  8
_1-8_
 62
    3
 10
1027.4999
 20
1821.5421
 40
30
 41
1
 50
0
  1
765
  0
TEXT
  8
_1-d_
 62
    3
 10
1084.3489
 20
210.10065
 40
40
 41
1
 50
0.000005
  1
１／１５
  0
TEXT
  8
_1-d_
 62
    7
 10
1235.6793
 20
118.64592
 40
20
 41
1
 50
0
  1
〒421-2114　静岡市葵区安倍口新田１５２番地
  0
TEXT
  8
_1-d_
 62
    3
 10
255.00006
 20
2792.7013
 40
50
 41
1
 50
0
  1
ＳＴ－７５Ｌ　直付型（低騒音）断面
  0
TEXT
  8
_1-d_
 62
    3
 10
280.67567
 20
215.81082
 40
30
 41
1
 50
0
  1
ＳＴ－７５Ｌ　直付型（低騒音）断面
  0
TEXT
  8
_1-d_
 62
    3
 10
308.45925
 20
140.30213
 40
30
 41
1
 50
0
  1
75L-02a
  0
POINT
  8
_1-8_
 62
    2
 10
583.33362
 20
1876.7107
  0
POINT
  8
_1-8_
 62
    2
 10
583.33362
 20
2300.0427
  0
POINT
  8
_1-8_
 62
    2
 10
672.66664
 20
2403.063
  0
POINT
  8
_1-8_
 62
    2
 10
1427.3343
 20
2403.062
  0
POINT
  8
_1-8_
 62
    2
 10
794.99996
 20
1808.2088
  0
POINT
  8
_1-8_
 62
    2
 10
1304.9998
 20
1808.2088
  0
ENDSEC
  0
EOF
