  0
SECTION
  2
HEADER
  9
$ACADVER
  1
AC1009
  9
$INSBASE
 10
0
 20
0
 30
0
  9
$EXTMIN
 10
0
 20
0
  9
$EXTMAX
 10
4200
 20
2970
  9
$LIMMIN
 10
0
 20
0
  9
$LIMMAX
 10
4200
 20
2970
  9
$LTSCALE
 40
10
  0
ENDSEC
  0
SECTION
  2
TABLES
  0
TABLE
  2
LTYPE
 70
     9
  0
LTYPE
  2
CONTINUOUS
 70
    64
  3
実線
 72
    65
 73
     0
 40
0.0
  0
LTYPE
  2
DASHED1
 70
    64
  3
--  --  --  --  --  --  --  --  
 72
    65
 73
     2
 40
2.5
 49
1.25
 49
-1.25
  0
LTYPE
  2
DASHED2
 70
    64
  3
----    ----    ----    ----    
 72
    65
 73
     2
 40
5.0
 49
2.5
 49
-2.5
  0
LTYPE
  2
DASHED3
 70
    64
  3
------  ------  ------  ------  
 72
    65
 73
     2
 40
5.0
 49
3.75
 49
-1.25
  0
LTYPE
  2
CENTER1
 70
    64
  3
----- - ----- - ----- - ----- - 
 72
    65
 73
     4
 40
10.0
 49
6.25
 49
-1.25
 49
1.25
 49
-1.25
  0
LTYPE
  2
CENTER2
 70
    64
  3
----------  --  ----------  --  
 72
    65
 73
     4
 40
20.0
 49
12.5
 49
-2.5
 49
2.5
 49
-2.5
  0
LTYPE
  2
PHANTOM1
 70
    64
  3
--- - - --- - - --- - - --- - - 
 72
    65
 73
     6
 40
10.0
 49
3.25
 49
-1.25
 49
1.25
 49
-1.25
 49
1.25
 49
-1.25
  0
LTYPE
  2
PHANTOM2
 70
    64
  3
--------  -  -  --------  -  -  
 72
    65
 73
     6
 40
20.0
 49
10.0
 49
-2.5
 49
1.25
 49
-2.5
 49
1.25
 49
-2.5
  0
LTYPE
  2
DOT
 70
    64
  3
-   -   -   -   -   -   -   -   
 72
    65
 73
     2
 40
2.5
 49
0.625
 49
-1.875
  0
LTYPE
  2
DUMMY
 70
    64
  3
ダミー
 72
    65
 73
     0
 40
0.0
  0
LTYPE
  2
RAND1
 70
    64
  3
----- - ----- - ----- - ----- - 
 72
    65
 73
     4
 40
10.0
 49
6.25
 49
-1.25
 49
1.25
 49
-1.25
  0
LTYPE
  2
RAND2
 70
    64
  3
----------  --  ----------  --  
 72
    65
 73
     4
 40
20.0
 49
12.5
 49
-2.5
 49
2.5
 49
-2.5
  0
LTYPE
  2
RAND3
 70
    64
  3
--- - - --- - - --- - - --- - - 
 72
    65
 73
     6
 40
10.0
 49
3.25
 49
-1.25
 49
1.25
 49
-1.25
 49
1.25
 49
-1.25
  0
LTYPE
  2
RAND4
 70
    64
  3
--------  -  -  --------  -  -  
 72
    65
 73
     6
 40
20.0
 49
10.0
 49
-2.5
 49
1.25
 49
-2.5
 49
1.25
 49
-2.5
  0
LTYPE
  2
RAND5
 70
    64
  3
----- - ----- - ----- - ----- - 
 72
    65
 73
     4
 40
10.0
 49
6.25
 49
-1.25
 49
1.25
 49
-1.25
  0
LTYPE
  2
LONG1
 70
    64
  3
----------  --  ----------  --  
 72
    65
 73
     4
 40
20.0
 49
12.5
 49
-2.5
 49
2.5
 49
-2.5
  0
LTYPE
  2
LONG2
 70
    64
  3
--- - - --- - - --- - - --- - - 
 72
    65
 73
     6
 40
10.0
 49
3.25
 49
-1.25
 49
1.25
 49
-1.25
 49
1.25
 49
-1.25
  0
LTYPE
  2
LONG3
 70
    64
  3
--------  -  -  --------  -  -  
 72
    65
 73
     6
 40
20.0
 49
10.0
 49
-2.5
 49
1.25
 49
-2.5
 49
1.25
 49
-2.5
  0
LTYPE
  2
LONG4
 70
    64
  3
----- - ----- - ----- - ----- - 
 72
    65
 73
     4
 40
10.0
 49
6.25
 49
-1.25
 49
1.25
 49
-1.25
  0
LTYPE
  2
LONG5
 70
    64
  3
----------  --  ----------  --  
 72
    65
 73
     4
 40
20.0
 49
12.5
 49
-2.5
 49
2.5
 49
-2.5
  0
ENDTAB
  0
TABLE
  2
STYLE
  5
3
100
AcDbSymbolTable
 70
     1
  0
STYLE
  5
10
100
AcDbSymbolTableRecord
100
AcDbTextStyleTableRecord
  2
STANDARD
 70
     0
 40
0.0
 41
1.0
 50
0.0
 71
     0
 42
0.2
  3
txt
  4
bigfont.shx
  0
STYLE
  5
26
100
AcDbSymbolTableRecord
100
AcDbTextStyleTableRecord
  2
TATEGAKI
 70
    68
 40
0.0
 41
1.0
 50
0.0
 71
     0
 42
1.0
  3
txt
  4
bigfont.shx
  0
ENDTAB
  0
TABLE
  2
LAYER
 70
    6
  0
LAYER
  2
_0-1_基準線
 70
   64
 62
    7
  6
CONTINUOUS
  0
LAYER
  2
_0-2_躯体
 70
   64
 62
    7
  6
CONTINUOUS
  0
LAYER
  2
_0-3_軸組
 70
   64
 62
    7
  6
CONTINUOUS
  0
LAYER
  2
_0-8_寸法
 70
   64
 62
    7
  6
CONTINUOUS
  0
LAYER
  2
_0-d_文字
 70
   64
 62
    7
  6
CONTINUOUS
  0
LAYER
  2
ADD_LINE
 70
   64
 62
    7
  6
CONTINUOUS
  0
ENDTAB
  0
ENDSEC
  0
SECTION
  2
BLOCKS
  0
ENDSEC
  0
SECTION
  2
ENTITIES
  0
LINE
  8
_0-d_文字
  6
CONTINUOUS
 62
    7
 10
250.00003
 20
2757.7012
 11
1850
 21
2757.7012
  0
LINE
  8
_0-d_文字
  6
CONTINUOUS
 62
    7
 10
250.00003
 20
2767.7015
 11
1850
 21
2767.7015
  0
LINE
  8
_0-d_文字
  6
CONTINUOUS
 62
    7
 10
249.99966
 20
189.99988
 11
1850.0002
 21
189.99988
  0
LINE
  8
_0-d_文字
  6
CONTINUOUS
 62
    7
 10
249.99966
 20
89.999802
 11
249.99966
 21
269.9999
  0
LINE
  8
_0-d_文字
  6
CONTINUOUS
 62
    7
 10
249.99966
 20
89.999802
 11
1850.0002
 21
89.999802
  0
LINE
  8
_0-d_文字
  6
CONTINUOUS
 62
    7
 10
1850.0002
 20
269.9999
 11
1850.0002
 21
89.999802
  0
LINE
  8
_0-d_文字
  6
CONTINUOUS
 62
    7
 10
249.99966
 20
269.9999
 11
1850.0002
 21
269.9999
  0
LINE
  8
_0-d_文字
  6
CONTINUOUS
 62
    7
 10
1050
 20
269.9999
 11
1050
 21
89.999802
  0
LINE
  8
_0-d_文字
  6
CONTINUOUS
 62
    7
 10
650.00016
 20
89.999802
 11
650.00016
 21
189.99988
  0
LINE
  8
_0-d_文字
  6
CONTINUOUS
 62
    7
 10
1050
 20
189.99988
 11
1050
 21
269.9999
  0
LINE
  8
_0-d_文字
  6
CONTINUOUS
 62
    7
 10
849.99971
 20
89.999802
 11
849.99971
 21
189.99988
  0
LINE
  8
_0-d_文字
  6
CONTINUOUS
 62
    7
 10
285.00001
 20
89.999802
 11
285.00001
 21
189.99988
  0
LINE
  8
_0-d_文字
  6
CONTINUOUS
 62
    7
 10
685.00003
 20
89.999802
 11
685.00003
 21
189.99988
  0
LINE
  8
_0-d_文字
  6
CONTINUOUS
 62
    7
 10
885.00007
 20
89.999802
 11
885.00007
 21
189.99988
  0
LINE
  8
_0-d_文字
  6
CONTINUOUS
 62
    7
 10
1015
 20
189.99988
 11
1015
 21
269.9999
  0
LINE
  8
_0-d_文字
  6
CONTINUOUS
 62
    7
 10
1550.0004
 20
189.99988
 11
1550.0004
 21
269.9999
  0
LINE
  8
_0-d_文字
  6
CONTINUOUS
 62
    7
 10
1585.0001
 20
189.99988
 11
1585.0001
 21
269.9999
  0
LINE
  8
_0-8_寸法
  6
CONTINUOUS
 62
    7
 10
330.53135
 20
1699.4204
 11
330.53135
 21
2269.8627
  0
LINE
  8
_0-8_寸法
  6
CONTINUOUS
 62
    7
 10
570.00002
 20
2371.0567
 11
1529.9999
 21
2371.0567
  0
LINE
  8
_0-8_寸法
  6
CONTINUOUS
 62
    7
 10
742.50009
 20
1553.1891
 11
1357.4999
 21
1553.1891
  0
LINE
  8
_0-8_寸法
  6
CONTINUOUS
 62
    7
 10
570.00002
 20
2215.3821
 11
570.00002
 21
2371.0567
  0
LINE
  8
_0-8_寸法
  6
CONTINUOUS
 62
    7
 10
710.26561
 20
2269.8627
 11
330.53135
 21
2269.8627
  0
LINE
  8
_0-8_寸法
  6
CONTINUOUS
 62
    7
 10
1529.9999
 20
2215.3821
 11
1529.9999
 21
2371.0567
  0
LINE
  8
_0-2_躯体
  6
CONTINUOUS
 62
    3
 10
570.00002
 20
2000.3056
 11
570.00002
 21
1962.0759
  0
LINE
  8
_0-2_躯体
  6
CONTINUOUS
 62
    3
 10
570.00002
 20
1949.3327
 11
570.00002
 21
1919.4208
  0
LINE
  8
_0-2_躯体
  6
CONTINUOUS
 62
    3
 10
742.50009
 20
1712.1635
 11
1357.4999
 21
1712.1635
  0
LINE
  8
_0-2_躯体
  6
CONTINUOUS
 62
    3
 10
742.50009
 20
1750.3937
 11
742.50009
 21
1712.1635
  0
LINE
  8
_0-2_躯体
  6
CONTINUOUS
 62
    3
 10
742.50009
 20
1699.4209
 11
1357.4999
 21
1699.4209
  0
LINE
  8
_0-2_躯体
  6
CONTINUOUS
 62
    3
 10
1357.4999
 20
1750.3937
 11
1357.4999
 21
1712.1635
  0
LINE
  8
_0-8_寸法
  6
CONTINUOUS
 62
    7
 10
742.50009
 20
1676.802
 11
742.50009
 21
1553.1891
  0
LINE
  8
_0-8_寸法
  6
CONTINUOUS
 62
    7
 10
1357.4999
 20
1676.802
 11
1357.4999
 21
1553.1891
  0
LINE
  8
_0-2_躯体
  6
CONTINUOUS
 62
    3
 10
1360.05
 20
2042.764
 11
1360.05
 21
2031.5431
  0
LINE
  8
_0-2_躯体
  6
CONTINUOUS
 62
    3
 10
1352.8801
 20
2037.0007
 11
1363.9585
 21
2037.0007
  0
LINE
  8
_0-2_躯体
  6
CONTINUOUS
 62
    3
 10
1353.4077
 20
1806.7163
 11
1366.0682
 21
1806.7163
  0
LINE
  8
_0-2_躯体
  6
CONTINUOUS
 62
    3
 10
570.00002
 20
2013.049
 11
1050
 21
2013.049
  0
LINE
  8
_0-2_躯体
  6
CONTINUOUS
 62
    3
 10
570.00002
 20
2000.3056
 11
1050
 21
2000.3056
  0
LINE
  8
_0-2_躯体
  6
CONTINUOUS
 62
    3
 10
570.00002
 20
1962.0759
 11
1050
 21
1962.0759
  0
LINE
  8
_0-2_躯体
  6
CONTINUOUS
 62
    3
 10
570.00002
 20
1949.3327
 11
1050
 21
1949.3327
  0
LINE
  8
_0-2_躯体
  6
CONTINUOUS
 62
    3
 10
570.00002
 20
1919.4208
 11
1050
 21
1919.4208
  0
LINE
  8
_0-3_軸組
  6
CONTINUOUS
 62
    3
 10
1071.7954
 20
1983.5799
 11
1077.5311
 21
1987.1057
  0
LINE
  8
_0-3_軸組
  6
CONTINUOUS
 62
    3
 10
1077.5311
 20
1987.1057
 11
1083.24
 21
1990.7015
  0
LINE
  8
_0-3_軸組
  6
CONTINUOUS
 62
    3
 10
1083.24
 20
1990.7015
 11
1088.895
 21
1994.4311
  0
LINE
  8
_0-3_軸組
  6
CONTINUOUS
 62
    3
 10
1088.895
 20
1994.4311
 11
1094.4327
 21
1998.3684
  0
LINE
  8
_0-3_軸組
  6
CONTINUOUS
 62
    3
 10
1094.4327
 20
1998.3684
 11
1099.7532
 21
2002.5922
  0
LINE
  8
_0-3_軸組
  6
CONTINUOUS
 62
    3
 10
1099.7532
 20
2002.5922
 11
1104.7435
 21
2007.1723
  0
LINE
  8
_0-3_軸組
  6
CONTINUOUS
 62
    3
 10
1104.7435
 20
2007.1723
 11
1109.2954
 21
2012.1901
  0
LINE
  8
_0-3_軸組
  6
CONTINUOUS
 62
    3
 10
1109.2954
 20
2012.1901
 11
1113.3
 21
2017.7147
  0
LINE
  8
_0-3_軸組
  6
CONTINUOUS
 62
    3
 10
1113.3
 20
2017.7147
 11
1116.7914
 21
2023.6909
  0
LINE
  8
_0-3_軸組
  6
CONTINUOUS
 62
    3
 10
1116.7914
 20
2023.6909
 11
1120.0912
 21
2029.7937
  0
LINE
  8
_0-3_軸組
  6
CONTINUOUS
 62
    3
 10
1120.0912
 20
2029.7937
 11
1123.5331
 21
2035.6788
  0
LINE
  8
_0-3_軸組
  6
CONTINUOUS
 62
    3
 10
1123.5331
 20
2035.6788
 11
1127.4709
 21
2041.0013
  0
LINE
  8
_0-3_軸組
  6
CONTINUOUS
 62
    3
 10
1127.4709
 20
2041.0013
 11
1132.2386
 21
2045.4141
  0
LINE
  8
_0-3_軸組
  6
CONTINUOUS
 62
    3
 10
1132.2386
 20
2045.4141
 11
1137.9401
 21
2048.8258
  0
LINE
  8
_0-3_軸組
  6
CONTINUOUS
 62
    3
 10
1137.9401
 20
2048.8258
 11
1144.228
 21
2051.6135
  0
LINE
  8
_0-3_軸組
  6
CONTINUOUS
 62
    3
 10
1144.228
 20
2051.6135
 11
1147.2042
 21
2052.8027
  0
LINE
  8
_0-3_軸組
  6
CONTINUOUS
 62
    3
 10
1144.228
 20
2051.6135
 11
1148.3682
 21
2052.2717
  0
LINE
  8
_0-3_軸組
  6
CONTINUOUS
 62
    3
 10
1148.3682
 20
2052.2717
 11
1152.5459
 21
2052.844
  0
LINE
  8
_0-3_軸組
  6
CONTINUOUS
 62
    3
 10
1152.5459
 20
2052.844
 11
1156.793
 21
2053.254
  0
LINE
  8
_0-3_軸組
  6
CONTINUOUS
 62
    3
 10
1156.793
 20
2053.254
 11
1161.144
 21
2053.4089
  0
LINE
  8
_0-3_軸組
  6
CONTINUOUS
 62
    3
 10
1161.144
 20
2053.4089
 11
1165.6271
 21
2053.2332
  0
LINE
  8
_0-3_軸組
  6
CONTINUOUS
 62
    3
 10
1165.6271
 20
2053.2332
 11
1170.1137
 21
2052.5797
  0
LINE
  8
_0-3_軸組
  6
CONTINUOUS
 62
    3
 10
1170.1137
 20
2052.5797
 11
1174.2989
 21
2051.269
  0
LINE
  8
_0-3_軸組
  6
CONTINUOUS
 62
    3
 10
1174.2989
 20
2051.269
 11
1177.867
 21
2049.096
  0
LINE
  8
_0-3_軸組
  6
CONTINUOUS
 62
    3
 10
1177.867
 20
2049.096
 11
1180.5596
 21
2045.9211
  0
LINE
  8
_0-3_軸組
  6
CONTINUOUS
 62
    3
 10
1180.5596
 20
2045.9211
 11
1182.6579
 21
2042.1086
  0
LINE
  8
_0-3_軸組
  6
CONTINUOUS
 62
    3
 10
1069.5432
 20
1967.8239
 11
1076.2652
 21
1968.8216
  0
LINE
  8
_0-3_軸組
  6
CONTINUOUS
 62
    3
 10
1076.2652
 20
1968.8216
 11
1082.9451
 21
1969.9514
  0
LINE
  8
_0-3_軸組
  6
CONTINUOUS
 62
    3
 10
1082.9451
 20
1969.9514
 11
1089.5522
 21
1971.3314
  0
LINE
  8
_0-3_軸組
  6
CONTINUOUS
 62
    3
 10
1089.5522
 20
1971.3314
 11
1096.0406
 21
1973.0973
  0
LINE
  8
_0-3_軸組
  6
CONTINUOUS
 62
    3
 10
1096.0406
 20
1973.0973
 11
1102.377
 21
1975.3698
  0
LINE
  8
_0-3_軸組
  6
CONTINUOUS
 62
    3
 10
1102.377
 20
1975.3698
 11
1108.5254
 21
1978.1817
  0
LINE
  8
_0-3_軸組
  6
CONTINUOUS
 62
    3
 10
1108.5254
 20
1978.1817
 11
1114.459
 21
1981.4776
  0
LINE
  8
_0-3_軸組
  6
CONTINUOUS
 62
    3
 10
1114.459
 20
1981.4776
 11
1120.1462
 21
1985.2194
  0
LINE
  8
_0-3_軸組
  6
CONTINUOUS
 62
    3
 10
1120.1462
 20
1985.2194
 11
1125.5602
 21
1989.3408
  0
LINE
  8
_0-3_軸組
  6
CONTINUOUS
 62
    3
 10
1125.5602
 20
1989.3408
 11
1130.6742
 21
1993.8021
  0
LINE
  8
_0-3_軸組
  6
CONTINUOUS
 62
    3
 10
1130.6742
 20
1993.8021
 11
1135.5285
 21
1998.5228
  0
LINE
  8
_0-3_軸組
  6
CONTINUOUS
 62
    3
 10
1135.5285
 20
1998.5228
 11
1140.2195
 21
2003.3944
  0
LINE
  8
_0-3_軸組
  6
CONTINUOUS
 62
    3
 10
1140.2195
 20
2003.3944
 11
1144.8516
 21
2008.3108
  0
LINE
  8
_0-3_軸組
  6
CONTINUOUS
 62
    3
 10
1144.8516
 20
2008.3108
 11
1149.5227
 21
2013.1618
  0
LINE
  8
_0-3_軸組
  6
CONTINUOUS
 62
    3
 10
1149.5227
 20
2013.1618
 11
1154.3384
 21
2017.8424
  0
LINE
  8
_0-3_軸組
  6
CONTINUOUS
 62
    3
 10
1154.3384
 20
2017.8424
 11
1159.3921
 21
2022.2592
  0
LINE
  8
_0-3_軸組
  6
CONTINUOUS
 62
    3
 10
1159.3921
 20
2022.2592
 11
1164.6764
 21
2026.4092
  0
LINE
  8
_0-3_軸組
  6
CONTINUOUS
 62
    3
 10
1164.6764
 20
2026.4092
 11
1170.1488
 21
2030.3549
  0
LINE
  8
_0-3_軸組
  6
CONTINUOUS
 62
    3
 10
1170.1488
 20
2030.3549
 11
1175.7523
 21
2034.1482
  0
LINE
  8
_0-3_軸組
  6
CONTINUOUS
 62
    3
 10
1175.7523
 20
2034.1482
 11
1181.443
 21
2037.8454
  0
LINE
  8
_0-3_軸組
  6
CONTINUOUS
 62
    3
 10
1181.443
 20
2037.8454
 11
1185.4723
 21
2040.4205
  0
LINE
  8
_0-3_軸組
  6
CONTINUOUS
 62
    3
 10
1185.4723
 20
2040.4205
 11
1191.7592
 21
2043.029
  0
LINE
  8
_0-3_軸組
  6
CONTINUOUS
 62
    3
 10
1191.7592
 20
2043.029
 11
1198.0828
 21
2045.4638
  0
LINE
  8
_0-3_軸組
  6
CONTINUOUS
 62
    3
 10
1198.0828
 20
2045.4638
 11
1204.4806
 21
2047.5535
  0
LINE
  8
_0-3_軸組
  6
CONTINUOUS
 62
    3
 10
1204.4806
 20
2047.5535
 11
1210.9902
 21
2049.1287
  0
LINE
  8
_0-3_軸組
  6
CONTINUOUS
 62
    3
 10
1210.9902
 20
2049.1287
 11
1217.6271
 21
2050.0932
  0
LINE
  8
_0-3_軸組
  6
CONTINUOUS
 62
    3
 10
1217.6271
 20
2050.0932
 11
1224.3604
 21
2050.5163
  0
LINE
  8
_0-3_軸組
  6
CONTINUOUS
 62
    3
 10
1224.3604
 20
2050.5163
 11
1231.1506
 21
2050.4923
  0
LINE
  8
_0-3_軸組
  6
CONTINUOUS
 62
    3
 10
1231.1506
 20
2050.4923
 11
1237.9597
 21
2050.11
  0
LINE
  8
_0-3_軸組
  6
CONTINUOUS
 62
    3
 10
1237.9597
 20
2050.11
 11
1244.7569
 21
2049.4652
  0
LINE
  8
_0-3_軸組
  6
CONTINUOUS
 62
    3
 10
1244.7569
 20
2049.4652
 11
1251.5021
 21
2048.6358
  0
LINE
  8
_0-3_軸組
  6
CONTINUOUS
 62
    3
 10
1251.5021
 20
2048.6358
 11
1258.1879
 21
2047.6039
  0
LINE
  8
_0-3_軸組
  6
CONTINUOUS
 62
    3
 10
1258.1879
 20
2047.6039
 11
1264.8168
 21
2046.3487
  0
LINE
  8
_0-3_軸組
  6
CONTINUOUS
 62
    3
 10
1264.8168
 20
2046.3487
 11
1271.3784
 21
2044.8254
  0
LINE
  8
_0-3_軸組
  6
CONTINUOUS
 62
    3
 10
1271.3784
 20
2044.8254
 11
1277.8777
 21
2043.0075
  0
LINE
  8
_0-3_軸組
  6
CONTINUOUS
 62
    3
 10
1277.8777
 20
2043.0075
 11
1284.3111
 21
2040.8558
  0
LINE
  8
_0-3_軸組
  6
CONTINUOUS
 62
    3
 10
1284.3111
 20
2040.8558
 11
1290.653
 21
2038.3398
  0
LINE
  8
_0-3_軸組
  6
CONTINUOUS
 62
    3
 10
1290.653
 20
2038.3398
 11
1296.8449
 21
2035.4314
  0
LINE
  8
_0-3_軸組
  6
CONTINUOUS
 62
    3
 10
1296.8449
 20
2035.4314
 11
1302.7944
 21
2032.1125
  0
LINE
  8
_0-3_軸組
  6
CONTINUOUS
 62
    3
 10
1302.7944
 20
2032.1125
 11
1308.4276
 21
2028.3504
  0
LINE
  8
_0-3_軸組
  6
CONTINUOUS
 62
    3
 10
1308.4276
 20
2028.3504
 11
1313.6599
 21
2024.1199
  0
LINE
  8
_0-3_軸組
  6
CONTINUOUS
 62
    3
 10
1313.6599
 20
2024.1199
 11
1318.4192
 21
2019.4084
  0
LINE
  8
_0-3_軸組
  6
CONTINUOUS
 62
    3
 10
1318.4192
 20
2019.4084
 11
1322.7682
 21
2014.2837
  0
LINE
  8
_0-3_軸組
  6
CONTINUOUS
 62
    3
 10
1322.7682
 20
2014.2837
 11
1326.8138
 21
2008.8593
  0
LINE
  8
_0-3_軸組
  6
CONTINUOUS
 62
    3
 10
1326.8138
 20
2008.8593
 11
1330.6719
 21
2003.2518
  0
LINE
  8
_0-3_軸組
  6
CONTINUOUS
 62
    3
 10
1330.6719
 20
2003.2518
 11
1332.9132
 21
1999.9025
  0
LINE
  8
_0-3_軸組
  6
CONTINUOUS
 62
    3
 10
1330.6719
 20
2003.2518
 11
1333.6877
 21
1997.006
  0
LINE
  8
_0-3_軸組
  6
CONTINUOUS
 62
    3
 10
1333.6877
 20
1997.006
 11
1336.5442
 21
1990.7314
  0
LINE
  8
_0-3_軸組
  6
CONTINUOUS
 62
    3
 10
1336.5442
 20
1990.7314
 11
1339.0844
 21
1984.414
  0
LINE
  8
_0-3_軸組
  6
CONTINUOUS
 62
    3
 10
1339.0844
 20
1984.414
 11
1341.1485
 21
1978.0174
  0
LINE
  8
_0-3_軸組
  6
CONTINUOUS
 62
    3
 10
1341.1485
 20
1978.0174
 11
1342.5777
 21
1971.5251
  0
LINE
  8
_0-3_軸組
  6
CONTINUOUS
 62
    3
 10
1342.5777
 20
1971.5251
 11
1343.2206
 21
1964.911
  0
LINE
  8
_0-3_軸組
  6
CONTINUOUS
 62
    3
 10
1343.2206
 20
1964.911
 11
1343.036
 21
1958.202
  0
LINE
  8
_0-3_軸組
  6
CONTINUOUS
 62
    3
 10
1343.036
 20
1958.202
 11
1342.1368
 21
1951.4632
  0
LINE
  8
_0-3_軸組
  6
CONTINUOUS
 62
    3
 10
1342.1368
 20
1951.4632
 11
1340.6383
 21
1944.7727
  0
LINE
  8
_0-3_軸組
  6
CONTINUOUS
 62
    3
 10
1340.6383
 20
1944.7727
 11
1338.6444
 21
1938.2076
  0
LINE
  8
_0-3_軸組
  6
CONTINUOUS
 62
    3
 10
1338.6444
 20
1938.2076
 11
1336.1864
 21
1931.8578
  0
LINE
  8
_0-3_軸組
  6
CONTINUOUS
 62
    3
 10
1336.1864
 20
1931.8578
 11
1333.1993
 21
1925.8131
  0
LINE
  8
_0-3_軸組
  6
CONTINUOUS
 62
    3
 10
1333.1993
 20
1925.8131
 11
1329.6114
 21
1920.168
  0
LINE
  8
_0-3_軸組
  6
CONTINUOUS
 62
    3
 10
1329.6114
 20
1920.168
 11
1325.4302
 21
1914.9544
  0
LINE
  8
_0-3_軸組
  6
CONTINUOUS
 62
    3
 10
1325.4302
 20
1914.9544
 11
1320.7823
 21
1910.0769
  0
LINE
  8
_0-3_軸組
  6
CONTINUOUS
 62
    3
 10
1320.7823
 20
1910.0769
 11
1315.8142
 21
1905.4342
  0
LINE
  8
_0-3_軸組
  6
CONTINUOUS
 62
    3
 10
1315.8142
 20
1905.4342
 11
1310.6649
 21
1900.9261
  0
LINE
  8
_0-3_軸組
  6
CONTINUOUS
 62
    3
 10
1310.6649
 20
1900.9261
 11
1309.2763
 21
1899.7324
  0
LINE
  8
_0-3_軸組
  6
CONTINUOUS
 62
    3
 10
1310.6649
 20
1900.9261
 11
1304.7541
 21
1897.6124
  0
LINE
  8
_0-3_軸組
  6
CONTINUOUS
 62
    3
 10
1304.7541
 20
1897.6124
 11
1298.8215
 21
1894.3605
  0
LINE
  8
_0-3_軸組
  6
CONTINUOUS
 62
    3
 10
1298.8215
 20
1894.3605
 11
1292.8404
 21
1891.2264
  0
LINE
  8
_0-3_軸組
  6
CONTINUOUS
 62
    3
 10
1292.8404
 20
1891.2264
 11
1286.7766
 21
1888.2705
  0
LINE
  8
_0-3_軸組
  6
CONTINUOUS
 62
    3
 10
1286.7766
 20
1888.2705
 11
1280.6158
 21
1885.5504
  0
LINE
  8
_0-3_軸組
  6
CONTINUOUS
 62
    3
 10
1280.6158
 20
1885.5504
 11
1274.323
 21
1883.1248
  0
LINE
  8
_0-3_軸組
  6
CONTINUOUS
 62
    3
 10
1274.323
 20
1883.1248
 11
1267.8984
 21
1881.0285
  0
LINE
  8
_0-3_軸組
  6
CONTINUOUS
 62
    3
 10
1267.8984
 20
1881.0285
 11
1261.366
 21
1879.2689
  0
LINE
  8
_0-3_軸組
  6
CONTINUOUS
 62
    3
 10
1261.366
 20
1879.2689
 11
1254.7534
 21
1877.8444
  0
LINE
  8
_0-3_軸組
  6
CONTINUOUS
 62
    3
 10
1254.7534
 20
1877.8444
 11
1248.08
 21
1876.7539
  0
LINE
  8
_0-3_軸組
  6
CONTINUOUS
 62
    3
 10
1248.08
 20
1876.7539
 11
1241.3773
 21
1875.9908
  0
LINE
  8
_0-3_軸組
  6
CONTINUOUS
 62
    3
 10
1241.3773
 20
1875.9908
 11
1234.6524
 21
1875.4972
  0
LINE
  8
_0-3_軸組
  6
CONTINUOUS
 62
    3
 10
1234.6524
 20
1875.4972
 11
1227.9097
 21
1875.2099
  0
LINE
  8
_0-3_軸組
  6
CONTINUOUS
 62
    3
 10
1227.9097
 20
1875.2099
 11
1221.1531
 21
1875.0533
  0
LINE
  8
_0-3_軸組
  6
CONTINUOUS
 62
    3
 10
1221.1531
 20
1875.0533
 11
1215.2957
 21
1874.9709
  0
LINE
  8
_0-3_軸組
  6
CONTINUOUS
 62
    3
 10
1139.7924
 20
1874.3503
 11
1146.1135
 21
1871.7923
  0
LINE
  8
_0-3_軸組
  6
CONTINUOUS
 62
    3
 10
1146.1135
 20
1871.7923
 11
1152.4692
 21
1869.2632
  0
LINE
  8
_0-3_軸組
  6
CONTINUOUS
 62
    3
 10
1152.4692
 20
1869.2632
 11
1158.8853
 21
1866.9333
  0
LINE
  8
_0-3_軸組
  6
CONTINUOUS
 62
    3
 10
1158.8853
 20
1866.9333
 11
1165.3633
 21
1864.9904
  0
LINE
  8
_0-3_軸組
  6
CONTINUOUS
 62
    3
 10
1165.3633
 20
1864.9904
 11
1171.9205
 21
1863.6201
  0
LINE
  8
_0-3_軸組
  6
CONTINUOUS
 62
    3
 10
1171.9205
 20
1863.6201
 11
1178.5707
 21
1863.0062
  0
LINE
  8
_0-3_軸組
  6
CONTINUOUS
 62
    3
 10
1178.5707
 20
1863.0062
 11
1185.2991
 21
1863.1027
  0
LINE
  8
_0-3_軸組
  6
CONTINUOUS
 62
    3
 10
1185.2991
 20
1863.1027
 11
1192.0754
 21
1863.6023
  0
LINE
  8
_0-3_軸組
  6
CONTINUOUS
 62
    3
 10
1192.0754
 20
1863.6023
 11
1193.3488
 21
1863.7143
  0
LINE
  8
_0-3_軸組
  6
CONTINUOUS
 62
    3
 10
1192.0754
 20
1863.6023
 11
1197.6166
 21
1864.8382
  0
LINE
  8
_0-3_軸組
  6
CONTINUOUS
 62
    3
 10
1197.6166
 20
1864.8382
 11
1202.9351
 21
1866.5483
  0
LINE
  8
_0-3_軸組
  6
CONTINUOUS
 62
    3
 10
1202.9351
 20
1866.5483
 11
1207.8156
 21
1869.2105
  0
LINE
  8
_0-3_軸組
  6
CONTINUOUS
 62
    3
 10
1207.8156
 20
1869.2105
 11
1211.976
 21
1873.0312
  0
LINE
  8
_0-3_軸組
  6
CONTINUOUS
 62
    3
 10
1211.976
 20
1873.0312
 11
1215.0601
 21
1877.8199
  0
LINE
  8
_0-3_軸組
  6
CONTINUOUS
 62
    3
 10
1215.0601
 20
1877.8199
 11
1216.7407
 21
1883.2945
  0
LINE
  8
_0-3_軸組
  6
CONTINUOUS
 62
    3
 10
1216.7407
 20
1883.2945
 11
1216.864
 21
1888.9577
  0
LINE
  8
_0-3_軸組
  6
CONTINUOUS
 62
    3
 10
1216.864
 20
1888.9577
 11
1215.366
 21
1894.263
  0
LINE
  8
_0-3_軸組
  6
CONTINUOUS
 62
    3
 10
1215.366
 20
1894.263
 11
1212.5654
 21
1899.0891
  0
LINE
  8
_0-3_軸組
  6
CONTINUOUS
 62
    3
 10
1212.5654
 20
1899.0891
 11
1209.1067
 21
1903.6712
  0
LINE
  8
_0-3_軸組
  6
CONTINUOUS
 62
    3
 10
1079.2666
 20
1959.0893
 11
1086.0777
 21
1957.9295
  0
LINE
  8
_0-3_軸組
  6
CONTINUOUS
 62
    3
 10
1086.0777
 20
1957.9295
 11
1092.8654
 21
1956.9662
  0
LINE
  8
_0-3_軸組
  6
CONTINUOUS
 62
    3
 10
1092.8654
 20
1956.9662
 11
1099.6037
 21
1956.3937
  0
LINE
  8
_0-3_軸組
  6
CONTINUOUS
 62
    3
 10
1099.6037
 20
1956.3937
 11
1106.2697
 21
1956.4041
  0
LINE
  8
_0-3_軸組
  6
CONTINUOUS
 62
    3
 10
1106.2697
 20
1956.4041
 11
1112.8373
 21
1957.1887
  0
LINE
  8
_0-3_軸組
  6
CONTINUOUS
 62
    3
 10
1112.8373
 20
1957.1887
 11
1119.3093
 21
1958.7817
  0
LINE
  8
_0-3_軸組
  6
CONTINUOUS
 62
    3
 10
1119.3093
 20
1958.7817
 11
1125.6977
 21
1960.9673
  0
LINE
  8
_0-3_軸組
  6
CONTINUOUS
 62
    3
 10
1125.6977
 20
1960.9673
 11
1132.0347
 21
1963.5318
  0
LINE
  8
_0-3_軸組
  6
CONTINUOUS
 62
    3
 10
1132.0347
 20
1963.5318
 11
1138.3325
 21
1966.242
  0
LINE
  8
_0-3_軸組
  6
CONTINUOUS
 62
    3
 10
1138.3325
 20
1966.242
 11
1144.6239
 21
1968.9025
  0
LINE
  8
_0-3_軸組
  6
CONTINUOUS
 62
    3
 10
1144.6239
 20
1968.9025
 11
1150.9084
 21
1971.4628
  0
LINE
  8
_0-3_軸組
  6
CONTINUOUS
 62
    3
 10
1150.9084
 20
1971.4628
 11
1157.1919
 21
1973.9473
  0
LINE
  8
_0-3_軸組
  6
CONTINUOUS
 62
    3
 10
1157.1919
 20
1973.9473
 11
1163.4689
 21
1976.3695
  0
LINE
  8
_0-3_軸組
  6
CONTINUOUS
 62
    3
 10
1163.4689
 20
1976.3695
 11
1169.746
 21
1978.7474
  0
LINE
  8
_0-3_軸組
  6
CONTINUOUS
 62
    3
 10
1169.746
 20
1978.7474
 11
1176.0235
 21
1981.1035
  0
LINE
  8
_0-3_軸組
  6
CONTINUOUS
 62
    3
 10
1176.0235
 20
1981.1035
 11
1175.9369
 21
1975.3213
  0
LINE
  8
_0-3_軸組
  6
CONTINUOUS
 62
    3
 10
1175.9369
 20
1975.3213
 11
1175.8533
 21
1969.5456
  0
LINE
  8
_0-3_軸組
  6
CONTINUOUS
 62
    3
 10
1175.8533
 20
1969.5456
 11
1175.7697
 21
1963.7627
  0
LINE
  8
_0-3_軸組
  6
CONTINUOUS
 62
    3
 10
1175.7697
 20
1963.7627
 11
1175.6826
 21
1957.9859
  0
LINE
  8
_0-3_軸組
  6
CONTINUOUS
 62
    3
 10
1175.6826
 20
1957.9859
 11
1175.5999
 21
1952.2095
  0
LINE
  8
_0-3_軸組
  6
CONTINUOUS
 62
    3
 10
1175.5999
 20
1952.2095
 11
1175.5168
 21
1946.4268
  0
LINE
  8
_0-3_軸組
  6
CONTINUOUS
 62
    3
 10
1175.5168
 20
1946.4268
 11
1175.4297
 21
1940.6513
  0
LINE
  8
_0-3_軸組
  6
CONTINUOUS
 62
    3
 10
1175.4297
 20
1940.6513
 11
1175.346
 21
1934.8689
  0
LINE
  8
_0-3_軸組
  6
CONTINUOUS
 62
    3
 10
1175.346
 20
1934.8689
 11
1175.2604
 21
1929.0912
  0
LINE
  8
_0-3_軸組
  6
CONTINUOUS
 62
    3
 10
1175.2604
 20
1929.0912
 11
1175.1763
 21
1923.3107
  0
LINE
  8
_0-3_軸組
  6
CONTINUOUS
 62
    3
 10
1209.1067
 20
1903.6712
 11
1207.7245
 21
1904.8896
  0
LINE
  8
_0-3_軸組
  6
CONTINUOUS
 62
    3
 10
1207.7245
 20
1904.8896
 11
1205.7386
 21
1906.3623
  0
LINE
  8
_0-3_軸組
  6
CONTINUOUS
 62
    3
 10
1205.7386
 20
1906.3623
 11
1203.2271
 21
1908.0471
  0
LINE
  8
_0-3_軸組
  6
CONTINUOUS
 62
    3
 10
1203.2271
 20
1908.0471
 11
1200.2583
 21
1909.9032
  0
LINE
  8
_0-3_軸組
  6
CONTINUOUS
 62
    3
 10
1200.2583
 20
1909.9032
 11
1196.8738
 21
1911.8941
  0
LINE
  8
_0-3_軸組
  6
CONTINUOUS
 62
    3
 10
1196.8738
 20
1911.8941
 11
1193.1335
 21
1913.9939
  0
LINE
  8
_0-3_軸組
  6
CONTINUOUS
 62
    3
 10
1193.1335
 20
1913.9939
 11
1189.074
 21
1916.1763
  0
LINE
  8
_0-3_軸組
  6
CONTINUOUS
 62
    3
 10
1189.074
 20
1916.1763
 11
1184.726
 21
1918.4176
  0
LINE
  8
_0-3_軸組
  6
CONTINUOUS
 62
    3
 10
1184.726
 20
1918.4176
 11
1180.1281
 21
1920.701
  0
LINE
  8
_0-3_軸組
  6
CONTINUOUS
 62
    3
 10
1180.1281
 20
1920.701
 11
1175.3055
 21
1923.0096
  0
LINE
  8
_0-3_軸組
  6
CONTINUOUS
 62
    3
 10
1175.3055
 20
1923.0096
 11
1170.2755
 21
1925.3271
  0
LINE
  8
_0-3_軸組
  6
CONTINUOUS
 62
    3
 10
1170.2755
 20
1925.3271
 11
1165.0723
 21
1927.6476
  0
LINE
  8
_0-3_軸組
  6
CONTINUOUS
 62
    3
 10
1165.0723
 20
1927.6476
 11
1159.7059
 21
1929.956
  0
LINE
  8
_0-3_軸組
  6
CONTINUOUS
 62
    3
 10
1159.7059
 20
1929.956
 11
1154.2068
 21
1932.246
  0
LINE
  8
_0-3_軸組
  6
CONTINUOUS
 62
    3
 10
1154.2068
 20
1932.246
 11
1148.5894
 21
1934.5123
  0
LINE
  8
_0-3_軸組
  6
CONTINUOUS
 62
    3
 10
1148.5894
 20
1934.5123
 11
1142.8745
 21
1936.7437
  0
LINE
  8
_0-3_軸組
  6
CONTINUOUS
 62
    3
 10
1142.8745
 20
1936.7437
 11
1137.0829
 21
1938.9388
  0
LINE
  8
_0-3_軸組
  6
CONTINUOUS
 62
    3
 10
1137.0829
 20
1938.9388
 11
1131.2394
 21
1941.0915
  0
LINE
  8
_0-3_軸組
  6
CONTINUOUS
 62
    3
 10
1131.2394
 20
1941.0915
 11
1125.3681
 21
1943.2019
  0
LINE
  8
_0-3_軸組
  6
CONTINUOUS
 62
    3
 10
1125.3681
 20
1943.2019
 11
1119.4909
 21
1945.2552
  0
LINE
  8
_0-3_軸組
  6
CONTINUOUS
 62
    3
 10
1119.4909
 20
1945.2552
 11
1113.6306
 21
1947.2527
  0
LINE
  8
_0-3_軸組
  6
CONTINUOUS
 62
    3
 10
1113.6306
 20
1947.2527
 11
1107.8167
 21
1949.1942
  0
LINE
  8
_0-3_軸組
  6
CONTINUOUS
 62
    3
 10
1107.8167
 20
1949.1942
 11
1102.0811
 21
1951.0663
  0
LINE
  8
_0-3_軸組
  6
CONTINUOUS
 62
    3
 10
1102.0811
 20
1951.0663
 11
1096.4459
 21
1952.8714
  0
LINE
  8
_0-3_軸組
  6
CONTINUOUS
 62
    3
 10
1096.4459
 20
1952.8714
 11
1090.9458
 21
1954.5997
  0
LINE
  8
_0-3_軸組
  6
CONTINUOUS
 62
    3
 10
1090.9458
 20
1954.5997
 11
1085.6125
 21
1956.2445
  0
LINE
  8
_0-3_軸組
  6
CONTINUOUS
 62
    3
 10
1085.6125
 20
1956.2445
 11
1080.4736
 21
1957.7976
  0
LINE
  8
_0-3_軸組
  6
CONTINUOUS
 62
    3
 10
1080.4736
 20
1957.7976
 11
1075.5565
 21
1959.257
  0
LINE
  8
_0-3_軸組
  6
CONTINUOUS
 62
    3
 10
1075.5565
 20
1959.257
 11
1070.8943
 21
1960.6093
  0
LINE
  8
_0-3_軸組
  6
CONTINUOUS
 62
    3
 10
1176.0235
 20
1981.1035
 11
1176.1042
 21
1981.1315
  0
LINE
  8
_0-3_軸組
  6
CONTINUOUS
 62
    3
 10
1084.1328
 20
1860.8431
 11
1084.1328
 21
1847.5733
  0
LINE
  8
_0-3_軸組
  6
CONTINUOUS
 62
    3
 10
1084.1328
 20
1847.5733
 11
1124.4566
 21
1847.5733
  0
LINE
  8
_0-3_軸組
  6
CONTINUOUS
 62
    3
 10
1124.4566
 20
1860.8431
 11
1124.4566
 21
1847.5733
  0
LINE
  8
_0-3_軸組
  6
CONTINUOUS
 62
    3
 10
1084.1328
 20
1860.8431
 11
1124.4566
 21
1860.8431
  0
LINE
  8
_0-3_軸組
  6
CONTINUOUS
 62
    3
 10
1105.572
 20
1860.8431
 11
1105.572
 21
1887.2934
  0
LINE
  8
_0-3_軸組
  6
CONTINUOUS
 62
    3
 10
1096.5765
 20
1896.2858
 11
1050
 21
1896.2858
  0
LINE
  8
_0-3_軸組
  6
CONTINUOUS
 62
    3
 10
1065.4501
 20
1996.6341
 11
1065.4501
 21
1953.097
  0
LINE
  8
_0-3_軸組
  6
CONTINUOUS
 62
    3
 10
1071.7954
 20
1983.5799
 11
1071.1363
 21
1983.2077
  0
LINE
  8
_0-3_軸組
  6
CONTINUOUS
 62
    3
 10
1071.1363
 20
1983.2077
 11
1070.4622
 21
1982.8168
  0
LINE
  8
_0-3_軸組
  6
CONTINUOUS
 62
    3
 10
1070.4622
 20
1982.8168
 11
1069.7793
 21
1982.4068
  0
LINE
  8
_0-3_軸組
  6
CONTINUOUS
 62
    3
 10
1069.7793
 20
1982.4068
 11
1069.0825
 21
1981.977
  0
LINE
  8
_0-3_軸組
  6
CONTINUOUS
 62
    3
 10
1069.0825
 20
1981.977
 11
1068.3719
 21
1981.5341
  0
LINE
  8
_0-3_軸組
  6
CONTINUOUS
 62
    3
 10
1068.3719
 20
1981.5341
 11
1067.6483
 21
1981.0679
  0
LINE
  8
_0-3_軸組
  6
CONTINUOUS
 62
    3
 10
1067.6483
 20
1981.0679
 11
1066.9139
 21
1980.5859
  0
LINE
  8
_0-3_軸組
  6
CONTINUOUS
 62
    3
 10
1066.9139
 20
1980.5859
 11
1066.1632
 21
1980.0826
  0
LINE
  8
_0-3_軸組
  6
CONTINUOUS
 62
    3
 10
1066.1632
 20
1980.0826
 11
1065.4036
 21
1979.5652
  0
LINE
  8
_0-3_軸組
  6
CONTINUOUS
 62
    3
 10
1069.5432
 20
1967.8239
 11
1069.0548
 21
1967.7304
  0
LINE
  8
_0-3_軸組
  6
CONTINUOUS
 62
    3
 10
1069.0548
 20
1967.7304
 11
1068.5733
 21
1967.6435
  0
LINE
  8
_0-3_軸組
  6
CONTINUOUS
 62
    3
 10
1068.5733
 20
1967.6435
 11
1068.0997
 21
1967.5567
  0
LINE
  8
_0-3_軸組
  6
CONTINUOUS
 62
    3
 10
1068.0997
 20
1967.5567
 11
1067.632
 21
1967.4728
  0
LINE
  8
_0-3_軸組
  6
CONTINUOUS
 62
    3
 10
1067.632
 20
1967.4728
 11
1067.1733
 21
1967.3926
  0
LINE
  8
_0-3_軸組
  6
CONTINUOUS
 62
    3
 10
1067.1733
 20
1967.3926
 11
1066.719
 21
1967.3171
  0
LINE
  8
_0-3_軸組
  6
CONTINUOUS
 62
    3
 10
1066.719
 20
1967.3171
 11
1066.2736
 21
1967.2464
  0
LINE
  8
_0-3_軸組
  6
CONTINUOUS
 62
    3
 10
1066.2736
 20
1967.2464
 11
1065.8331
 21
1967.1776
  0
LINE
  8
_0-3_軸組
  6
CONTINUOUS
 62
    3
 10
1065.8331
 20
1967.1776
 11
1065.4036
 21
1967.1113
  0
LINE
  8
_0-3_軸組
  6
CONTINUOUS
 62
    3
 10
1079.2666
 20
1959.0893
 11
1077.4103
 21
1959.4825
  0
LINE
  8
_0-3_軸組
  6
CONTINUOUS
 62
    3
 10
1077.4103
 20
1959.4825
 11
1075.6293
 21
1959.8628
  0
LINE
  8
_0-3_軸組
  6
CONTINUOUS
 62
    3
 10
1075.6293
 20
1959.8628
 11
1073.9304
 21
1960.2322
  0
LINE
  8
_0-3_軸組
  6
CONTINUOUS
 62
    3
 10
1073.9304
 20
1960.2322
 11
1072.3096
 21
1960.5885
  0
LINE
  8
_0-3_軸組
  6
CONTINUOUS
 62
    3
 10
1072.3096
 20
1960.5885
 11
1070.7681
 21
1960.9317
  0
LINE
  8
_0-3_軸組
  6
CONTINUOUS
 62
    3
 10
1070.7681
 20
1960.9317
 11
1069.3082
 21
1961.2655
  0
LINE
  8
_0-3_軸組
  6
CONTINUOUS
 62
    3
 10
1069.3082
 20
1961.2655
 11
1067.9265
 21
1961.5847
  0
LINE
  8
_0-3_軸組
  6
CONTINUOUS
 62
    3
 10
1067.9265
 20
1961.5847
 11
1066.6249
 21
1961.8928
  0
LINE
  8
_0-3_軸組
  6
CONTINUOUS
 62
    3
 10
1066.6249
 20
1961.8928
 11
1065.4036
 21
1962.1877
  0
LINE
  8
_0-3_軸組
  6
CONTINUOUS
 62
    3
 10
1070.8943
 20
1960.6093
 11
1070.1683
 21
1960.807
  0
LINE
  8
_0-3_軸組
  6
CONTINUOUS
 62
    3
 10
1070.1683
 20
1960.807
 11
1069.471
 21
1960.9975
  0
LINE
  8
_0-3_軸組
  6
CONTINUOUS
 62
    3
 10
1069.471
 20
1960.9975
 11
1068.8039
 21
1961.1853
  0
LINE
  8
_0-3_軸組
  6
CONTINUOUS
 62
    3
 10
1068.8039
 20
1961.1853
 11
1068.168
 21
1961.3665
  0
LINE
  8
_0-3_軸組
  6
CONTINUOUS
 62
    3
 10
1068.168
 20
1961.3665
 11
1067.5652
 21
1961.5402
  0
LINE
  8
_0-3_軸組
  6
CONTINUOUS
 62
    3
 10
1067.5652
 20
1961.5402
 11
1066.9892
 21
1961.7052
  0
LINE
  8
_0-3_軸組
  6
CONTINUOUS
 62
    3
 10
1066.9892
 20
1961.7052
 11
1066.4448
 21
1961.8675
  0
LINE
  8
_0-3_軸組
  6
CONTINUOUS
 62
    3
 10
1066.4448
 20
1961.8675
 11
1065.9316
 21
1962.0249
  0
LINE
  8
_0-3_軸組
  6
CONTINUOUS
 62
    3
 10
1065.9316
 20
1962.0249
 11
1065.4501
 21
1962.1786
  0
LINE
  8
_0-3_軸組
  6
CONTINUOUS
 62
    3
 10
1059.5016
 20
2002.5847
 11
1050
 21
2002.5847
  0
LINE
  8
_0-3_軸組
  6
CONTINUOUS
 62
    3
 10
1059.5016
 20
1911.1716
 11
1050
 21
1911.1716
  0
LINE
  8
_0-3_軸組
  6
CONTINUOUS
 62
    3
 10
1054.9636
 20
1942.1659
 11
1058.4099
 21
1938.2759
  0
LINE
  8
_0-3_軸組
  6
CONTINUOUS
 62
    3
 10
1058.4099
 20
1938.2759
 11
1062.1977
 21
1934.234
  0
LINE
  8
_0-3_軸組
  6
CONTINUOUS
 62
    3
 10
1062.1977
 20
1934.234
 11
1066.2716
 21
1930.0888
  0
LINE
  8
_0-3_軸組
  6
CONTINUOUS
 62
    3
 10
1066.2716
 20
1930.0888
 11
1070.5795
 21
1925.8824
  0
LINE
  8
_0-3_軸組
  6
CONTINUOUS
 62
    3
 10
1070.5795
 20
1925.8824
 11
1075.0725
 21
1921.6546
  0
LINE
  8
_0-3_軸組
  6
CONTINUOUS
 62
    3
 10
1075.0725
 20
1921.6546
 11
1079.7041
 21
1917.4437
  0
LINE
  8
_0-3_軸組
  6
CONTINUOUS
 62
    3
 10
1079.7041
 20
1917.4437
 11
1084.4327
 21
1913.2822
  0
LINE
  8
_0-3_軸組
  6
CONTINUOUS
 62
    3
 10
1084.4327
 20
1913.2822
 11
1089.2177
 21
1909.2007
  0
LINE
  8
_0-3_軸組
  6
CONTINUOUS
 62
    3
 10
1089.2177
 20
1909.2007
 11
1094.0225
 21
1905.2271
  0
LINE
  8
_0-3_軸組
  6
CONTINUOUS
 62
    3
 10
1094.0225
 20
1905.2271
 11
1098.8154
 21
1901.3858
  0
LINE
  8
_0-3_軸組
  6
CONTINUOUS
 62
    3
 10
1098.8154
 20
1901.3858
 11
1103.5642
 21
1897.698
  0
LINE
  8
_0-3_軸組
  6
CONTINUOUS
 62
    3
 10
1103.5642
 20
1897.698
 11
1108.2433
 21
1894.1814
  0
LINE
  8
_0-3_軸組
  6
CONTINUOUS
 62
    3
 10
1108.2433
 20
1894.1814
 11
1112.8284
 21
1890.8521
  0
LINE
  8
_0-3_軸組
  6
CONTINUOUS
 62
    3
 10
1112.8284
 20
1890.8521
 11
1117.2996
 21
1887.7195
  0
LINE
  8
_0-3_軸組
  6
CONTINUOUS
 62
    3
 10
1117.2996
 20
1887.7195
 11
1121.6387
 21
1884.794
  0
LINE
  8
_0-3_軸組
  6
CONTINUOUS
 62
    3
 10
1121.6387
 20
1884.794
 11
1125.8318
 21
1882.0808
  0
LINE
  8
_0-3_軸組
  6
CONTINUOUS
 62
    3
 10
1125.8318
 20
1882.0808
 11
1129.8686
 21
1879.5807
  0
LINE
  8
_0-3_軸組
  6
CONTINUOUS
 62
    3
 10
1129.8686
 20
1879.5807
 11
1133.74
 21
1877.2958
  0
LINE
  8
_0-3_軸組
  6
CONTINUOUS
 62
    3
 10
1133.74
 20
1877.2958
 11
1137.4402
 21
1875.2191
  0
LINE
  8
_0-3_軸組
  6
CONTINUOUS
 62
    3
 10
1137.4402
 20
1875.2191
 11
1137.7114
 21
1875.1008
  0
LINE
  8
_0-3_軸組
  6
CONTINUOUS
 62
    3
 10
1137.7114
 20
1875.1008
 11
1137.9821
 21
1874.9865
  0
LINE
  8
_0-3_軸組
  6
CONTINUOUS
 62
    3
 10
1137.9821
 20
1874.9865
 11
1138.2494
 21
1874.8788
  0
LINE
  8
_0-3_軸組
  6
CONTINUOUS
 62
    3
 10
1138.2494
 20
1874.8788
 11
1138.5131
 21
1874.7764
  0
LINE
  8
_0-3_軸組
  6
CONTINUOUS
 62
    3
 10
1138.5131
 20
1874.7764
 11
1138.7749
 21
1874.6806
  0
LINE
  8
_0-3_軸組
  6
CONTINUOUS
 62
    3
 10
1138.7749
 20
1874.6806
 11
1139.0333
 21
1874.5893
  0
LINE
  8
_0-3_軸組
  6
CONTINUOUS
 62
    3
 10
1139.0333
 20
1874.5893
 11
1139.2891
 21
1874.504
  0
LINE
  8
_0-3_軸組
  6
CONTINUOUS
 62
    3
 10
1139.2891
 20
1874.504
 11
1139.5425
 21
1874.4245
  0
LINE
  8
_0-3_軸組
  6
CONTINUOUS
 62
    3
 10
1139.5425
 20
1874.4245
 11
1139.7924
 21
1874.3503
  0
LINE
  8
_0-3_軸組
  6
CONTINUOUS
 62
    3
 10
1054.9636
 20
1942.1659
 11
1057.0005
 21
1943.1774
  0
LINE
  8
_0-3_軸組
  6
CONTINUOUS
 62
    3
 10
1057.0005
 20
1943.1774
 11
1058.8197
 21
1944.2404
  0
LINE
  8
_0-3_軸組
  6
CONTINUOUS
 62
    3
 10
1058.8197
 20
1944.2404
 11
1060.4211
 21
1945.3534
  0
LINE
  8
_0-3_軸組
  6
CONTINUOUS
 62
    3
 10
1060.4211
 20
1945.3534
 11
1061.8038
 21
1946.5174
  0
LINE
  8
_0-3_軸組
  6
CONTINUOUS
 62
    3
 10
1061.8038
 20
1946.5174
 11
1062.9688
 21
1947.7318
  0
LINE
  8
_0-3_軸組
  6
CONTINUOUS
 62
    3
 10
1062.9688
 20
1947.7318
 11
1063.916
 21
1948.9972
  0
LINE
  8
_0-3_軸組
  6
CONTINUOUS
 62
    3
 10
1063.916
 20
1948.9972
 11
1064.6454
 21
1950.3133
  0
LINE
  8
_0-3_軸組
  6
CONTINUOUS
 62
    3
 10
1064.6454
 20
1950.3133
 11
1065.1566
 21
1951.6794
  0
LINE
  8
_0-3_軸組
  6
CONTINUOUS
 62
    3
 10
1065.1566
 20
1951.6794
 11
1065.4501
 21
1953.097
  0
LINE
  8
_0-3_軸組
  6
CONTINUOUS
 62
    3
 10
1065.4516
 20
1917.122
 11
1065.4516
 21
1930.9232
  0
LINE
  8
_0-3_軸組
  6
CONTINUOUS
 62
    3
 10
1142.7201
 20
1968.4752
 11
1131.0038
 21
1994.2975
  0
LINE
  8
_0-3_軸組
  6
CONTINUOUS
 62
    3
 10
1097.6133
 20
1829.1957
 11
1050
 21
1829.1957
  0
LINE
  8
_0-3_軸組
  6
CONTINUOUS
 62
    3
 10
1105.572
 20
1837.1549
 11
1105.572
 21
1847.5733
  0
LINE
  8
_0-3_軸組
  6
CONTINUOUS
 62
    3
 10
1093.633
 20
1822.0398
 11
1050
 21
1822.0398
  0
LINE
  8
_0-3_軸組
  6
CONTINUOUS
 62
    3
 10
1097.6133
 20
1826.0194
 11
1097.6133
 21
1829.1957
  0
LINE
  8
_0-2_躯体
  6
CONTINUOUS
 62
    3
 10
742.50009
 20
1763.1371
 11
1357.4999
 21
1763.1371
  0
LINE
  8
_0-2_躯体
  6
CONTINUOUS
 62
    3
 10
742.50009
 20
1750.3937
 11
1357.4999
 21
1750.3937
  0
LINE
  8
_0-2_躯体
  6
CONTINUOUS
 62
    3
 10
1357.4999
 20
2057.1195
 11
1357.4999
 21
1763.1376
  0
LINE
  8
_0-2_躯体
  6
CONTINUOUS
 62
    3
 10
1521.7795
 20
1959.3355
 11
1534.44
 21
1959.3355
  0
LINE
  8
_0-2_躯体
  6
CONTINUOUS
 62
    3
 10
570.00002
 20
2159.4209
 11
570.00002
 21
2013.049
  0
LINE
  8
_0-2_躯体
  6
CONTINUOUS
 62
    3
 10
1529.9999
 20
2159.4209
 11
1529.9999
 21
1983.3139
  0
LINE
  8
_0-2_躯体
  6
CONTINUOUS
 62
    3
 10
1357.4999
 20
1919.4208
 11
1529.9999
 21
1919.4208
  0
LINE
  8
_0-2_躯体
  6
CONTINUOUS
 62
    3
 10
1529.9999
 20
1983.3139
 11
1357.4999
 21
1983.3139
  0
LINE
  8
_0-2_躯体
  6
CONTINUOUS
 62
    3
 10
1529.9999
 20
1970.571
 11
1357.4999
 21
1970.571
  0
LINE
  8
_0-2_躯体
  6
CONTINUOUS
 62
    3
 10
1357.4999
 20
2057.1195
 11
1050
 21
2057.1195
  0
LINE
  8
_0-8_寸法
  6
CONTINUOUS
 62
    7
 10
664.86486
 20
1699.4204
 11
330.53135
 21
1699.4204
  0
LINE
  8
_0-2_躯体
  6
CONTINUOUS
 62
    3
 10
742.50009
 20
1919.4208
 11
742.50009
 21
1763.1371
  0
LINE
  8
_0-2_躯体
  6
CONTINUOUS
 62
    3
 10
1272.6433
 20
2218.5511
 11
1050
 21
2218.5511
  0
LINE
  8
_0-1_基準線
  6
CENTER2
 62
    7
 10
1050
 20
2529.7297
 11
1050
 21
1427.027
  0
LINE
  8
_0-2_躯体
  6
CONTINUOUS
 62
    3
 10
550.65895
 20
2154.9885
 11
1050
 21
2269.421
  0
LINE
  8
_0-2_躯体
  6
CONTINUOUS
 62
    3
 10
1549.3409
 20
2154.9885
 11
1050
 21
2269.421
  0
LINE
  8
_0-2_躯体
  6
CONTINUOUS
 62
    3
 10
1524.8735
 20
1970.571
 11
1524.8735
 21
1923.9547
  0
LINE
  8
_0-2_躯体
  6
CONTINUOUS
 62
    3
 10
570.00002
 20
2159.4209
 11
1050
 21
2159.4209
  0
LINE
  8
_0-2_躯体
  6
CONTINUOUS
 62
    3
 10
1050
 20
2090.0101
 11
1272.6433
 21
2218.5511
  0
LINE
  8
_0-2_躯体
  6
CONTINUOUS
 62
    3
 10
1357.4999
 20
2069.8626
 11
1050
 21
2069.8626
  0
LINE
  8
_0-2_躯体
  6
CONTINUOUS
 62
    3
 10
1170.225
 20
2159.4209
 11
1529.9999
 21
2159.4209
  0
LINE
  8
_0-2_躯体
  6
CONTINUOUS
 62
    3
 10
1362.75
 20
1919.4208
 11
1362.75
 21
1787.1373
  0
LINE
  8
_0-2_躯体
  6
CONTINUOUS
 62
    3
 10
1524.8735
 20
1923.9547
 11
1357.4999
 21
1923.9547
  0
LINE
  8
_0-2_躯体
  6
CONTINUOUS
 62
    3
 10
1508.1827
 20
1926.9546
 11
1508.1827
 21
1919.4208
  0
LINE
  8
_0-2_躯体
  6
CONTINUOUS
 62
    3
 10
1360.05
 20
2031.5431
 11
1475.2431
 21
1926.9546
  0
LINE
  8
_0-2_躯体
  6
CONTINUOUS
 62
    3
 10
1508.1827
 20
1926.9546
 11
1475.2431
 21
1926.9546
  0
LINE
  8
_0-2_躯体
  6
CONTINUOUS
 62
    3
 10
1357.4999
 20
2030.3866
 11
1474.7769
 21
1923.9547
  0
LINE
  8
_0-2_躯体
  6
CONTINUOUS
 62
    3
 10
1493.4121
 20
1930.0517
 11
1493.4121
 21
1915.1095
  0
LINE
  8
_0-2_躯体
  6
CONTINUOUS
 62
    3
 10
1524.8735
 20
1932.1642
 11
1357.4999
 21
1932.1642
  0
LINE
  8
_0-2_躯体
  6
CONTINUOUS
 62
    3
 10
1529.9999
 20
1970.571
 11
1529.9999
 21
1919.4211
  0
ARC
  8
_0-2_躯体
  6
CONTINUOUS
 62
    3
 10
1529.9999
 20
1976.9426
 40
6.3715976
 50
270
 51
90
  0
ARC
  8
_0-2_躯体
  6
CONTINUOUS
 62
    3
 10
1529.9999
 20
1925.7927
 40
6.3715976
 50
270
 51
90
  0
ARC
  8
_0-2_躯体
  6
CONTINUOUS
 62
    3
 10
570.00002
 20
2006.6774
 40
6.3715976
 50
90
 51
270
  0
ARC
  8
_0-2_躯体
  6
CONTINUOUS
 62
    3
 10
570.00002
 20
1955.7041
 40
6.3715976
 50
90
 51
270
  0
ARC
  8
_0-2_躯体
  6
CONTINUOUS
 62
    3
 10
1357.4999
 20
1756.7658
 40
6.3715976
 50
270
 51
90
  0
ARC
  8
_0-2_躯体
  6
CONTINUOUS
 62
    3
 10
1357.4999
 20
1705.7922
 40
6.3715976
 50
270
 51
90
  0
ARC
  8
_0-2_躯体
  6
CONTINUOUS
 62
    3
 10
742.50009
 20
1756.7658
 40
6.3715976
 50
90
 51
270
  0
ARC
  8
_0-2_躯体
  6
CONTINUOUS
 62
    3
 10
742.50009
 20
1705.7922
 40
6.3715976
 50
90
 51
270
  0
ARC
  8
_0-3_軸組
  6
CONTINUOUS
 62
    3
 10
1096.5765
 20
1887.2934
 40
8.9937387
 50
0
 51
90
  0
ARC
  8
_0-3_軸組
  6
CONTINUOUS
 62
    3
 10
1059.5016
 20
1917.122
 40
5.949357
 50
270
 51
0
  0
ARC
  8
_0-3_軸組
  6
CONTINUOUS
 62
    3
 10
1059.5016
 20
1996.6341
 40
5.949357
 50
0
 51
90
  0
ARC
  8
_0-3_軸組
  6
CONTINUOUS
 62
    3
 10
1097.6133
 20
1837.1549
 40
7.9590594
 50
270
 51
0
  0
ARC
  8
_0-3_軸組
  6
CONTINUOUS
 62
    3
 10
1093.633
 20
1826.0194
 40
3.9795297
 50
270
 51
0
  0
ARC
  8
_0-2_躯体
  6
CONTINUOUS
 62
    3
 10
1357.4999
 20
2063.4911
 40
6.3715976
 50
270
 51
90
  0
TEXT
  8
_0-d_文字
 62
    7
 10
254.99978
 20
157.4999
 40
25
 41
1
 50
0
  1
図
  0
TEXT
  8
_0-d_文字
 62
    7
 10
254.99978
 20
97.499958
 40
25
 41
1
 50
0
  1
番
  0
TEXT
  8
_0-d_文字
 62
    7
 10
655.00043
 20
157.4999
 40
25
 41
1
 50
0
  1
承
  0
TEXT
  8
_0-d_文字
 62
    7
 10
655.00043
 20
97.499958
 40
25
 41
1
 50
0
  1
認
  0
TEXT
  8
_0-d_文字
 62
    7
 10
1020.0002
 20
237.49993
 40
25
 41
1
 50
0
  1
尺
  0
TEXT
  8
_0-d_文字
 62
    7
 10
1020.0002
 20
197.49977
 40
25
 41
1
 50
0.0000708
  1
度
  0
TEXT
  8
_0-d_文字
 62
    7
 10
855.0001
 20
157.4999
 40
25
 41
1
 50
0
  1
製
  0
TEXT
  8
_0-d_文字
 62
    7
 10
855.0001
 20
97.499958
 40
25
 41
1
 50
0
  1
図
  0
TEXT
  8
_0-d_文字
 62
    7
 10
1555
 20
237.49993
 40
25
 41
1
 50
0
  1
日
  0
TEXT
  8
_0-d_文字
 62
    7
 10
1555
 20
197.49977
 40
25
 41
1
 50
0.0000708
  1
付
  0
TEXT
  8
_0-d_文字
 62
    7
 10
1111.4263
 20
163.48225
 40
20
 41
1
 50
0
  1
株式
  0
TEXT
  8
_0-d_文字
 62
    7
 10
1111.4263
 20
141.85179
 40
20
 41
1
 50
0.0000196
  1
会社
  0
TEXT
  8
_0-d_文字
 62
    3
 10
1174.2246
 20
143.24711
 40
40
 41
1
 50
0
  1
スズキベンチレーター
  0
TEXT
  8
_0-d_文字
 62
    7
 10
1237.9181
 20
94.024178
 40
20
 41
1
 50
0
  1
TEL(054)296-7000  FAX(054)296-7001
  0
TEXT
  8
_0-8_寸法
 62
    3
 10
1008.1139
 20
2392.0445
 40
30
 41
1
 50
0.0001667
  1
  960
  0
TEXT
  8
_0-8_寸法
 62
    3
 10
1035.6247
 20
1587.658
 40
30
 41
1
 50
0.0001718
  1
615φ
  0
TEXT
  8
_0-8_寸法
 62
    3
 10
287.56664
 20
1961.3781
 40
30
 41
1
 50
90
  1
570
  0
TEXT
  8
_0-d_文字
 62
    3
 10
1084.3489
 20
210.10064
 40
40
 41
1
 50
0.000005
  1
１／１０
  0
TEXT
  8
_0-d_文字
 62
    7
 10
1235.6792
 20
118.64592
 40
20
 41
1
 50
0
  1
〒421-2114　静岡市葵区安倍口新田１５２番地
  0
TEXT
  8
_0-d_文字
 62
    3
 10
254.99999
 20
2792.7013
 40
50
 41
1
 50
0
  1
ＳＴ－６０Ｌ　直付型（低騒音）断面
  0
TEXT
  8
_0-d_文字
 62
    3
 10
280.67566
 20
215.81081
 40
30
 41
1
 50
0
  1
ＳＴ－６０Ｌ　直付型（低騒音）断面
  0
TEXT
  8
_0-d_文字
 62
    3
 10
308.45925
 20
140.30213
 40
30
 41
1
 50
0
  1
60L-02a
  0
POINT
  8
_0-8_寸法
 62
    2
 10
330.53135
 20
1699.4204
  0
POINT
  8
_0-8_寸法
 62
    2
 10
330.53135
 20
2269.8627
  0
POINT
  8
_0-8_寸法
 62
    2
 10
570.00002
 20
2371.0567
  0
POINT
  8
_0-8_寸法
 62
    2
 10
1529.9999
 20
2371.0567
  0
POINT
  8
_0-8_寸法
 62
    2
 10
742.50009
 20
1553.1891
  0
POINT
  8
_0-8_寸法
 62
    2
 10
1357.4999
 20
1553.1891
  0
ENDSEC
  0
EOF
