  0
SECTION
  2
HEADER
  9
$ACADVER
  1
AC1009
  9
$INSBASE
 10
0
 20
0
 30
0
  9
$EXTMIN
 10
0
 20
0
  9
$EXTMAX
 10
4200
 20
2970
  9
$LIMMIN
 10
0
 20
0
  9
$LIMMAX
 10
4200
 20
2970
  9
$LTSCALE
 40
10
  0
ENDSEC
  0
SECTION
  2
TABLES
  0
TABLE
  2
LTYPE
 70
     9
  0
LTYPE
  2
CONTINUOUS
 70
    64
  3
実線
 72
    65
 73
     0
 40
0.0
  0
LTYPE
  2
DASHED1
 70
    64
  3
--  --  --  --  --  --  --  --  
 72
    65
 73
     2
 40
2.5
 49
1.25
 49
-1.25
  0
LTYPE
  2
DASHED2
 70
    64
  3
----    ----    ----    ----    
 72
    65
 73
     2
 40
5.0
 49
2.5
 49
-2.5
  0
LTYPE
  2
DASHED3
 70
    64
  3
------  ------  ------  ------  
 72
    65
 73
     2
 40
5.0
 49
3.75
 49
-1.25
  0
LTYPE
  2
CENTER1
 70
    64
  3
----- - ----- - ----- - ----- - 
 72
    65
 73
     4
 40
10.0
 49
6.25
 49
-1.25
 49
1.25
 49
-1.25
  0
LTYPE
  2
CENTER2
 70
    64
  3
----------  --  ----------  --  
 72
    65
 73
     4
 40
20.0
 49
12.5
 49
-2.5
 49
2.5
 49
-2.5
  0
LTYPE
  2
PHANTOM1
 70
    64
  3
--- - - --- - - --- - - --- - - 
 72
    65
 73
     6
 40
10.0
 49
3.25
 49
-1.25
 49
1.25
 49
-1.25
 49
1.25
 49
-1.25
  0
LTYPE
  2
PHANTOM2
 70
    64
  3
--------  -  -  --------  -  -  
 72
    65
 73
     6
 40
20.0
 49
10.0
 49
-2.5
 49
1.25
 49
-2.5
 49
1.25
 49
-2.5
  0
LTYPE
  2
DOT
 70
    64
  3
-   -   -   -   -   -   -   -   
 72
    65
 73
     2
 40
2.5
 49
0.625
 49
-1.875
  0
LTYPE
  2
DUMMY
 70
    64
  3
ダミー
 72
    65
 73
     0
 40
0.0
  0
LTYPE
  2
RAND1
 70
    64
  3
----- - ----- - ----- - ----- - 
 72
    65
 73
     4
 40
10.0
 49
6.25
 49
-1.25
 49
1.25
 49
-1.25
  0
LTYPE
  2
RAND2
 70
    64
  3
----------  --  ----------  --  
 72
    65
 73
     4
 40
20.0
 49
12.5
 49
-2.5
 49
2.5
 49
-2.5
  0
LTYPE
  2
RAND3
 70
    64
  3
--- - - --- - - --- - - --- - - 
 72
    65
 73
     6
 40
10.0
 49
3.25
 49
-1.25
 49
1.25
 49
-1.25
 49
1.25
 49
-1.25
  0
LTYPE
  2
RAND4
 70
    64
  3
--------  -  -  --------  -  -  
 72
    65
 73
     6
 40
20.0
 49
10.0
 49
-2.5
 49
1.25
 49
-2.5
 49
1.25
 49
-2.5
  0
LTYPE
  2
RAND5
 70
    64
  3
----- - ----- - ----- - ----- - 
 72
    65
 73
     4
 40
10.0
 49
6.25
 49
-1.25
 49
1.25
 49
-1.25
  0
LTYPE
  2
LONG1
 70
    64
  3
----------  --  ----------  --  
 72
    65
 73
     4
 40
20.0
 49
12.5
 49
-2.5
 49
2.5
 49
-2.5
  0
LTYPE
  2
LONG2
 70
    64
  3
--- - - --- - - --- - - --- - - 
 72
    65
 73
     6
 40
10.0
 49
3.25
 49
-1.25
 49
1.25
 49
-1.25
 49
1.25
 49
-1.25
  0
LTYPE
  2
LONG3
 70
    64
  3
--------  -  -  --------  -  -  
 72
    65
 73
     6
 40
20.0
 49
10.0
 49
-2.5
 49
1.25
 49
-2.5
 49
1.25
 49
-2.5
  0
LTYPE
  2
LONG4
 70
    64
  3
----- - ----- - ----- - ----- - 
 72
    65
 73
     4
 40
10.0
 49
6.25
 49
-1.25
 49
1.25
 49
-1.25
  0
LTYPE
  2
LONG5
 70
    64
  3
----------  --  ----------  --  
 72
    65
 73
     4
 40
20.0
 49
12.5
 49
-2.5
 49
2.5
 49
-2.5
  0
ENDTAB
  0
TABLE
  2
STYLE
  5
3
100
AcDbSymbolTable
 70
     1
  0
STYLE
  5
10
100
AcDbSymbolTableRecord
100
AcDbTextStyleTableRecord
  2
STANDARD
 70
     0
 40
0.0
 41
1.0
 50
0.0
 71
     0
 42
0.2
  3
txt
  4
bigfont.shx
  0
STYLE
  5
26
100
AcDbSymbolTableRecord
100
AcDbTextStyleTableRecord
  2
TATEGAKI
 70
    68
 40
0.0
 41
1.0
 50
0.0
 71
     0
 42
1.0
  3
txt
  4
bigfont.shx
  0
ENDTAB
  0
TABLE
  2
LAYER
 70
    5
  0
LAYER
  2
_0-1_基準線
 70
   64
 62
    7
  6
CONTINUOUS
  0
LAYER
  2
_0-2_躯体
 70
   64
 62
    7
  6
CONTINUOUS
  0
LAYER
  2
_0-8_寸法
 70
   64
 62
    7
  6
CONTINUOUS
  0
LAYER
  2
_0-d_文字
 70
   64
 62
    7
  6
CONTINUOUS
  0
LAYER
  2
ADD_LINE
 70
   64
 62
    7
  6
CONTINUOUS
  0
ENDTAB
  0
ENDSEC
  0
SECTION
  2
BLOCKS
  0
ENDSEC
  0
SECTION
  2
ENTITIES
  0
LINE
  8
_0-d_文字
  6
CONTINUOUS
 62
    7
 10
250.00003
 20
2757.7012
 11
1850
 21
2757.7012
  0
LINE
  8
_0-d_文字
  6
CONTINUOUS
 62
    7
 10
250.00003
 20
2767.7015
 11
1850
 21
2767.7015
  0
LINE
  8
_0-d_文字
  6
CONTINUOUS
 62
    7
 10
249.99966
 20
189.99988
 11
1850.0002
 21
189.99988
  0
LINE
  8
_0-d_文字
  6
CONTINUOUS
 62
    7
 10
249.99966
 20
89.999802
 11
249.99966
 21
269.9999
  0
LINE
  8
_0-d_文字
  6
CONTINUOUS
 62
    7
 10
249.99966
 20
89.999802
 11
1850.0002
 21
89.999802
  0
LINE
  8
_0-d_文字
  6
CONTINUOUS
 62
    7
 10
1850.0002
 20
269.9999
 11
1850.0002
 21
89.999802
  0
LINE
  8
_0-d_文字
  6
CONTINUOUS
 62
    7
 10
249.99966
 20
269.9999
 11
1850.0002
 21
269.9999
  0
LINE
  8
_0-d_文字
  6
CONTINUOUS
 62
    7
 10
1050
 20
269.9999
 11
1050
 21
89.999802
  0
LINE
  8
_0-d_文字
  6
CONTINUOUS
 62
    7
 10
650.00016
 20
89.999802
 11
650.00016
 21
189.99988
  0
LINE
  8
_0-d_文字
  6
CONTINUOUS
 62
    7
 10
1050
 20
189.99988
 11
1050
 21
269.9999
  0
LINE
  8
_0-d_文字
  6
CONTINUOUS
 62
    7
 10
849.99971
 20
89.999802
 11
849.99971
 21
189.99988
  0
LINE
  8
_0-d_文字
  6
CONTINUOUS
 62
    7
 10
285.00001
 20
89.999802
 11
285.00001
 21
189.99988
  0
LINE
  8
_0-d_文字
  6
CONTINUOUS
 62
    7
 10
685.00003
 20
89.999802
 11
685.00003
 21
189.99988
  0
LINE
  8
_0-d_文字
  6
CONTINUOUS
 62
    7
 10
885.00007
 20
89.999802
 11
885.00007
 21
189.99988
  0
LINE
  8
_0-d_文字
  6
CONTINUOUS
 62
    7
 10
1015
 20
189.99988
 11
1015
 21
269.9999
  0
LINE
  8
_0-d_文字
  6
CONTINUOUS
 62
    7
 10
1550.0004
 20
189.99988
 11
1550.0004
 21
269.9999
  0
LINE
  8
_0-d_文字
  6
CONTINUOUS
 62
    7
 10
1585.0001
 20
189.99988
 11
1585.0001
 21
269.9999
  0
LINE
  8
_0-1_基準線
  6
CENTER2
 62
    7
 10
1050
 20
2529.7297
 11
1050
 21
1427.027
  0
LINE
  8
_0-8_寸法
  6
CONTINUOUS
 62
    7
 10
570.00002
 20
1659.421
 11
330.53135
 21
1659.421
  0
LINE
  8
_0-8_寸法
  6
CONTINUOUS
 62
    7
 10
570.00002
 20
2370.6147
 11
1530
 21
2370.6147
  0
LINE
  8
_0-8_寸法
  6
CONTINUOUS
 62
    7
 10
570.00002
 20
2214.9402
 11
570.00002
 21
2370.6147
  0
LINE
  8
_0-8_寸法
  6
CONTINUOUS
 62
    7
 10
710.26561
 20
2269.421
 11
330.53135
 21
2269.421
  0
LINE
  8
_0-8_寸法
  6
CONTINUOUS
 62
    7
 10
1530
 20
2214.9402
 11
1530
 21
2370.6147
  0
LINE
  8
_0-2_躯体
  6
CONTINUOUS
 62
    3
 10
570.00002
 20
2000.1288
 11
570.00002
 21
1961.8988
  0
LINE
  8
_0-2_躯体
  6
CONTINUOUS
 62
    3
 10
570.00002
 20
1949.1557
 11
570.00002
 21
1919.4208
  0
LINE
  8
_0-2_躯体
  6
CONTINUOUS
 62
    3
 10
570.00002
 20
2012.8719
 11
1050
 21
2012.8719
  0
LINE
  8
_0-2_躯体
  6
CONTINUOUS
 62
    3
 10
570.00002
 20
2000.1288
 11
1050
 21
2000.1288
  0
LINE
  8
_0-2_躯体
  6
CONTINUOUS
 62
    3
 10
570.00002
 20
1961.8988
 11
1050
 21
1961.8988
  0
LINE
  8
_0-2_躯体
  6
CONTINUOUS
 62
    3
 10
570.00002
 20
1949.1557
 11
1050
 21
1949.1557
  0
LINE
  8
_0-2_躯体
  6
CONTINUOUS
 62
    3
 10
570.00002
 20
1919.4208
 11
1050
 21
1919.4208
  0
LINE
  8
_0-2_躯体
  6
CONTINUOUS
 62
    3
 10
570.00002
 20
2159.4211
 11
570.00002
 21
2012.8719
  0
LINE
  8
_0-2_躯体
  6
CONTINUOUS
 62
    3
 10
742.49985
 20
1919.4208
 11
742.49985
 21
1833.402
  0
LINE
  8
_0-2_躯体
  6
CONTINUOUS
 62
    3
 10
742.49985
 20
1820.6588
 11
1050
 21
1820.6588
  0
LINE
  8
_0-2_躯体
  6
CONTINUOUS
 62
    3
 10
742.49985
 20
1833.402
 11
1050
 21
1833.402
  0
LINE
  8
_0-8_寸法
  6
CONTINUOUS
 62
    7
 10
330.53135
 20
1659.421
 11
330.53135
 21
2269.421
  0
LINE
  8
_0-2_躯体
  6
CONTINUOUS
 62
    3
 10
639.99988
 20
1719.4208
 11
639.99988
 21
1659.421
  0
LINE
  8
_0-2_躯体
  6
CONTINUOUS
 62
    3
 10
1460.0001
 20
1719.4208
 11
1460.0001
 21
1659.421
  0
LINE
  8
_0-2_躯体
  6
CONTINUOUS
 62
    3
 10
1460.0001
 20
1719.4208
 11
639.99988
 21
1719.4208
  0
LINE
  8
_0-2_躯体
  6
CONTINUOUS
 62
    3
 10
1460.0001
 20
1659.421
 11
639.99988
 21
1659.421
  0
LINE
  8
_0-8_寸法
  6
CONTINUOUS
 62
    7
 10
639.99988
 20
1472.7472
 11
1460.0001
 21
1472.7472
  0
LINE
  8
_0-8_寸法
  6
CONTINUOUS
 62
    7
 10
639.99988
 20
1628.4253
 11
639.99988
 21
1472.7472
  0
LINE
  8
_0-8_寸法
  6
CONTINUOUS
 62
    7
 10
1460.0001
 20
1628.4253
 11
1460.0001
 21
1472.7472
  0
LINE
  8
_0-8_寸法
  6
CONTINUOUS
 62
    7
 10
1718.9189
 20
1659.421
 11
1718.9189
 21
1719.421
  0
LINE
  8
_0-8_寸法
  6
CONTINUOUS
 62
    7
 10
1564.8648
 20
1659.421
 11
1718.9189
 21
1659.421
  0
LINE
  8
_0-8_寸法
  6
CONTINUOUS
 62
    7
 10
1718.9189
 20
1719.421
 11
1718.9189
 21
1919.4208
  0
LINE
  8
_0-8_寸法
  6
CONTINUOUS
 62
    7
 10
1564.8648
 20
1919.6857
 11
1718.9189
 21
1919.4208
  0
LINE
  8
_0-8_寸法
  6
CONTINUOUS
 62
    7
 10
1718.9189
 20
1919.4208
 11
1718.9189
 21
2158.9792
  0
LINE
  8
_0-8_寸法
  6
CONTINUOUS
 62
    7
 10
1564.8648
 20
2158.9792
 11
1718.9189
 21
2158.9792
  0
LINE
  8
_0-8_寸法
  6
CONTINUOUS
 62
    7
 10
1718.9189
 20
2158.9792
 11
1718.9189
 21
2269.421
  0
LINE
  8
_0-8_寸法
  6
CONTINUOUS
 62
    7
 10
1564.8648
 20
2269.421
 11
1718.9189
 21
2269.421
  0
LINE
  8
_0-2_躯体
  6
CONTINUOUS
 62
    3
 10
742.49985
 20
1820.6588
 11
742.49985
 21
1765.3095
  0
LINE
  8
_0-2_躯体
  6
CONTINUOUS
 62
    3
 10
1357.4999
 20
1820.6588
 11
1357.4999
 21
1765.3095
  0
LINE
  8
_0-2_躯体
  6
CONTINUOUS
 62
    3
 10
639.99988
 20
1719.4208
 11
783.00005
 21
1783.3362
  0
LINE
  8
_0-2_躯体
  6
CONTINUOUS
 62
    3
 10
783.00005
 20
1783.3362
 11
783.00005
 21
1719.4208
  0
LINE
  8
_0-2_躯体
  6
CONTINUOUS
 62
    3
 10
1050
 20
2269.421
 11
550.80024
 21
2155.0212
  0
LINE
  8
_0-8_寸法
  6
CONTINUOUS
 62
    7
 10
1564.8648
 20
1719.4208
 11
1718.9189
 21
1719.4208
  0
LINE
  8
_0-2_躯体
  6
CONTINUOUS
 62
    3
 10
1050
 20
2159.4211
 11
570.00002
 21
2159.4211
  0
LINE
  8
_0-2_躯体
  6
CONTINUOUS
 62
    3
 10
1529.9999
 20
2000.1288
 11
1529.9999
 21
1961.8988
  0
LINE
  8
_0-2_躯体
  6
CONTINUOUS
 62
    3
 10
1529.9999
 20
1949.1557
 11
1529.9999
 21
1919.4208
  0
LINE
  8
_0-2_躯体
  6
CONTINUOUS
 62
    3
 10
1529.9999
 20
2012.8719
 11
1050
 21
2012.8719
  0
LINE
  8
_0-2_躯体
  6
CONTINUOUS
 62
    3
 10
1529.9999
 20
2000.1288
 11
1050
 21
2000.1288
  0
LINE
  8
_0-2_躯体
  6
CONTINUOUS
 62
    3
 10
1529.9999
 20
1961.8988
 11
1050
 21
1961.8988
  0
LINE
  8
_0-2_躯体
  6
CONTINUOUS
 62
    3
 10
1529.9999
 20
1949.1557
 11
1050
 21
1949.1557
  0
LINE
  8
_0-2_躯体
  6
CONTINUOUS
 62
    3
 10
1529.9999
 20
1919.4208
 11
1050
 21
1919.4208
  0
LINE
  8
_0-2_躯体
  6
CONTINUOUS
 62
    3
 10
1529.9999
 20
2159.4211
 11
1529.9999
 21
2012.8719
  0
LINE
  8
_0-2_躯体
  6
CONTINUOUS
 62
    3
 10
1357.5001
 20
1919.4208
 11
1357.5001
 21
1833.402
  0
LINE
  8
_0-2_躯体
  6
CONTINUOUS
 62
    3
 10
1357.5001
 20
1820.6588
 11
1050
 21
1820.6588
  0
LINE
  8
_0-2_躯体
  6
CONTINUOUS
 62
    3
 10
1357.5001
 20
1833.402
 11
1050
 21
1833.402
  0
LINE
  8
_0-2_躯体
  6
CONTINUOUS
 62
    3
 10
1050
 20
2269.421
 11
1549.1996
 21
2155.0212
  0
LINE
  8
_0-2_躯体
  6
CONTINUOUS
 62
    3
 10
1050
 20
2159.4211
 11
1529.9999
 21
2159.4211
  0
LINE
  8
_0-2_躯体
  6
CONTINUOUS
 62
    3
 10
1357.5001
 20
1820.6588
 11
1357.5001
 21
1765.3095
  0
LINE
  8
_0-2_躯体
  6
CONTINUOUS
 62
    3
 10
1460.0001
 20
1719.4208
 11
1316.9999
 21
1783.4413
  0
LINE
  8
_0-2_躯体
  6
CONTINUOUS
 62
    3
 10
1316.9999
 20
1783.4413
 11
1316.9999
 21
1719.4208
  0
ARC
  8
_0-2_躯体
  6
CONTINUOUS
 62
    3
 10
570.00002
 20
2006.5004
 40
6.3715971
 50
90
 51
270
  0
ARC
  8
_0-2_躯体
  6
CONTINUOUS
 62
    3
 10
570.00002
 20
1955.5273
 40
6.3715971
 50
90
 51
270
  0
ARC
  8
_0-2_躯体
  6
CONTINUOUS
 62
    3
 10
742.49985
 20
1827.0309
 40
6.3715971
 50
90
 51
270
  0
ARC
  8
_0-2_躯体
  6
CONTINUOUS
 62
    3
 10
1529.9999
 20
2006.5004
 40
6.3715971
 50
270
 51
90
  0
ARC
  8
_0-2_躯体
  6
CONTINUOUS
 62
    3
 10
1529.9999
 20
1955.5273
 40
6.3715971
 50
270
 51
90
  0
ARC
  8
_0-2_躯体
  6
CONTINUOUS
 62
    3
 10
1357.5001
 20
1827.0309
 40
6.3715971
 50
270
 51
90
  0
TEXT
  8
_0-d_文字
 62
    7
 10
254.99978
 20
157.4999
 40
25
 41
1
 50
0
  1
図
  0
TEXT
  8
_0-d_文字
 62
    7
 10
254.99978
 20
97.499958
 40
25
 41
1
 50
0
  1
番
  0
TEXT
  8
_0-d_文字
 62
    7
 10
655.00043
 20
157.4999
 40
25
 41
1
 50
0
  1
承
  0
TEXT
  8
_0-d_文字
 62
    7
 10
655.00043
 20
97.499958
 40
25
 41
1
 50
0
  1
認
  0
TEXT
  8
_0-d_文字
 62
    7
 10
1020.0002
 20
237.49993
 40
25
 41
1
 50
0
  1
尺
  0
TEXT
  8
_0-d_文字
 62
    7
 10
1020.0002
 20
197.49977
 40
25
 41
1
 50
0.0000708
  1
度
  0
TEXT
  8
_0-d_文字
 62
    7
 10
855.0001
 20
157.4999
 40
25
 41
1
 50
0
  1
製
  0
TEXT
  8
_0-d_文字
 62
    7
 10
855.0001
 20
97.499958
 40
25
 41
1
 50
0
  1
図
  0
TEXT
  8
_0-d_文字
 62
    7
 10
1555
 20
237.49993
 40
25
 41
1
 50
0
  1
日
  0
TEXT
  8
_0-d_文字
 62
    7
 10
1555
 20
197.49977
 40
25
 41
1
 50
0.0000708
  1
付
  0
TEXT
  8
_0-d_文字
 62
    7
 10
1111.4263
 20
163.48225
 40
20
 41
1
 50
0
  1
株式
  0
TEXT
  8
_0-d_文字
 62
    7
 10
1111.4263
 20
141.85179
 40
20
 41
1
 50
0.0000196
  1
会社
  0
TEXT
  8
_0-d_文字
 62
    3
 10
1174.2246
 20
143.24711
 40
40
 41
1
 50
0
  1
スズキベンチレーター
  0
TEXT
  8
_0-d_文字
 62
    7
 10
1237.9181
 20
94.024178
 40
20
 41
1
 50
0
  1
TEL(054)296-7000  FAX(054)296-7001
  0
TEXT
  8
_0-d_文字
 62
    3
 10
1084.3489
 20
210.10064
 40
40
 41
1
 50
0.000005
  1
１／１０
  0
TEXT
  8
_0-8_寸法
 62
    3
 10
1013.7498
 20
2413.5807
 40
30
 41
1
 50
0
  1
  960
  0
TEXT
  8
_0-8_寸法
 62
    3
 10
1001.6458
 20
1482.3137
 40
30
 41
1
 50
0
  1
820*820
  0
TEXT
  8
_0-8_寸法
 62
    3
 10
1708.9188
 20
1675.6711
 40
30
 41
1
 50
90
  1
60
  0
TEXT
  8
_0-8_寸法
 62
    3
 10
1708.9188
 20
2192.9502
 40
30
 41
1
 50
90
  1
110
  0
TEXT
  8
_0-8_寸法
 62
    3
 10
1708.9188
 20
1783.0385
 40
30
 41
1
 50
90
  1
200
  0
TEXT
  8
_0-8_寸法
 62
    3
 10
1708.9188
 20
2002.8176
 40
30
 41
1
 50
90
  1
240
  0
TEXT
  8
_0-8_寸法
 62
    3
 10
287.56664
 20
1948.4369
 40
30
 41
1
 50
90
  1
610
  0
TEXT
  8
_0-d_文字
 62
    7
 10
1235.6792
 20
118.64592
 40
20
 41
1
 50
0
  1
〒421-2114　静岡市葵区安倍口新田１５２番地
  0
TEXT
  8
_0-d_文字
 62
    3
 10
254.99999
 20
2792.7013
 40
50
 41
1
 50
0
  1
ＳＴ－６０Ｌ　架台型（低騒音）立面
  0
TEXT
  8
_0-d_文字
 62
    3
 10
280.67566
 20
215.81081
 40
30
 41
1
 50
0
  1
ＳＴ－６０Ｌ　架台型（低騒音）立面
  0
TEXT
  8
_0-d_文字
 62
    3
 10
308.45925
 20
140.30213
 40
30
 41
1
 50
0
  1
60L-01b
  0
POINT
  8
_0-8_寸法
 62
    2
 10
330.53135
 20
1659.421
  0
POINT
  8
_0-8_寸法
 62
    2
 10
330.53135
 20
2269.421
  0
POINT
  8
_0-8_寸法
 62
    2
 10
570.00002
 20
2370.6147
  0
POINT
  8
_0-8_寸法
 62
    2
 10
1530
 20
2370.6147
  0
POINT
  8
_0-8_寸法
 62
    2
 10
639.99988
 20
1472.7472
  0
POINT
  8
_0-8_寸法
 62
    2
 10
1460.0001
 20
1472.7472
  0
POINT
  8
_0-8_寸法
 62
    2
 10
1718.9189
 20
1659.421
  0
POINT
  8
_0-8_寸法
 62
    2
 10
1718.9189
 20
1919.4208
  0
POINT
  8
_0-8_寸法
 62
    2
 10
1718.9189
 20
2158.9792
  0
POINT
  8
_0-8_寸法
 62
    2
 10
1718.9189
 20
2269.421
  0
POINT
  8
_0-8_寸法
 62
    2
 10
1718.9189
 20
1719.4208
  0
ENDSEC
  0
EOF
