  0
SECTION
  2
HEADER
  9
$ACADVER
  1
AC1009
  9
$INSBASE
 10
0
 20
0
 30
0
  9
$EXTMIN
 10
0
 20
0
  9
$EXTMAX
 10
6300
 20
4455
  9
$LIMMIN
 10
0
 20
0
  9
$LIMMAX
 10
6300
 20
4455
  9
$LTSCALE
 40
15
  0
ENDSEC
  0
SECTION
  2
TABLES
  0
TABLE
  2
LTYPE
 70
     9
  0
LTYPE
  2
CONTINUOUS
 70
    64
  3
実線
 72
    65
 73
     0
 40
0.0
  0
LTYPE
  2
DASHED1
 70
    64
  3
--  --  --  --  --  --  --  --  
 72
    65
 73
     2
 40
2.5
 49
1.25
 49
-1.25
  0
LTYPE
  2
DASHED2
 70
    64
  3
----    ----    ----    ----    
 72
    65
 73
     2
 40
5.0
 49
2.5
 49
-2.5
  0
LTYPE
  2
DASHED3
 70
    64
  3
------  ------  ------  ------  
 72
    65
 73
     2
 40
5.0
 49
3.75
 49
-1.25
  0
LTYPE
  2
CENTER1
 70
    64
  3
----- - ----- - ----- - ----- - 
 72
    65
 73
     4
 40
10.0
 49
6.25
 49
-1.25
 49
1.25
 49
-1.25
  0
LTYPE
  2
CENTER2
 70
    64
  3
----------  --  ----------  --  
 72
    65
 73
     4
 40
20.0
 49
12.5
 49
-2.5
 49
2.5
 49
-2.5
  0
LTYPE
  2
PHANTOM1
 70
    64
  3
--- - - --- - - --- - - --- - - 
 72
    65
 73
     6
 40
10.0
 49
3.25
 49
-1.25
 49
1.25
 49
-1.25
 49
1.25
 49
-1.25
  0
LTYPE
  2
PHANTOM2
 70
    64
  3
--------  -  -  --------  -  -  
 72
    65
 73
     6
 40
20.0
 49
10.0
 49
-2.5
 49
1.25
 49
-2.5
 49
1.25
 49
-2.5
  0
LTYPE
  2
DOT
 70
    64
  3
-   -   -   -   -   -   -   -   
 72
    65
 73
     2
 40
2.5
 49
0.625
 49
-1.875
  0
LTYPE
  2
DUMMY
 70
    64
  3
ダミー
 72
    65
 73
     0
 40
0.0
  0
LTYPE
  2
RAND1
 70
    64
  3
----- - ----- - ----- - ----- - 
 72
    65
 73
     4
 40
10.0
 49
6.25
 49
-1.25
 49
1.25
 49
-1.25
  0
LTYPE
  2
RAND2
 70
    64
  3
----------  --  ----------  --  
 72
    65
 73
     4
 40
20.0
 49
12.5
 49
-2.5
 49
2.5
 49
-2.5
  0
LTYPE
  2
RAND3
 70
    64
  3
--- - - --- - - --- - - --- - - 
 72
    65
 73
     6
 40
10.0
 49
3.25
 49
-1.25
 49
1.25
 49
-1.25
 49
1.25
 49
-1.25
  0
LTYPE
  2
RAND4
 70
    64
  3
--------  -  -  --------  -  -  
 72
    65
 73
     6
 40
20.0
 49
10.0
 49
-2.5
 49
1.25
 49
-2.5
 49
1.25
 49
-2.5
  0
LTYPE
  2
RAND5
 70
    64
  3
----- - ----- - ----- - ----- - 
 72
    65
 73
     4
 40
10.0
 49
6.25
 49
-1.25
 49
1.25
 49
-1.25
  0
LTYPE
  2
LONG1
 70
    64
  3
----------  --  ----------  --  
 72
    65
 73
     4
 40
20.0
 49
12.5
 49
-2.5
 49
2.5
 49
-2.5
  0
LTYPE
  2
LONG2
 70
    64
  3
--- - - --- - - --- - - --- - - 
 72
    65
 73
     6
 40
10.0
 49
3.25
 49
-1.25
 49
1.25
 49
-1.25
 49
1.25
 49
-1.25
  0
LTYPE
  2
LONG3
 70
    64
  3
--------  -  -  --------  -  -  
 72
    65
 73
     6
 40
20.0
 49
10.0
 49
-2.5
 49
1.25
 49
-2.5
 49
1.25
 49
-2.5
  0
LTYPE
  2
LONG4
 70
    64
  3
----- - ----- - ----- - ----- - 
 72
    65
 73
     4
 40
10.0
 49
6.25
 49
-1.25
 49
1.25
 49
-1.25
  0
LTYPE
  2
LONG5
 70
    64
  3
----------  --  ----------  --  
 72
    65
 73
     4
 40
20.0
 49
12.5
 49
-2.5
 49
2.5
 49
-2.5
  0
ENDTAB
  0
TABLE
  2
STYLE
  5
3
100
AcDbSymbolTable
 70
     1
  0
STYLE
  5
10
100
AcDbSymbolTableRecord
100
AcDbTextStyleTableRecord
  2
STANDARD
 70
     0
 40
0.0
 41
1.0
 50
0.0
 71
     0
 42
0.2
  3
txt
  4
bigfont.shx
  0
STYLE
  5
26
100
AcDbSymbolTableRecord
100
AcDbTextStyleTableRecord
  2
TATEGAKI
 70
    68
 40
0.0
 41
1.0
 50
0.0
 71
     0
 42
1.0
  3
txt
  4
bigfont.shx
  0
ENDTAB
  0
TABLE
  2
LAYER
 70
    5
  0
LAYER
  2
_0-1_基準線
 70
   64
 62
    7
  6
CONTINUOUS
  0
LAYER
  2
_0-2_躯体
 70
   64
 62
    7
  6
CONTINUOUS
  0
LAYER
  2
_0-8_寸法
 70
   64
 62
    7
  6
CONTINUOUS
  0
LAYER
  2
_0-d_文字
 70
   64
 62
    7
  6
CONTINUOUS
  0
LAYER
  2
ADD_LINE
 70
   64
 62
    7
  6
CONTINUOUS
  0
ENDTAB
  0
ENDSEC
  0
SECTION
  2
BLOCKS
  0
ENDSEC
  0
SECTION
  2
ENTITIES
  0
LINE
  8
_0-d_文字
  6
CONTINUOUS
 62
    7
 10
375.00005
 20
4136.5518
 11
2775
 21
4136.5518
  0
LINE
  8
_0-d_文字
  6
CONTINUOUS
 62
    7
 10
375.00005
 20
4151.5522
 11
2775
 21
4151.5522
  0
LINE
  8
_0-d_文字
  6
CONTINUOUS
 62
    7
 10
374.99949
 20
284.99982
 11
2775.0004
 21
284.99982
  0
LINE
  8
_0-d_文字
  6
CONTINUOUS
 62
    7
 10
374.99949
 20
134.9997
 11
374.99949
 21
404.99985
  0
LINE
  8
_0-d_文字
  6
CONTINUOUS
 62
    7
 10
374.99949
 20
134.9997
 11
2775.0004
 21
134.9997
  0
LINE
  8
_0-d_文字
  6
CONTINUOUS
 62
    7
 10
2775.0004
 20
404.99985
 11
2775.0004
 21
134.9997
  0
LINE
  8
_0-d_文字
  6
CONTINUOUS
 62
    7
 10
374.99949
 20
404.99985
 11
2775.0004
 21
404.99985
  0
LINE
  8
_0-d_文字
  6
CONTINUOUS
 62
    7
 10
1575
 20
404.99985
 11
1575
 21
134.9997
  0
LINE
  8
_0-d_文字
  6
CONTINUOUS
 62
    7
 10
975.00024
 20
134.9997
 11
975.00024
 21
284.99982
  0
LINE
  8
_0-d_文字
  6
CONTINUOUS
 62
    7
 10
1575
 20
284.99982
 11
1575
 21
404.99985
  0
LINE
  8
_0-d_文字
  6
CONTINUOUS
 62
    7
 10
1274.9995
 20
134.9997
 11
1274.9995
 21
284.99982
  0
LINE
  8
_0-d_文字
  6
CONTINUOUS
 62
    7
 10
427.50001
 20
134.9997
 11
427.50001
 21
284.99982
  0
LINE
  8
_0-d_文字
  6
CONTINUOUS
 62
    7
 10
1027.5
 20
134.9997
 11
1027.5
 21
284.99982
  0
LINE
  8
_0-d_文字
  6
CONTINUOUS
 62
    7
 10
1327.5001
 20
134.9997
 11
1327.5001
 21
284.99982
  0
LINE
  8
_0-d_文字
  6
CONTINUOUS
 62
    7
 10
1522.5
 20
284.99982
 11
1522.5
 21
404.99985
  0
LINE
  8
_0-d_文字
  6
CONTINUOUS
 62
    7
 10
2325.0006
 20
284.99982
 11
2325.0006
 21
404.99985
  0
LINE
  8
_0-d_文字
  6
CONTINUOUS
 62
    7
 10
2377.5002
 20
284.99982
 11
2377.5002
 21
404.99985
  0
LINE
  8
_0-2_躯体
  6
CONTINUOUS
 62
    3
 10
1075.8018
 20
3589.7448
 11
1575
 21
3704.7939
  0
LINE
  8
_0-2_躯体
  6
CONTINUOUS
 62
    3
 10
2074.199
 20
3589.7448
 11
1575
 21
3704.7939
  0
LINE
  8
_0-8_寸法
  6
CONTINUOUS
 62
    7
 10
555.53147
 20
3134.7935
 11
555.53147
 21
3704.7939
  0
LINE
  8
_0-8_寸法
  6
CONTINUOUS
 62
    7
 10
1095.0017
 20
3134.7935
 11
555.53147
 21
3134.7935
  0
LINE
  8
_0-8_寸法
  6
CONTINUOUS
 62
    7
 10
1095.0017
 20
3905.987
 11
2054.9997
 21
3905.987
  0
LINE
  8
_0-8_寸法
  6
CONTINUOUS
 62
    7
 10
555.53147
 20
2280.7251
 11
555.53147
 21
2690.725
  0
LINE
  8
_0-8_寸法
  6
CONTINUOUS
 62
    7
 10
1095.0017
 20
2280.7251
 11
555.53147
 21
2280.7251
  0
LINE
  8
_0-8_寸法
  6
CONTINUOUS
 62
    7
 10
1095.0017
 20
2600.7251
 11
555.53147
 21
2600.7251
  0
LINE
  8
_0-8_寸法
  6
CONTINUOUS
 62
    7
 10
1095.0017
 20
2690.725
 11
555.53147
 21
2690.725
  0
LINE
  8
_0-8_寸法
  6
CONTINUOUS
 62
    7
 10
555.53147
 20
560.06834
 11
555.53147
 21
1780.0687
  0
LINE
  8
_0-8_寸法
  6
CONTINUOUS
 62
    7
 10
1200
 20
1940.995
 11
1950.0001
 21
1940.995
  0
LINE
  8
_0-8_寸法
  6
CONTINUOUS
 62
    7
 10
1267.4999
 20
2958.12
 11
1882.4999
 21
2958.12
  0
LINE
  8
_0-8_寸法
  6
CONTINUOUS
 62
    7
 10
1289.5082
 20
1070.069
 11
1860.4949
 21
1270.0676
  0
LINE
  8
_0-2_躯体
  6
CONTINUOUS
 62
    3
 10
1272.5001
 20
2600.7251
 11
1877.5
 21
2600.7251
  0
LINE
  8
_0-2_躯体
  6
CONTINUOUS
 62
    3
 10
1272.5001
 20
2690.725
 11
1877.5
 21
2690.725
  0
LINE
  8
_0-2_躯体
  6
CONTINUOUS
 62
    3
 10
1272.5001
 20
2600.7251
 11
1200
 21
2280.7251
  0
LINE
  8
_0-2_躯体
  6
CONTINUOUS
 62
    3
 10
1877.5
 20
2600.7251
 11
1950.0001
 21
2280.3231
  0
LINE
  8
_0-8_寸法
  6
CONTINUOUS
 62
    7
 10
1272.5001
 20
2849.5673
 11
1877.5
 21
2849.5673
  0
LINE
  8
_0-2_躯体
  6
CONTINUOUS
 62
    3
 10
1095.0017
 20
3594.3516
 11
2054.9997
 21
3594.3516
  0
LINE
  8
_0-2_躯体
  6
CONTINUOUS
 62
    3
 10
1095.0017
 20
3360.7229
 11
2054.9997
 21
3360.7229
  0
LINE
  8
_0-2_躯体
  6
CONTINUOUS
 62
    3
 10
1095.0017
 20
3594.3516
 11
1095.0017
 21
3454.1743
  0
LINE
  8
_0-2_躯体
  6
CONTINUOUS
 62
    3
 10
2054.9997
 20
3594.3516
 11
2054.9997
 21
3454.1743
  0
LINE
  8
_0-8_寸法
  6
CONTINUOUS
 62
    7
 10
1095.0017
 20
3650.3129
 11
1095.0017
 21
3905.987
  0
LINE
  8
_0-8_寸法
  6
CONTINUOUS
 62
    7
 10
1235.2656
 20
3704.7939
 11
555.53147
 21
3704.7939
  0
LINE
  8
_0-8_寸法
  6
CONTINUOUS
 62
    7
 10
2054.9997
 20
3650.3129
 11
2054.9997
 21
3905.987
  0
LINE
  8
_0-8_寸法
  6
CONTINUOUS
 62
    7
 10
1200
 20
2213.0783
 11
1200
 21
1940.995
  0
LINE
  8
_0-8_寸法
  6
CONTINUOUS
 62
    7
 10
1950.0001
 20
2213.0783
 11
1950.0001
 21
1940.995
  0
LINE
  8
_0-8_寸法
  6
CONTINUOUS
 62
    7
 10
898.16424
 20
1780.0687
 11
555.53147
 21
1780.0687
  0
LINE
  8
_0-8_寸法
  6
CONTINUOUS
 62
    7
 10
898.16424
 20
560.06834
 11
555.53147
 21
560.06834
  0
LINE
  8
_0-8_寸法
  6
CONTINUOUS
 62
    7
 10
2251.0644
 20
1545.0683
 11
2594.4692
 21
1545.0683
  0
LINE
  8
_0-8_寸法
  6
CONTINUOUS
 62
    7
 10
2251.0644
 20
795.06887
 11
2594.4692
 21
795.06887
  0
LINE
  8
_0-8_寸法
  6
CONTINUOUS
 62
    7
 10
1272.5001
 20
2735.7558
 11
1272.5001
 21
2849.5673
  0
LINE
  8
_0-8_寸法
  6
CONTINUOUS
 62
    7
 10
1877.5
 20
2735.7558
 11
1877.5
 21
2849.5673
  0
LINE
  8
_0-d_文字
  6
CONTINUOUS
 62
    7
 10
729.9669
 20
2093.9616
 11
848.56579
 21
2093.9616
  0
LINE
  8
_0-d_文字
  6
CONTINUOUS
 62
    7
 10
729.9669
 20
2093.9616
 11
848.56579
 21
2129.5401
  0
LINE
  8
_0-d_文字
  6
CONTINUOUS
 62
    7
 10
848.56579
 20
2093.9616
 11
848.56579
 21
2129.5401
  0
LINE
  8
_0-2_躯体
  6
CONTINUOUS
 62
    3
 10
1095.0017
 20
3441.4309
 11
2054.9997
 21
3441.4309
  0
LINE
  8
_0-2_躯体
  6
CONTINUOUS
 62
    3
 10
1095.0017
 20
3454.1743
 11
2054.9997
 21
3454.1743
  0
LINE
  8
_0-2_躯体
  6
CONTINUOUS
 62
    3
 10
1095.0017
 20
3403.2014
 11
2054.9997
 21
3403.2014
  0
LINE
  8
_0-2_躯体
  6
CONTINUOUS
 62
    3
 10
1095.0017
 20
3390.458
 11
2054.9997
 21
3390.458
  0
LINE
  8
_0-2_躯体
  6
CONTINUOUS
 62
    3
 10
1272.5001
 20
2690.725
 11
1272.5001
 21
2677.982
  0
LINE
  8
_0-2_躯体
  6
CONTINUOUS
 62
    3
 10
1272.5001
 20
2665.2382
 11
1272.5001
 21
2600.7251
  0
LINE
  8
_0-2_躯体
  6
CONTINUOUS
 62
    3
 10
1272.5001
 20
2665.2382
 11
1877.5
 21
2665.2382
  0
LINE
  8
_0-2_躯体
  6
CONTINUOUS
 62
    3
 10
1877.5
 20
2665.2382
 11
1877.5
 21
2600.7251
  0
LINE
  8
_0-2_躯体
  6
CONTINUOUS
 62
    3
 10
1272.5001
 20
2677.982
 11
1877.5003
 21
2677.982
  0
LINE
  8
_0-2_躯体
  6
CONTINUOUS
 62
    3
 10
1877.5003
 20
2690.725
 11
1877.5003
 21
2677.982
  0
LINE
  8
_0-2_躯体
  6
CONTINUOUS
 62
    3
 10
1095.0017
 20
3441.4309
 11
1095.0017
 21
3403.2014
  0
LINE
  8
_0-2_躯体
  6
CONTINUOUS
 62
    3
 10
1095.0017
 20
3390.458
 11
1095.0017
 21
3360.7229
  0
LINE
  8
_0-2_躯体
  6
CONTINUOUS
 62
    3
 10
2054.9997
 20
3441.4309
 11
2054.9997
 21
3403.2014
  0
LINE
  8
_0-2_躯体
  6
CONTINUOUS
 62
    3
 10
2054.9986
 20
3390.458
 11
2054.9986
 21
3360.7229
  0
LINE
  8
_0-2_躯体
  6
CONTINUOUS
 62
    3
 10
1267.4999
 20
3215.5015
 11
1882.4999
 21
3215.5015
  0
LINE
  8
_0-2_躯体
  6
CONTINUOUS
 62
    3
 10
1267.4999
 20
3228.2449
 11
1882.4999
 21
3228.2449
  0
LINE
  8
_0-2_躯体
  6
CONTINUOUS
 62
    3
 10
1267.4999
 20
3177.272
 11
1882.4999
 21
3177.272
  0
LINE
  8
_0-2_躯体
  6
CONTINUOUS
 62
    3
 10
1267.4999
 20
3215.5015
 11
1267.4999
 21
3177.272
  0
LINE
  8
_0-2_躯体
  6
CONTINUOUS
 62
    3
 10
1267.4999
 20
3134.7935
 11
1882.4999
 21
3134.7935
  0
LINE
  8
_0-2_躯体
  6
CONTINUOUS
 62
    3
 10
1267.4999
 20
3164.5286
 11
1882.4999
 21
3164.5286
  0
LINE
  8
_0-2_躯体
  6
CONTINUOUS
 62
    3
 10
1882.4999
 20
3164.5286
 11
1882.4999
 21
3134.7935
  0
LINE
  8
_0-2_躯体
  6
CONTINUOUS
 62
    3
 10
1882.4999
 20
3215.5015
 11
1882.4999
 21
3177.272
  0
LINE
  8
_0-2_躯体
  6
CONTINUOUS
 62
    3
 10
1882.4999
 20
3360.7237
 11
1882.4999
 21
3228.2449
  0
LINE
  8
_0-2_躯体
  6
CONTINUOUS
 62
    3
 10
1267.4999
 20
3360.7237
 11
1267.4999
 21
3228.2449
  0
LINE
  8
_0-2_躯体
  6
CONTINUOUS
 62
    3
 10
1267.4999
 20
3164.5286
 11
1267.4999
 21
3134.7935
  0
LINE
  8
_0-2_躯体
  6
CONTINUOUS
 62
    3
 10
1200.0002
 20
1545.0683
 11
1282.8085
 21
1462.2601
  0
LINE
  8
_0-2_躯体
  6
CONTINUOUS
 62
    3
 10
1200.0002
 20
1545.0683
 11
1949.9997
 21
1545.0683
  0
LINE
  8
_0-2_躯体
  6
CONTINUOUS
 62
    3
 10
1950.0001
 20
1545.0686
 11
1867.1917
 21
1462.2601
  0
LINE
  8
_0-2_躯体
  6
CONTINUOUS
 62
    3
 10
1200
 20
1545.0683
 11
1200
 21
795.06887
  0
LINE
  8
_0-2_躯体
  6
CONTINUOUS
 62
    3
 10
1199.9995
 20
795.06831
 11
1282.8085
 21
877.87656
  0
LINE
  8
_0-2_躯体
  6
CONTINUOUS
 62
    3
 10
1199.9995
 20
795.06831
 11
1950.0004
 21
795.06831
  0
LINE
  8
_0-2_躯体
  6
CONTINUOUS
 62
    3
 10
1950.0001
 20
795.06887
 11
1867.1917
 21
877.87656
  0
LINE
  8
_0-2_躯体
  6
CONTINUOUS
 62
    3
 10
1950.0001
 20
1545.0686
 11
1950.0001
 21
795.06887
  0
LINE
  8
_0-2_躯体
  6
CONTINUOUS
 62
    3
 10
2185.0002
 20
560.06834
 11
965.00009
 21
560.06834
  0
LINE
  8
_0-2_躯体
  6
CONTINUOUS
 62
    3
 10
2185.0002
 20
1780.0687
 11
2185.0002
 21
560.06834
  0
LINE
  8
_0-8_寸法
  6
CONTINUOUS
 62
    7
 10
1267.4999
 20
3092.1747
 11
1267.4999
 21
2958.12
  0
LINE
  8
_0-8_寸法
  6
CONTINUOUS
 62
    7
 10
1882.4999
 20
3092.1747
 11
1882.4999
 21
2958.12
  0
LINE
  8
_0-8_寸法
  6
CONTINUOUS
 62
    7
 10
2594.4692
 20
795.06887
 11
2594.4692
 21
1545.0683
  0
LINE
  8
_0-1_基準線
  6
CENTER2
 62
    7
 10
1575
 20
4004.7942
 11
1575
 21
404.99985
  0
LINE
  8
_0-2_躯体
  6
CONTINUOUS
 62
    3
 10
965.00009
 20
1780.0687
 11
1138.8806
 21
1780.0687
  0
LINE
  8
_0-2_躯体
  6
CONTINUOUS
 62
    3
 10
965.00009
 20
1780.0687
 11
2185.0002
 21
1780.0687
  0
LINE
  8
_0-2_躯体
  6
CONTINUOUS
 62
    3
 10
965.00009
 20
560.06834
 11
965.00009
 21
1780.0687
  0
LINE
  8
_0-2_躯体
  6
CONTINUOUS
 62
    3
 10
2184.9999
 20
2212.0518
 11
1575
 21
2395.4246
  0
LINE
  8
_0-2_躯体
  6
CONTINUOUS
 62
    3
 10
1575
 20
2395.4246
 11
965.00009
 21
2212.4319
  0
LINE
  8
_0-1_基準線
  6
CENTER2
 62
    7
 10
965.00009
 20
1170.0686
 11
2185.0002
 21
1170.0686
  0
ARC
  8
_0-2_躯体
  6
CONTINUOUS
 62
    3
 10
1272.5001
 20
2671.6103
 40
6.3715976
 50
270
 51
90
  0
ARC
  8
_0-2_躯体
  6
CONTINUOUS
 62
    3
 10
2054.9997
 20
3447.8029
 40
6.3715976
 50
270
 51
90
  0
ARC
  8
_0-2_躯体
  6
CONTINUOUS
 62
    3
 10
2054.9997
 20
3396.8293
 40
6.3715976
 50
270
 51
90
  0
ARC
  8
_0-2_躯体
  6
CONTINUOUS
 62
    3
 10
1877.5003
 20
2671.6103
 40
6.3715976
 50
90
 51
270
  0
ARC
  8
_0-2_躯体
  6
CONTINUOUS
 62
    3
 10
1095.0017
 20
3447.8029
 40
6.3715976
 50
90
 51
270
  0
ARC
  8
_0-2_躯体
  6
CONTINUOUS
 62
    3
 10
1095.0017
 20
3396.8293
 40
6.3715976
 50
90
 51
270
  0
ARC
  8
_0-2_躯体
  6
CONTINUOUS
 62
    3
 10
1882.4999
 20
3221.8735
 40
6.3715976
 50
270
 51
90
  0
ARC
  8
_0-2_躯体
  6
CONTINUOUS
 62
    3
 10
1882.4999
 20
3170.9
 40
6.3715976
 50
270
 51
90
  0
ARC
  8
_0-2_躯体
  6
CONTINUOUS
 62
    3
 10
1267.4999
 20
3221.8735
 40
6.3715976
 50
90
 51
270
  0
ARC
  8
_0-2_躯体
  6
CONTINUOUS
 62
    3
 10
1267.4999
 20
3170.9
 40
6.3715976
 50
90
 51
270
  0
CIRCLE
  8
_0-2_躯体
  6
CONTINUOUS
 62
    3
 10
1575.0014
 20
1170.0686
 40
302.49996
  0
TEXT
  8
_0-d_文字
 62
    7
 10
382.49967
 20
236.24985
 40
37.5
 41
1
 50
0
  1
図
  0
TEXT
  8
_0-d_文字
 62
    7
 10
382.49967
 20
146.24993
 40
37.5
 41
1
 50
0
  1
番
  0
TEXT
  8
_0-d_文字
 62
    7
 10
982.50065
 20
236.24985
 40
37.5
 41
1
 50
0
  1
承
  0
TEXT
  8
_0-d_文字
 62
    7
 10
982.50065
 20
146.24993
 40
37.5
 41
1
 50
0
  1
認
  0
TEXT
  8
_0-d_文字
 62
    7
 10
1530.0003
 20
356.24989
 40
37.5
 41
1
 50
0
  1
尺
  0
TEXT
  8
_0-d_文字
 62
    7
 10
1530.0003
 20
296.24965
 40
37.5
 41
1
 50
0.0000708
  1
度
  0
TEXT
  8
_0-d_文字
 62
    7
 10
1282.5001
 20
236.24985
 40
37.5
 41
1
 50
0
  1
製
  0
TEXT
  8
_0-d_文字
 62
    7
 10
1282.5001
 20
146.24993
 40
37.5
 41
1
 50
0
  1
図
  0
TEXT
  8
_0-d_文字
 62
    7
 10
2332.5
 20
356.24989
 40
37.5
 41
1
 50
0
  1
日
  0
TEXT
  8
_0-d_文字
 62
    7
 10
2332.5
 20
296.24965
 40
37.5
 41
1
 50
0.0000708
  1
付
  0
TEXT
  8
_0-d_文字
 62
    7
 10
1667.1394
 20
245.22338
 40
30
 41
1
 50
0
  1
株式
  0
TEXT
  8
_0-d_文字
 62
    7
 10
1667.1394
 20
212.77768
 40
30
 41
1
 50
0.0000196
  1
会社
  0
TEXT
  8
_0-d_文字
 62
    3
 10
1761.337
 20
214.87067
 40
60
 41
1
 50
0
  1
スズキベンチレーター
  0
TEXT
  8
_0-d_文字
 62
    7
 10
1856.8772
 20
141.03626
 40
30
 41
1
 50
0
  1
TEL(054)296-7000  FAX(054)296-7001
  0
TEXT
  8
_0-d_文字
 62
    3
 10
879.0302
 20
2111.7637
 40
45
 41
1
 50
0
  1
3
  0
TEXT
  8
_0-d_文字
 62
    3
 10
784.42418
 20
2044.7612
 40
45
 41
1
 50
0
  1
10
  0
TEXT
  8
_0-8_寸法
 62
    3
 10
1502.4997
 20
3948.9532
 40
45
 41
1
 50
0
  1
  960
  0
TEXT
  8
_0-8_寸法
 62
    3
 10
1504.9998
 20
2992.5896
 40
45
 41
1
 50
0
  1
615φ
  0
TEXT
  8
_0-8_寸法
 62
    3
 10
1504.9998
 20
2884.0362
 40
45
 41
1
 50
0
  1
605φ
  0
TEXT
  8
_0-8_寸法
 62
    3
 10
1532.4716
 20
1975.4639
 40
45
 41
1
 50
0
  1
750
  0
TEXT
  8
_0-8_寸法
 62
    3
 10
1497.5411
 20
1179.4585
 40
45
 41
1
 50
19.30378
  1
605φ
  0
TEXT
  8
_0-8_寸法
 62
    3
 10
2560.0004
 20
1127.5686
 40
45
 41
1
 50
90
  1
750
  0
TEXT
  8
_0-8_寸法
 62
    3
 10
512.56676
 20
2395.3931
 40
45
 41
1
 50
90
  1
320
  0
TEXT
  8
_0-8_寸法
 62
    3
 10
512.56676
 20
3392.5595
 40
45
 41
1
 50
90
  1
570
  0
TEXT
  8
_0-8_寸法
 62
    3
 10
512.56676
 20
2615.7031
 40
45
 41
1
 50
90
  1
90
  0
TEXT
  8
_0-d_文字
 62
    3
 10
1626.5234
 20
315.15096
 40
60
 41
1
 50
0.000005
  1
１／１５
  0
TEXT
  8
_0-8_寸法
 62
    3
 10
521.06242
 20
1097.5682
 40
45
 41
1
 50
90
  1
≒ 1,220
  0
TEXT
  8
_0-d_文字
 62
    7
 10
1853.5188
 20
177.96888
 40
30
 41
1
 50
0
  1
〒421-2114　静岡市葵区安倍口新田１５２番地
  0
TEXT
  8
_0-d_文字
 62
    3
 10
382.50001
 20
4189.052
 40
75
 41
1
 50
0
  1
ＳＴ－６０Ｌ　直付型（低騒音）立面、袴立面・平面
  0
TEXT
  8
_0-d_文字
 62
    7
 10
421.01342
 20
323.71621
 40
37.5
 41
1
 50
0
  1
ＳＴ－６０Ｌ　直付型（低騒音）立面、袴立面・平面
  0
TEXT
  8
_0-d_文字
 62
    3
 10
462.68888
 20
210.4532
 40
45
 41
1
 50
0
  1
60L-01
  0
POINT
  8
_0-8_寸法
 62
    2
 10
555.53147
 20
3134.7935
  0
POINT
  8
_0-8_寸法
 62
    2
 10
555.53147
 20
3704.7939
  0
POINT
  8
_0-8_寸法
 62
    2
 10
1095.0017
 20
3905.987
  0
POINT
  8
_0-8_寸法
 62
    2
 10
2054.9997
 20
3905.987
  0
POINT
  8
_0-8_寸法
 62
    2
 10
555.53147
 20
2280.7251
  0
POINT
  8
_0-8_寸法
 62
    2
 10
555.53147
 20
2600.7251
  0
POINT
  8
_0-8_寸法
 62
    2
 10
555.53147
 20
2690.725
  0
POINT
  8
_0-8_寸法
 62
    2
 10
555.53147
 20
560.06834
  0
POINT
  8
_0-8_寸法
 62
    2
 10
555.53147
 20
1780.0687
  0
POINT
  8
_0-8_寸法
 62
    2
 10
2594.4692
 20
795.06887
  0
POINT
  8
_0-8_寸法
 62
    2
 10
2594.4692
 20
1545.0683
  0
POINT
  8
_0-8_寸法
 62
    2
 10
1200
 20
1940.995
  0
POINT
  8
_0-8_寸法
 62
    2
 10
1950.0001
 20
1940.995
  0
POINT
  8
_0-8_寸法
 62
    2
 10
1267.4999
 20
2958.12
  0
POINT
  8
_0-8_寸法
 62
    2
 10
1882.4999
 20
2958.12
  0
POINT
  8
_0-8_寸法
 62
    2
 10
1289.5082
 20
1070.069
  0
POINT
  8
_0-8_寸法
 62
    2
 10
1860.4949
 20
1270.0676
  0
POINT
  8
_0-8_寸法
 62
    2
 10
1272.5001
 20
2849.5673
  0
POINT
  8
_0-8_寸法
 62
    2
 10
1877.5
 20
2849.5673
  0
ENDSEC
  0
EOF
