  0
SECTION
  2
HEADER
  9
$ACADVER
  1
AC1009
  9
$INSBASE
 10
0
 20
0
 30
0
  9
$EXTMIN
 10
0
 20
0
  9
$EXTMAX
 10
4200
 20
2970
  9
$LIMMIN
 10
0
 20
0
  9
$LIMMAX
 10
4200
 20
2970
  9
$LTSCALE
 40
10
  0
ENDSEC
  0
SECTION
  2
TABLES
  0
TABLE
  2
LTYPE
 70
     9
  0
LTYPE
  2
CONTINUOUS
 70
    64
  3
実線
 72
    65
 73
     0
 40
0.0
  0
LTYPE
  2
DASHED1
 70
    64
  3
--  --  --  --  --  --  --  --  
 72
    65
 73
     2
 40
2.5
 49
1.25
 49
-1.25
  0
LTYPE
  2
DASHED2
 70
    64
  3
----    ----    ----    ----    
 72
    65
 73
     2
 40
5.0
 49
2.5
 49
-2.5
  0
LTYPE
  2
DASHED3
 70
    64
  3
------  ------  ------  ------  
 72
    65
 73
     2
 40
5.0
 49
3.75
 49
-1.25
  0
LTYPE
  2
CENTER1
 70
    64
  3
----- - ----- - ----- - ----- - 
 72
    65
 73
     4
 40
10.0
 49
6.25
 49
-1.25
 49
1.25
 49
-1.25
  0
LTYPE
  2
CENTER2
 70
    64
  3
----------  --  ----------  --  
 72
    65
 73
     4
 40
20.0
 49
12.5
 49
-2.5
 49
2.5
 49
-2.5
  0
LTYPE
  2
PHANTOM1
 70
    64
  3
--- - - --- - - --- - - --- - - 
 72
    65
 73
     6
 40
10.0
 49
3.25
 49
-1.25
 49
1.25
 49
-1.25
 49
1.25
 49
-1.25
  0
LTYPE
  2
PHANTOM2
 70
    64
  3
--------  -  -  --------  -  -  
 72
    65
 73
     6
 40
20.0
 49
10.0
 49
-2.5
 49
1.25
 49
-2.5
 49
1.25
 49
-2.5
  0
LTYPE
  2
DOT
 70
    64
  3
-   -   -   -   -   -   -   -   
 72
    65
 73
     2
 40
2.5
 49
0.625
 49
-1.875
  0
LTYPE
  2
DUMMY
 70
    64
  3
ダミー
 72
    65
 73
     0
 40
0.0
  0
LTYPE
  2
RAND1
 70
    64
  3
----- - ----- - ----- - ----- - 
 72
    65
 73
     4
 40
10.0
 49
6.25
 49
-1.25
 49
1.25
 49
-1.25
  0
LTYPE
  2
RAND2
 70
    64
  3
----------  --  ----------  --  
 72
    65
 73
     4
 40
20.0
 49
12.5
 49
-2.5
 49
2.5
 49
-2.5
  0
LTYPE
  2
RAND3
 70
    64
  3
--- - - --- - - --- - - --- - - 
 72
    65
 73
     6
 40
10.0
 49
3.25
 49
-1.25
 49
1.25
 49
-1.25
 49
1.25
 49
-1.25
  0
LTYPE
  2
RAND4
 70
    64
  3
--------  -  -  --------  -  -  
 72
    65
 73
     6
 40
20.0
 49
10.0
 49
-2.5
 49
1.25
 49
-2.5
 49
1.25
 49
-2.5
  0
LTYPE
  2
RAND5
 70
    64
  3
----- - ----- - ----- - ----- - 
 72
    65
 73
     4
 40
10.0
 49
6.25
 49
-1.25
 49
1.25
 49
-1.25
  0
LTYPE
  2
LONG1
 70
    64
  3
----------  --  ----------  --  
 72
    65
 73
     4
 40
20.0
 49
12.5
 49
-2.5
 49
2.5
 49
-2.5
  0
LTYPE
  2
LONG2
 70
    64
  3
--- - - --- - - --- - - --- - - 
 72
    65
 73
     6
 40
10.0
 49
3.25
 49
-1.25
 49
1.25
 49
-1.25
 49
1.25
 49
-1.25
  0
LTYPE
  2
LONG3
 70
    64
  3
--------  -  -  --------  -  -  
 72
    65
 73
     6
 40
20.0
 49
10.0
 49
-2.5
 49
1.25
 49
-2.5
 49
1.25
 49
-2.5
  0
LTYPE
  2
LONG4
 70
    64
  3
----- - ----- - ----- - ----- - 
 72
    65
 73
     4
 40
10.0
 49
6.25
 49
-1.25
 49
1.25
 49
-1.25
  0
LTYPE
  2
LONG5
 70
    64
  3
----------  --  ----------  --  
 72
    65
 73
     4
 40
20.0
 49
12.5
 49
-2.5
 49
2.5
 49
-2.5
  0
ENDTAB
  0
TABLE
  2
STYLE
  5
3
100
AcDbSymbolTable
 70
     1
  0
STYLE
  5
10
100
AcDbSymbolTableRecord
100
AcDbTextStyleTableRecord
  2
STANDARD
 70
     0
 40
0.0
 41
1.0
 50
0.0
 71
     0
 42
0.2
  3
txt
  4
bigfont.shx
  0
STYLE
  5
26
100
AcDbSymbolTableRecord
100
AcDbTextStyleTableRecord
  2
TATEGAKI
 70
    68
 40
0.0
 41
1.0
 50
0.0
 71
     0
 42
1.0
  3
txt
  4
bigfont.shx
  0
ENDTAB
  0
TABLE
  2
LAYER
 70
    7
  0
LAYER
  2
_0-1_基準線
 70
   64
 62
    7
  6
CONTINUOUS
  0
LAYER
  2
_0-2_躯体
 70
   64
 62
    7
  6
CONTINUOUS
  0
LAYER
  2
_0-3_軸組
 70
   64
 62
    7
  6
CONTINUOUS
  0
LAYER
  2
_0-4_仕上
 70
   64
 62
    7
  6
CONTINUOUS
  0
LAYER
  2
_0-8_寸法
 70
   64
 62
    7
  6
CONTINUOUS
  0
LAYER
  2
_0-d_文字
 70
   64
 62
    7
  6
CONTINUOUS
  0
LAYER
  2
ADD_LINE
 70
   64
 62
    7
  6
CONTINUOUS
  0
ENDTAB
  0
ENDSEC
  0
SECTION
  2
BLOCKS
  0
ENDSEC
  0
SECTION
  2
ENTITIES
  0
LINE
  8
_0-d_文字
  6
CONTINUOUS
 62
    7
 10
250.00003
 20
2757.7012
 11
1850
 21
2757.7012
  0
LINE
  8
_0-d_文字
  6
CONTINUOUS
 62
    7
 10
250.00003
 20
2767.7015
 11
1850
 21
2767.7015
  0
LINE
  8
_0-d_文字
  6
CONTINUOUS
 62
    7
 10
249.99966
 20
189.99988
 11
1850.0002
 21
189.99988
  0
LINE
  8
_0-d_文字
  6
CONTINUOUS
 62
    7
 10
249.99966
 20
89.999802
 11
249.99966
 21
269.9999
  0
LINE
  8
_0-d_文字
  6
CONTINUOUS
 62
    7
 10
249.99966
 20
89.999802
 11
1850.0002
 21
89.999802
  0
LINE
  8
_0-d_文字
  6
CONTINUOUS
 62
    7
 10
1850.0002
 20
269.9999
 11
1850.0002
 21
89.999802
  0
LINE
  8
_0-d_文字
  6
CONTINUOUS
 62
    7
 10
249.99966
 20
269.9999
 11
1850.0002
 21
269.9999
  0
LINE
  8
_0-d_文字
  6
CONTINUOUS
 62
    7
 10
1050
 20
269.9999
 11
1050
 21
89.999802
  0
LINE
  8
_0-d_文字
  6
CONTINUOUS
 62
    7
 10
650.00016
 20
89.999802
 11
650.00016
 21
189.99988
  0
LINE
  8
_0-d_文字
  6
CONTINUOUS
 62
    7
 10
1050
 20
189.99988
 11
1050
 21
269.9999
  0
LINE
  8
_0-d_文字
  6
CONTINUOUS
 62
    7
 10
849.99971
 20
89.999802
 11
849.99971
 21
189.99988
  0
LINE
  8
_0-d_文字
  6
CONTINUOUS
 62
    7
 10
285.00001
 20
89.999802
 11
285.00001
 21
189.99988
  0
LINE
  8
_0-d_文字
  6
CONTINUOUS
 62
    7
 10
685.00003
 20
89.999802
 11
685.00003
 21
189.99988
  0
LINE
  8
_0-d_文字
  6
CONTINUOUS
 62
    7
 10
885.00007
 20
89.999802
 11
885.00007
 21
189.99988
  0
LINE
  8
_0-d_文字
  6
CONTINUOUS
 62
    7
 10
1015
 20
189.99988
 11
1015
 21
269.9999
  0
LINE
  8
_0-d_文字
  6
CONTINUOUS
 62
    7
 10
1550.0004
 20
189.99988
 11
1550.0004
 21
269.9999
  0
LINE
  8
_0-d_文字
  6
CONTINUOUS
 62
    7
 10
1585.0001
 20
189.99988
 11
1585.0001
 21
269.9999
  0
LINE
  8
_0-8_寸法
  6
CONTINUOUS
 62
    7
 10
650.2497
 20
2560.2642
 11
1449.7507
 21
2560.2642
  0
LINE
  8
_0-2_躯体
  6
CONTINUOUS
 62
    3
 10
650.2497
 20
2362.9189
 11
650.2497
 21
2227.2657
  0
LINE
  8
_0-2_躯体
  6
CONTINUOUS
 62
    3
 10
650.2497
 20
2211.2761
 11
650.2497
 21
2183.9088
  0
LINE
  8
_0-2_躯体
  6
CONTINUOUS
 62
    3
 10
1449.7507
 20
2362.9189
 11
1449.7507
 21
2227.2657
  0
LINE
  8
_0-2_躯体
  6
CONTINUOUS
 62
    3
 10
794.7746
 20
2167.9197
 11
794.7746
 21
2128.5592
  0
LINE
  8
_0-8_寸法
  6
CONTINUOUS
 62
    7
 10
650.2497
 20
2410.0467
 11
650.2497
 21
2560.2642
  0
LINE
  8
_0-8_寸法
  6
CONTINUOUS
 62
    7
 10
1449.7507
 20
2410.0467
 11
1449.7507
 21
2560.2642
  0
LINE
  8
_0-2_躯体
  6
CONTINUOUS
 62
    3
 10
1449.7497
 20
2211.2761
 11
1449.7497
 21
2183.9088
  0
LINE
  8
_0-8_寸法
  6
CONTINUOUS
 62
    7
 10
689.99992
 20
1859.2075
 11
689.99992
 21
1793.0851
  0
LINE
  8
_0-8_寸法
  6
CONTINUOUS
 62
    7
 10
1409.9998
 20
1859.2075
 11
1409.9998
 21
1793.0851
  0
LINE
  8
_0-8_寸法
  6
CONTINUOUS
 62
    7
 10
459.60041
 20
1942.9197
 11
459.60041
 21
2452.9197
  0
LINE
  8
_0-8_寸法
  6
CONTINUOUS
 62
    7
 10
689.99992
 20
1793.0851
 11
1409.9998
 21
1793.0851
  0
LINE
  8
_0-8_寸法
  6
CONTINUOUS
 62
    7
 10
611.9475
 20
1942.9197
 11
459.60041
 21
1942.9197
  0
LINE
  8
_0-2_躯体
  6
CONTINUOUS
 62
    3
 10
689.99992
 20
1942.9197
 11
689.99992
 21
2002.9197
  0
LINE
  8
_0-2_躯体
  6
CONTINUOUS
 62
    3
 10
689.99992
 20
1942.9197
 11
1409.9998
 21
1942.9197
  0
LINE
  8
_0-2_躯体
  6
CONTINUOUS
 62
    3
 10
1409.9998
 20
1942.9197
 11
1409.9998
 21
2002.9197
  0
LINE
  8
_0-2_躯体
  6
CONTINUOUS
 62
    3
 10
689.99992
 20
2002.9197
 11
1409.9998
 21
2002.9197
  0
LINE
  8
_0-2_躯体
  6
CONTINUOUS
 62
    3
 10
689.99992
 20
2002.9197
 11
849.38581
 21
2106.1884
  0
LINE
  8
_0-2_躯体
  6
CONTINUOUS
 62
    3
 10
849.38581
 20
2106.1884
 11
849.38581
 21
2002.9197
  0
LINE
  8
_0-2_躯体
  6
CONTINUOUS
 62
    3
 10
794.7746
 20
2112.5696
 11
794.7746
 21
2074.6589
  0
LINE
  8
_0-3_軸組
  6
CONTINUOUS
 62
    3
 10
1068.1575
 20
2212.8756
 11
1072.936
 21
2215.8122
  0
LINE
  8
_0-3_軸組
  6
CONTINUOUS
 62
    3
 10
1072.936
 20
2215.8122
 11
1077.6918
 21
2218.8072
  0
LINE
  8
_0-3_軸組
  6
CONTINUOUS
 62
    3
 10
1077.6918
 20
2218.8072
 11
1082.4028
 21
2221.9145
  0
LINE
  8
_0-3_軸組
  6
CONTINUOUS
 62
    3
 10
1082.4028
 20
2221.9145
 11
1087.0163
 21
2225.1949
  0
LINE
  8
_0-3_軸組
  6
CONTINUOUS
 62
    3
 10
1087.0163
 20
2225.1949
 11
1091.4482
 21
2228.7139
  0
LINE
  8
_0-3_軸組
  6
CONTINUOUS
 62
    3
 10
1091.4482
 20
2228.7139
 11
1095.6055
 21
2232.529
  0
LINE
  8
_0-3_軸組
  6
CONTINUOUS
 62
    3
 10
1095.6055
 20
2232.529
 11
1099.3972
 21
2236.7085
  0
LINE
  8
_0-3_軸組
  6
CONTINUOUS
 62
    3
 10
1099.3972
 20
2236.7085
 11
1102.733
 21
2241.3113
  0
LINE
  8
_0-3_軸組
  6
CONTINUOUS
 62
    3
 10
1102.733
 20
2241.3113
 11
1105.6424
 21
2246.2898
  0
LINE
  8
_0-3_軸組
  6
CONTINUOUS
 62
    3
 10
1105.6424
 20
2246.2898
 11
1108.3909
 21
2251.374
  0
LINE
  8
_0-3_軸組
  6
CONTINUOUS
 62
    3
 10
1108.3909
 20
2251.374
 11
1111.2585
 21
2256.2765
  0
LINE
  8
_0-3_軸組
  6
CONTINUOUS
 62
    3
 10
1111.2585
 20
2256.2765
 11
1114.5393
 21
2260.7104
  0
LINE
  8
_0-3_軸組
  6
CONTINUOUS
 62
    3
 10
1114.5393
 20
2260.7104
 11
1118.5105
 21
2264.3863
  0
LINE
  8
_0-3_軸組
  6
CONTINUOUS
 62
    3
 10
1118.5105
 20
2264.3863
 11
1123.2598
 21
2267.2292
  0
LINE
  8
_0-3_軸組
  6
CONTINUOUS
 62
    3
 10
1123.2598
 20
2267.2292
 11
1128.4981
 21
2269.5512
  0
LINE
  8
_0-3_軸組
  6
CONTINUOUS
 62
    3
 10
1128.4981
 20
2269.5512
 11
1130.978
 21
2270.5422
  0
LINE
  8
_0-3_軸組
  6
CONTINUOUS
 62
    3
 10
1128.4981
 20
2269.5512
 11
1131.9474
 21
2270.0995
  0
LINE
  8
_0-3_軸組
  6
CONTINUOUS
 62
    3
 10
1131.9474
 20
2270.0995
 11
1135.4279
 21
2270.5761
  0
LINE
  8
_0-3_軸組
  6
CONTINUOUS
 62
    3
 10
1135.4279
 20
2270.5761
 11
1138.9658
 21
2270.9175
  0
LINE
  8
_0-3_軸組
  6
CONTINUOUS
 62
    3
 10
1138.9658
 20
2270.9175
 11
1142.5906
 21
2271.0472
  0
LINE
  8
_0-3_軸組
  6
CONTINUOUS
 62
    3
 10
1142.5906
 20
2271.0472
 11
1146.3257
 21
2270.9009
  0
LINE
  8
_0-3_軸組
  6
CONTINUOUS
 62
    3
 10
1146.3257
 20
2270.9009
 11
1150.063
 21
2270.3563
  0
LINE
  8
_0-3_軸組
  6
CONTINUOUS
 62
    3
 10
1150.063
 20
2270.3563
 11
1153.5494
 21
2269.2639
  0
LINE
  8
_0-3_軸組
  6
CONTINUOUS
 62
    3
 10
1153.5494
 20
2269.2639
 11
1156.5212
 21
2267.4539
  0
LINE
  8
_0-3_軸組
  6
CONTINUOUS
 62
    3
 10
1156.5212
 20
2267.4539
 11
1158.7642
 21
2264.8087
  0
LINE
  8
_0-3_軸組
  6
CONTINUOUS
 62
    3
 10
1158.7642
 20
2264.8087
 11
1160.5131
 21
2261.6326
  0
LINE
  8
_0-3_軸組
  6
CONTINUOUS
 62
    3
 10
1066.2814
 20
2199.7494
 11
1071.8809
 21
2200.5805
  0
LINE
  8
_0-3_軸組
  6
CONTINUOUS
 62
    3
 10
1071.8809
 20
2200.5805
 11
1077.4463
 21
2201.5213
  0
LINE
  8
_0-3_軸組
  6
CONTINUOUS
 62
    3
 10
1077.4463
 20
2201.5213
 11
1082.9504
 21
2202.6709
  0
LINE
  8
_0-3_軸組
  6
CONTINUOUS
 62
    3
 10
1082.9504
 20
2202.6709
 11
1088.3555
 21
2204.1417
  0
LINE
  8
_0-3_軸組
  6
CONTINUOUS
 62
    3
 10
1088.3555
 20
2204.1417
 11
1093.6339
 21
2206.0353
  0
LINE
  8
_0-3_軸組
  6
CONTINUOUS
 62
    3
 10
1093.6339
 20
2206.0353
 11
1098.7556
 21
2208.3781
  0
LINE
  8
_0-3_軸組
  6
CONTINUOUS
 62
    3
 10
1098.7556
 20
2208.3781
 11
1103.699
 21
2211.1232
  0
LINE
  8
_0-3_軸組
  6
CONTINUOUS
 62
    3
 10
1103.699
 20
2211.1232
 11
1108.4372
 21
2214.2407
  0
LINE
  8
_0-3_軸組
  6
CONTINUOUS
 62
    3
 10
1108.4372
 20
2214.2407
 11
1112.947
 21
2217.6744
  0
LINE
  8
_0-3_軸組
  6
CONTINUOUS
 62
    3
 10
1112.947
 20
2217.6744
 11
1117.2077
 21
2221.391
  0
LINE
  8
_0-3_軸組
  6
CONTINUOUS
 62
    3
 10
1117.2077
 20
2221.391
 11
1121.2511
 21
2225.3233
  0
LINE
  8
_0-3_軸組
  6
CONTINUOUS
 62
    3
 10
1121.2511
 20
2225.3233
 11
1125.1597
 21
2229.3815
  0
LINE
  8
_0-3_軸組
  6
CONTINUOUS
 62
    3
 10
1125.1597
 20
2229.3815
 11
1129.0182
 21
2233.4777
  0
LINE
  8
_0-3_軸組
  6
CONTINUOUS
 62
    3
 10
1129.0182
 20
2233.4777
 11
1132.9092
 21
2237.5183
  0
LINE
  8
_0-3_軸組
  6
CONTINUOUS
 62
    3
 10
1132.9092
 20
2237.5183
 11
1136.9212
 21
2241.4177
  0
LINE
  8
_0-3_軸組
  6
CONTINUOUS
 62
    3
 10
1136.9212
 20
2241.4177
 11
1141.1312
 21
2245.0972
  0
LINE
  8
_0-3_軸組
  6
CONTINUOUS
 62
    3
 10
1141.1312
 20
2245.0972
 11
1145.5334
 21
2248.5544
  0
LINE
  8
_0-3_軸組
  6
CONTINUOUS
 62
    3
 10
1145.5334
 20
2248.5544
 11
1150.0922
 21
2251.8419
  0
LINE
  8
_0-3_軸組
  6
CONTINUOUS
 62
    3
 10
1150.0922
 20
2251.8419
 11
1154.7599
 21
2255.0012
  0
LINE
  8
_0-3_軸組
  6
CONTINUOUS
 62
    3
 10
1154.7599
 20
2255.0012
 11
1159.5009
 21
2258.0816
  0
LINE
  8
_0-3_軸組
  6
CONTINUOUS
 62
    3
 10
1159.5009
 20
2258.0816
 11
1162.8576
 21
2260.2269
  0
LINE
  8
_0-3_軸組
  6
CONTINUOUS
 62
    3
 10
1162.8576
 20
2260.2269
 11
1168.0952
 21
2262.3994
  0
LINE
  8
_0-3_軸組
  6
CONTINUOUS
 62
    3
 10
1168.0952
 20
2262.3994
 11
1173.3624
 21
2264.4274
  0
LINE
  8
_0-3_軸組
  6
CONTINUOUS
 62
    3
 10
1173.3624
 20
2264.4274
 11
1178.6923
 21
2266.1689
  0
LINE
  8
_0-3_軸組
  6
CONTINUOUS
 62
    3
 10
1178.6923
 20
2266.1689
 11
1184.1154
 21
2267.4811
  0
LINE
  8
_0-3_軸組
  6
CONTINUOUS
 62
    3
 10
1184.1154
 20
2267.4811
 11
1189.645
 21
2268.2848
  0
LINE
  8
_0-3_軸組
  6
CONTINUOUS
 62
    3
 10
1189.645
 20
2268.2848
 11
1195.2539
 21
2268.6376
  0
LINE
  8
_0-3_軸組
  6
CONTINUOUS
 62
    3
 10
1195.2539
 20
2268.6376
 11
1200.9099
 21
2268.6171
  0
LINE
  8
_0-3_軸組
  6
CONTINUOUS
 62
    3
 10
1200.9099
 20
2268.6171
 11
1206.5825
 21
2268.2986
  0
LINE
  8
_0-3_軸組
  6
CONTINUOUS
 62
    3
 10
1206.5825
 20
2268.2986
 11
1212.2451
 21
2267.7614
  0
LINE
  8
_0-3_軸組
  6
CONTINUOUS
 62
    3
 10
1212.2451
 20
2267.7614
 11
1217.864
 21
2267.0706
  0
LINE
  8
_0-3_軸組
  6
CONTINUOUS
 62
    3
 10
1217.864
 20
2267.0706
 11
1223.4341
 21
2266.2107
  0
LINE
  8
_0-3_軸組
  6
CONTINUOUS
 62
    3
 10
1223.4341
 20
2266.2107
 11
1228.9557
 21
2265.1648
  0
LINE
  8
_0-3_軸組
  6
CONTINUOUS
 62
    3
 10
1228.9557
 20
2265.1648
 11
1234.4222
 21
2263.8954
  0
LINE
  8
_0-3_軸組
  6
CONTINUOUS
 62
    3
 10
1234.4222
 20
2263.8954
 11
1239.8366
 21
2262.3818
  0
LINE
  8
_0-3_軸組
  6
CONTINUOUS
 62
    3
 10
1239.8366
 20
2262.3818
 11
1245.1959
 21
2260.5896
  0
LINE
  8
_0-3_軸組
  6
CONTINUOUS
 62
    3
 10
1245.1959
 20
2260.5896
 11
1250.4795
 21
2258.4933
  0
LINE
  8
_0-3_軸組
  6
CONTINUOUS
 62
    3
 10
1250.4795
 20
2258.4933
 11
1255.6374
 21
2256.0701
  0
LINE
  8
_0-3_軸組
  6
CONTINUOUS
 62
    3
 10
1255.6374
 20
2256.0701
 11
1260.5944
 21
2253.3048
  0
LINE
  8
_0-3_軸組
  6
CONTINUOUS
 62
    3
 10
1260.5944
 20
2253.3048
 11
1265.2866
 21
2250.1717
  0
LINE
  8
_0-3_軸組
  6
CONTINUOUS
 62
    3
 10
1265.2866
 20
2250.1717
 11
1269.6452
 21
2246.6474
  0
LINE
  8
_0-3_軸組
  6
CONTINUOUS
 62
    3
 10
1269.6452
 20
2246.6474
 11
1273.6105
 21
2242.7215
  0
LINE
  8
_0-3_軸組
  6
CONTINUOUS
 62
    3
 10
1273.6105
 20
2242.7215
 11
1277.2332
 21
2238.4524
  0
LINE
  8
_0-3_軸組
  6
CONTINUOUS
 62
    3
 10
1277.2332
 20
2238.4524
 11
1280.6033
 21
2233.9344
  0
LINE
  8
_0-3_軸組
  6
CONTINUOUS
 62
    3
 10
1280.6033
 20
2233.9344
 11
1283.8171
 21
2229.263
  0
LINE
  8
_0-3_軸組
  6
CONTINUOUS
 62
    3
 10
1283.8171
 20
2229.263
 11
1285.6848
 21
2226.4729
  0
LINE
  8
_0-3_軸組
  6
CONTINUOUS
 62
    3
 10
1283.8171
 20
2229.263
 11
1286.3298
 21
2224.0598
  0
LINE
  8
_0-3_軸組
  6
CONTINUOUS
 62
    3
 10
1286.3298
 20
2224.0598
 11
1288.709
 21
2218.8329
  0
LINE
  8
_0-3_軸組
  6
CONTINUOUS
 62
    3
 10
1288.709
 20
2218.8329
 11
1290.8256
 21
2213.5699
  0
LINE
  8
_0-3_軸組
  6
CONTINUOUS
 62
    3
 10
1290.8256
 20
2213.5699
 11
1292.5448
 21
2208.241
  0
LINE
  8
_0-3_軸組
  6
CONTINUOUS
 62
    3
 10
1292.5448
 20
2208.241
 11
1293.7355
 21
2202.8327
  0
LINE
  8
_0-3_軸組
  6
CONTINUOUS
 62
    3
 10
1293.7355
 20
2202.8327
 11
1294.2714
 21
2197.3222
  0
LINE
  8
_0-3_軸組
  6
CONTINUOUS
 62
    3
 10
1294.2714
 20
2197.3222
 11
1294.1175
 21
2191.7336
  0
LINE
  8
_0-3_軸組
  6
CONTINUOUS
 62
    3
 10
1294.1175
 20
2191.7336
 11
1293.3683
 21
2186.1196
  0
LINE
  8
_0-3_軸組
  6
CONTINUOUS
 62
    3
 10
1293.3683
 20
2186.1196
 11
1292.1202
 21
2180.5461
  0
LINE
  8
_0-3_軸組
  6
CONTINUOUS
 62
    3
 10
1292.1202
 20
2180.5461
 11
1290.4584
 21
2175.0769
  0
LINE
  8
_0-3_軸組
  6
CONTINUOUS
 62
    3
 10
1290.4584
 20
2175.0769
 11
1288.4116
 21
2169.7871
  0
LINE
  8
_0-3_軸組
  6
CONTINUOUS
 62
    3
 10
1288.4116
 20
2169.7871
 11
1285.9233
 21
2164.7515
  0
LINE
  8
_0-3_軸組
  6
CONTINUOUS
 62
    3
 10
1285.9233
 20
2164.7515
 11
1282.934
 21
2160.0486
  0
LINE
  8
_0-3_軸組
  6
CONTINUOUS
 62
    3
 10
1282.934
 20
2160.0486
 11
1279.4508
 21
2155.7058
  0
LINE
  8
_0-3_軸組
  6
CONTINUOUS
 62
    3
 10
1279.4508
 20
2155.7058
 11
1275.5788
 21
2151.6426
  0
LINE
  8
_0-3_軸組
  6
CONTINUOUS
 62
    3
 10
1275.5788
 20
2151.6426
 11
1271.4399
 21
2147.7746
  0
LINE
  8
_0-3_軸組
  6
CONTINUOUS
 62
    3
 10
1271.4399
 20
2147.7746
 11
1267.15
 21
2144.019
  0
LINE
  8
_0-3_軸組
  6
CONTINUOUS
 62
    3
 10
1267.15
 20
2144.019
 11
1265.9935
 21
2143.0253
  0
LINE
  8
_0-3_軸組
  6
CONTINUOUS
 62
    3
 10
1267.15
 20
2144.019
 11
1262.2265
 21
2141.2593
  0
LINE
  8
_0-3_軸組
  6
CONTINUOUS
 62
    3
 10
1262.2265
 20
2141.2593
 11
1257.2846
 21
2138.5496
  0
LINE
  8
_0-3_軸組
  6
CONTINUOUS
 62
    3
 10
1257.2846
 20
2138.5496
 11
1252.3014
 21
2135.9391
  0
LINE
  8
_0-3_軸組
  6
CONTINUOUS
 62
    3
 10
1252.3014
 20
2135.9391
 11
1247.2497
 21
2133.4766
  0
LINE
  8
_0-3_軸組
  6
CONTINUOUS
 62
    3
 10
1247.2497
 20
2133.4766
 11
1242.1175
 21
2131.2108
  0
LINE
  8
_0-3_軸組
  6
CONTINUOUS
 62
    3
 10
1242.1175
 20
2131.2108
 11
1236.8758
 21
2129.1902
  0
LINE
  8
_0-3_軸組
  6
CONTINUOUS
 62
    3
 10
1236.8758
 20
2129.1902
 11
1231.5232
 21
2127.4437
  0
LINE
  8
_0-3_軸組
  6
CONTINUOUS
 62
    3
 10
1231.5232
 20
2127.4437
 11
1226.082
 21
2125.9782
  0
LINE
  8
_0-3_軸組
  6
CONTINUOUS
 62
    3
 10
1226.082
 20
2125.9782
 11
1220.573
 21
2124.7907
  0
LINE
  8
_0-3_軸組
  6
CONTINUOUS
 62
    3
 10
1220.573
 20
2124.7907
 11
1215.0135
 21
2123.8826
  0
LINE
  8
_0-3_軸組
  6
CONTINUOUS
 62
    3
 10
1215.0135
 20
2123.8826
 11
1209.4295
 21
2123.2472
  0
LINE
  8
_0-3_軸組
  6
CONTINUOUS
 62
    3
 10
1209.4295
 20
2123.2472
 11
1203.8275
 21
2122.8359
  0
LINE
  8
_0-3_軸組
  6
CONTINUOUS
 62
    3
 10
1203.8275
 20
2122.8359
 11
1198.2108
 21
2122.5959
  0
LINE
  8
_0-3_軸組
  6
CONTINUOUS
 62
    3
 10
1198.2108
 20
2122.5959
 11
1192.5816
 21
2122.4658
  0
LINE
  8
_0-3_軸組
  6
CONTINUOUS
 62
    3
 10
1192.5816
 20
2122.4658
 11
1187.7021
 21
2122.3975
  0
LINE
  8
_0-3_軸組
  6
CONTINUOUS
 62
    3
 10
1124.8036
 20
2121.8801
 11
1130.0681
 21
2119.7494
  0
LINE
  8
_0-3_軸組
  6
CONTINUOUS
 62
    3
 10
1130.0681
 20
2119.7494
 11
1135.3641
 21
2117.6427
  0
LINE
  8
_0-3_軸組
  6
CONTINUOUS
 62
    3
 10
1135.3641
 20
2117.6427
 11
1140.709
 21
2115.7012
  0
LINE
  8
_0-3_軸組
  6
CONTINUOUS
 62
    3
 10
1140.709
 20
2115.7012
 11
1146.1055
 21
2114.083
  0
LINE
  8
_0-3_軸組
  6
CONTINUOUS
 62
    3
 10
1146.1055
 20
2114.083
 11
1151.5679
 21
2112.9415
  0
LINE
  8
_0-3_軸組
  6
CONTINUOUS
 62
    3
 10
1151.5679
 20
2112.9415
 11
1157.1081
 21
2112.4301
  0
LINE
  8
_0-3_軸組
  6
CONTINUOUS
 62
    3
 10
1157.1081
 20
2112.4301
 11
1162.7129
 21
2112.51
  0
LINE
  8
_0-3_軸組
  6
CONTINUOUS
 62
    3
 10
1162.7129
 20
2112.51
 11
1168.3585
 21
2112.9265
  0
LINE
  8
_0-3_軸組
  6
CONTINUOUS
 62
    3
 10
1168.3585
 20
2112.9265
 11
1169.419
 21
2113.0202
  0
LINE
  8
_0-3_軸組
  6
CONTINUOUS
 62
    3
 10
1168.3585
 20
2112.9265
 11
1172.9744
 21
2113.9561
  0
LINE
  8
_0-3_軸組
  6
CONTINUOUS
 62
    3
 10
1172.9744
 20
2113.9561
 11
1177.4054
 21
2115.3806
  0
LINE
  8
_0-3_軸組
  6
CONTINUOUS
 62
    3
 10
1177.4054
 20
2115.3806
 11
1181.4705
 21
2117.5986
  0
LINE
  8
_0-3_軸組
  6
CONTINUOUS
 62
    3
 10
1181.4705
 20
2117.5986
 11
1184.9364
 21
2120.7812
  0
LINE
  8
_0-3_軸組
  6
CONTINUOUS
 62
    3
 10
1184.9364
 20
2120.7812
 11
1187.5063
 21
2124.7702
  0
LINE
  8
_0-3_軸組
  6
CONTINUOUS
 62
    3
 10
1187.5063
 20
2124.7702
 11
1188.9056
 21
2129.3317
  0
LINE
  8
_0-3_軸組
  6
CONTINUOUS
 62
    3
 10
1188.9056
 20
2129.3317
 11
1189.009
 21
2134.0489
  0
LINE
  8
_0-3_軸組
  6
CONTINUOUS
 62
    3
 10
1189.009
 20
2134.0489
 11
1187.7607
 21
2138.4689
  0
LINE
  8
_0-3_軸組
  6
CONTINUOUS
 62
    3
 10
1187.7607
 20
2138.4689
 11
1185.4276
 21
2142.4893
  0
LINE
  8
_0-3_軸組
  6
CONTINUOUS
 62
    3
 10
1185.4276
 20
2142.4893
 11
1182.5459
 21
2146.3063
  0
LINE
  8
_0-3_軸組
  6
CONTINUOUS
 62
    3
 10
1074.3818
 20
2192.4727
 11
1080.0556
 21
2191.5069
  0
LINE
  8
_0-3_軸組
  6
CONTINUOUS
 62
    3
 10
1080.0556
 20
2191.5069
 11
1085.7106
 21
2190.704
  0
LINE
  8
_0-3_軸組
  6
CONTINUOUS
 62
    3
 10
1085.7106
 20
2190.704
 11
1091.324
 21
2190.2274
  0
LINE
  8
_0-3_軸組
  6
CONTINUOUS
 62
    3
 10
1091.324
 20
2190.2274
 11
1096.8771
 21
2190.2358
  0
LINE
  8
_0-3_軸組
  6
CONTINUOUS
 62
    3
 10
1096.8771
 20
2190.2358
 11
1102.3482
 21
2190.8891
  0
LINE
  8
_0-3_軸組
  6
CONTINUOUS
 62
    3
 10
1102.3482
 20
2190.8891
 11
1107.7394
 21
2192.2163
  0
LINE
  8
_0-3_軸組
  6
CONTINUOUS
 62
    3
 10
1107.7394
 20
2192.2163
 11
1113.0616
 21
2194.038
  0
LINE
  8
_0-3_軸組
  6
CONTINUOUS
 62
    3
 10
1113.0616
 20
2194.038
 11
1118.341
 21
2196.1741
  0
LINE
  8
_0-3_軸組
  6
CONTINUOUS
 62
    3
 10
1118.341
 20
2196.1741
 11
1123.5874
 21
2198.4313
  0
LINE
  8
_0-3_軸組
  6
CONTINUOUS
 62
    3
 10
1123.5874
 20
2198.4313
 11
1128.828
 21
2200.6476
  0
LINE
  8
_0-3_軸組
  6
CONTINUOUS
 62
    3
 10
1128.828
 20
2200.6476
 11
1134.0631
 21
2202.7808
  0
LINE
  8
_0-3_軸組
  6
CONTINUOUS
 62
    3
 10
1134.0631
 20
2202.7808
 11
1139.2979
 21
2204.8503
  0
LINE
  8
_0-3_軸組
  6
CONTINUOUS
 62
    3
 10
1139.2979
 20
2204.8503
 11
1144.527
 21
2206.8685
  0
LINE
  8
_0-3_軸組
  6
CONTINUOUS
 62
    3
 10
1144.527
 20
2206.8685
 11
1149.7559
 21
2208.8495
  0
LINE
  8
_0-3_軸組
  6
CONTINUOUS
 62
    3
 10
1149.7559
 20
2208.8495
 11
1154.9863
 21
2210.8117
  0
LINE
  8
_0-3_軸組
  6
CONTINUOUS
 62
    3
 10
1154.9863
 20
2210.8117
 11
1154.9133
 21
2205.9948
  0
LINE
  8
_0-3_軸組
  6
CONTINUOUS
 62
    3
 10
1154.9133
 20
2205.9948
 11
1154.844
 21
2201.1833
  0
LINE
  8
_0-3_軸組
  6
CONTINUOUS
 62
    3
 10
1154.844
 20
2201.1833
 11
1154.7745
 21
2196.3659
  0
LINE
  8
_0-3_軸組
  6
CONTINUOUS
 62
    3
 10
1154.7745
 20
2196.3659
 11
1154.702
 21
2191.5534
  0
LINE
  8
_0-3_軸組
  6
CONTINUOUS
 62
    3
 10
1154.702
 20
2191.5534
 11
1154.6332
 21
2186.7415
  0
LINE
  8
_0-3_軸組
  6
CONTINUOUS
 62
    3
 10
1154.6332
 20
2186.7415
 11
1154.5637
 21
2181.9241
  0
LINE
  8
_0-3_軸組
  6
CONTINUOUS
 62
    3
 10
1154.5637
 20
2181.9241
 11
1154.4912
 21
2177.1126
  0
LINE
  8
_0-3_軸組
  6
CONTINUOUS
 62
    3
 10
1154.4912
 20
2177.1126
 11
1154.4222
 21
2172.2957
  0
LINE
  8
_0-3_軸組
  6
CONTINUOUS
 62
    3
 10
1154.4222
 20
2172.2957
 11
1154.3504
 21
2167.4827
  0
LINE
  8
_0-3_軸組
  6
CONTINUOUS
 62
    3
 10
1154.3504
 20
2167.4827
 11
1154.2804
 21
2162.6668
  0
LINE
  8
_0-3_軸組
  6
CONTINUOUS
 62
    3
 10
1182.5459
 20
2146.3063
 11
1181.3951
 21
2147.3206
  0
LINE
  8
_0-3_軸組
  6
CONTINUOUS
 62
    3
 10
1181.3951
 20
2147.3206
 11
1179.7407
 21
2148.5479
  0
LINE
  8
_0-3_軸組
  6
CONTINUOUS
 62
    3
 10
1179.7407
 20
2148.5479
 11
1177.6486
 21
2149.9516
  0
LINE
  8
_0-3_軸組
  6
CONTINUOUS
 62
    3
 10
1177.6486
 20
2149.9516
 11
1175.1752
 21
2151.4981
  0
LINE
  8
_0-3_軸組
  6
CONTINUOUS
 62
    3
 10
1175.1752
 20
2151.4981
 11
1172.3556
 21
2153.1567
  0
LINE
  8
_0-3_軸組
  6
CONTINUOUS
 62
    3
 10
1172.3556
 20
2153.1567
 11
1169.2401
 21
2154.9056
  0
LINE
  8
_0-3_軸組
  6
CONTINUOUS
 62
    3
 10
1169.2401
 20
2154.9056
 11
1165.8581
 21
2156.7235
  0
LINE
  8
_0-3_軸組
  6
CONTINUOUS
 62
    3
 10
1165.8581
 20
2156.7235
 11
1162.2356
 21
2158.5907
  0
LINE
  8
_0-3_軸組
  6
CONTINUOUS
 62
    3
 10
1162.2356
 20
2158.5907
 11
1158.4052
 21
2160.493
  0
LINE
  8
_0-3_軸組
  6
CONTINUOUS
 62
    3
 10
1158.4052
 20
2160.493
 11
1154.3878
 21
2162.4159
  0
LINE
  8
_0-3_軸組
  6
CONTINUOUS
 62
    3
 10
1154.3878
 20
2162.4159
 11
1150.1981
 21
2164.3464
  0
LINE
  8
_0-3_軸組
  6
CONTINUOUS
 62
    3
 10
1150.1981
 20
2164.3464
 11
1145.8622
 21
2166.2797
  0
LINE
  8
_0-3_軸組
  6
CONTINUOUS
 62
    3
 10
1145.8622
 20
2166.2797
 11
1141.393
 21
2168.203
  0
LINE
  8
_0-3_軸組
  6
CONTINUOUS
 62
    3
 10
1141.393
 20
2168.203
 11
1136.8119
 21
2170.1108
  0
LINE
  8
_0-3_軸組
  6
CONTINUOUS
 62
    3
 10
1136.8119
 20
2170.1108
 11
1132.1315
 21
2171.9988
  0
LINE
  8
_0-3_軸組
  6
CONTINUOUS
 62
    3
 10
1132.1315
 20
2171.9988
 11
1127.3705
 21
2173.8578
  0
LINE
  8
_0-3_軸組
  6
CONTINUOUS
 62
    3
 10
1127.3705
 20
2173.8578
 11
1122.5465
 21
2175.6859
  0
LINE
  8
_0-3_軸組
  6
CONTINUOUS
 62
    3
 10
1122.5465
 20
2175.6859
 11
1117.6783
 21
2177.4798
  0
LINE
  8
_0-3_軸組
  6
CONTINUOUS
 62
    3
 10
1117.6783
 20
2177.4798
 11
1112.7869
 21
2179.2374
  0
LINE
  8
_0-3_軸組
  6
CONTINUOUS
 62
    3
 10
1112.7869
 20
2179.2374
 11
1107.8906
 21
2180.9482
  0
LINE
  8
_0-3_軸組
  6
CONTINUOUS
 62
    3
 10
1107.8906
 20
2180.9482
 11
1103.0086
 21
2182.6124
  0
LINE
  8
_0-3_軸組
  6
CONTINUOUS
 62
    3
 10
1103.0086
 20
2182.6124
 11
1098.1655
 21
2184.2297
  0
LINE
  8
_0-3_軸組
  6
CONTINUOUS
 62
    3
 10
1098.1655
 20
2184.2297
 11
1093.3877
 21
2185.7896
  0
LINE
  8
_0-3_軸組
  6
CONTINUOUS
 62
    3
 10
1093.3877
 20
2185.7896
 11
1088.6927
 21
2187.2928
  0
LINE
  8
_0-3_軸組
  6
CONTINUOUS
 62
    3
 10
1088.6927
 20
2187.2928
 11
1084.1116
 21
2188.7329
  0
LINE
  8
_0-3_軸組
  6
CONTINUOUS
 62
    3
 10
1084.1116
 20
2188.7329
 11
1079.6681
 21
2190.1027
  0
LINE
  8
_0-3_軸組
  6
CONTINUOUS
 62
    3
 10
1079.6681
 20
2190.1027
 11
1075.3869
 21
2191.3968
  0
LINE
  8
_0-3_軸組
  6
CONTINUOUS
 62
    3
 10
1075.3869
 20
2191.3968
 11
1071.2915
 21
2192.6127
  0
LINE
  8
_0-3_軸組
  6
CONTINUOUS
 62
    3
 10
1071.2915
 20
2192.6127
 11
1067.407
 21
2193.7393
  0
LINE
  8
_0-3_軸組
  6
CONTINUOUS
 62
    3
 10
1154.9863
 20
2210.8117
 11
1155.0531
 21
2210.8344
  0
LINE
  8
_0-3_軸組
  6
CONTINUOUS
 62
    3
 10
1078.4356
 20
2117.1765
 11
1078.4356
 21
2106.1221
  0
LINE
  8
_0-3_軸組
  6
CONTINUOUS
 62
    3
 10
1078.4356
 20
2106.1221
 11
1112.0275
 21
2106.1221
  0
LINE
  8
_0-3_軸組
  6
CONTINUOUS
 62
    3
 10
1112.0275
 20
2117.1765
 11
1112.0275
 21
2106.1221
  0
LINE
  8
_0-3_軸組
  6
CONTINUOUS
 62
    3
 10
1078.4356
 20
2117.1765
 11
1112.0275
 21
2117.1765
  0
LINE
  8
_0-3_軸組
  6
CONTINUOUS
 62
    3
 10
1062.8712
 20
2223.7498
 11
1062.8712
 21
2187.4808
  0
LINE
  8
_0-3_軸組
  6
CONTINUOUS
 62
    3
 10
1068.1575
 20
2212.8756
 11
1067.6086
 21
2212.565
  0
LINE
  8
_0-3_軸組
  6
CONTINUOUS
 62
    3
 10
1067.6086
 20
2212.565
 11
1067.0469
 21
2212.2389
  0
LINE
  8
_0-3_軸組
  6
CONTINUOUS
 62
    3
 10
1067.0469
 20
2212.2389
 11
1066.4786
 21
2211.8977
  0
LINE
  8
_0-3_軸組
  6
CONTINUOUS
 62
    3
 10
1066.4786
 20
2211.8977
 11
1065.8976
 21
2211.5399
  0
LINE
  8
_0-3_軸組
  6
CONTINUOUS
 62
    3
 10
1065.8976
 20
2211.5399
 11
1065.3055
 21
2211.1705
  0
LINE
  8
_0-3_軸組
  6
CONTINUOUS
 62
    3
 10
1065.3055
 20
2211.1705
 11
1064.7032
 21
2210.7822
  0
LINE
  8
_0-3_軸組
  6
CONTINUOUS
 62
    3
 10
1064.7032
 20
2210.7822
 11
1064.0905
 21
2210.3809
  0
LINE
  8
_0-3_軸組
  6
CONTINUOUS
 62
    3
 10
1064.0905
 20
2210.3809
 11
1063.466
 21
2209.9617
  0
LINE
  8
_0-3_軸組
  6
CONTINUOUS
 62
    3
 10
1063.466
 20
2209.9617
 11
1062.8328
 21
2209.5302
  0
LINE
  8
_0-3_軸組
  6
CONTINUOUS
 62
    3
 10
1066.2814
 20
2199.7494
 11
1065.8746
 21
2199.6712
  0
LINE
  8
_0-3_軸組
  6
CONTINUOUS
 62
    3
 10
1065.8746
 20
2199.6712
 11
1065.4732
 21
2199.5987
  0
LINE
  8
_0-3_軸組
  6
CONTINUOUS
 62
    3
 10
1065.4732
 20
2199.5987
 11
1065.0791
 21
2199.5269
  0
LINE
  8
_0-3_軸組
  6
CONTINUOUS
 62
    3
 10
1065.0791
 20
2199.5269
 11
1064.6888
 21
2199.4564
  0
LINE
  8
_0-3_軸組
  6
CONTINUOUS
 62
    3
 10
1064.6888
 20
2199.4564
 11
1064.307
 21
2199.3896
  0
LINE
  8
_0-3_軸組
  6
CONTINUOUS
 62
    3
 10
1064.307
 20
2199.3896
 11
1063.929
 21
2199.327
  0
LINE
  8
_0-3_軸組
  6
CONTINUOUS
 62
    3
 10
1063.929
 20
2199.327
 11
1063.5578
 21
2199.2686
  0
LINE
  8
_0-3_軸組
  6
CONTINUOUS
 62
    3
 10
1063.5578
 20
2199.2686
 11
1063.1911
 21
2199.2112
  0
LINE
  8
_0-3_軸組
  6
CONTINUOUS
 62
    3
 10
1063.1911
 20
2199.2112
 11
1062.8328
 21
2199.1555
  0
LINE
  8
_0-3_軸組
  6
CONTINUOUS
 62
    3
 10
1074.3818
 20
2192.4727
 11
1072.8356
 21
2192.8008
  0
LINE
  8
_0-3_軸組
  6
CONTINUOUS
 62
    3
 10
1072.8356
 20
2192.8008
 11
1071.3517
 21
2193.1177
  0
LINE
  8
_0-3_軸組
  6
CONTINUOUS
 62
    3
 10
1071.3517
 20
2193.1177
 11
1069.9358
 21
2193.4243
  0
LINE
  8
_0-3_軸組
  6
CONTINUOUS
 62
    3
 10
1069.9358
 20
2193.4243
 11
1068.5863
 21
2193.7217
  0
LINE
  8
_0-3_軸組
  6
CONTINUOUS
 62
    3
 10
1068.5863
 20
2193.7217
 11
1067.3021
 21
2194.0078
  0
LINE
  8
_0-3_軸組
  6
CONTINUOUS
 62
    3
 10
1067.3021
 20
2194.0078
 11
1066.0856
 21
2194.2857
  0
LINE
  8
_0-3_軸組
  6
CONTINUOUS
 62
    3
 10
1066.0856
 20
2194.2857
 11
1064.9348
 21
2194.5519
  0
LINE
  8
_0-3_軸組
  6
CONTINUOUS
 62
    3
 10
1064.9348
 20
2194.5519
 11
1063.8505
 21
2194.8092
  0
LINE
  8
_0-3_軸組
  6
CONTINUOUS
 62
    3
 10
1063.8505
 20
2194.8092
 11
1062.8328
 21
2195.054
  0
LINE
  8
_0-3_軸組
  6
CONTINUOUS
 62
    3
 10
1067.407
 20
2193.7393
 11
1066.802
 21
2193.9036
  0
LINE
  8
_0-3_軸組
  6
CONTINUOUS
 62
    3
 10
1066.802
 20
2193.9036
 11
1066.2212
 21
2194.0627
  0
LINE
  8
_0-3_軸組
  6
CONTINUOUS
 62
    3
 10
1066.2212
 20
2194.0627
 11
1065.6657
 21
2194.2186
  0
LINE
  8
_0-3_軸組
  6
CONTINUOUS
 62
    3
 10
1065.6657
 20
2194.2186
 11
1065.1362
 21
2194.3693
  0
LINE
  8
_0-3_軸組
  6
CONTINUOUS
 62
    3
 10
1065.1362
 20
2194.3693
 11
1064.6339
 21
2194.514
  0
LINE
  8
_0-3_軸組
  6
CONTINUOUS
 62
    3
 10
1064.6339
 20
2194.514
 11
1064.1541
 21
2194.6519
  0
LINE
  8
_0-3_軸組
  6
CONTINUOUS
 62
    3
 10
1064.1541
 20
2194.6519
 11
1063.7006
 21
2194.7872
  0
LINE
  8
_0-3_軸組
  6
CONTINUOUS
 62
    3
 10
1063.7006
 20
2194.7872
 11
1063.2732
 21
2194.9184
  0
LINE
  8
_0-3_軸組
  6
CONTINUOUS
 62
    3
 10
1063.2732
 20
2194.9184
 11
1062.8712
 21
2195.0463
  0
LINE
  8
_0-3_軸組
  6
CONTINUOUS
 62
    3
 10
1057.9164
 20
2228.7075
 11
1050.0006
 21
2228.7075
  0
LINE
  8
_0-3_軸組
  6
CONTINUOUS
 62
    3
 10
1057.9164
 20
2152.5542
 11
1050.0006
 21
2152.5542
  0
LINE
  8
_0-3_軸組
  6
CONTINUOUS
 62
    3
 10
1054.1353
 20
2178.3745
 11
1057.0063
 21
2175.1336
  0
LINE
  8
_0-3_軸組
  6
CONTINUOUS
 62
    3
 10
1057.0063
 20
2175.1336
 11
1060.1619
 21
2171.7669
  0
LINE
  8
_0-3_軸組
  6
CONTINUOUS
 62
    3
 10
1060.1619
 20
2171.7669
 11
1063.5558
 21
2168.3134
  0
LINE
  8
_0-3_軸組
  6
CONTINUOUS
 62
    3
 10
1063.5558
 20
2168.3134
 11
1067.1449
 21
2164.8091
  0
LINE
  8
_0-3_軸組
  6
CONTINUOUS
 62
    3
 10
1067.1449
 20
2164.8091
 11
1070.8875
 21
2161.2876
  0
LINE
  8
_0-3_軸組
  6
CONTINUOUS
 62
    3
 10
1070.8875
 20
2161.2876
 11
1074.7463
 21
2157.7796
  0
LINE
  8
_0-3_軸組
  6
CONTINUOUS
 62
    3
 10
1074.7463
 20
2157.7796
 11
1078.6853
 21
2154.3127
  0
LINE
  8
_0-3_軸組
  6
CONTINUOUS
 62
    3
 10
1078.6853
 20
2154.3127
 11
1082.6713
 21
2150.9127
  0
LINE
  8
_0-3_軸組
  6
CONTINUOUS
 62
    3
 10
1082.6713
 20
2150.9127
 11
1086.6741
 21
2147.6024
  0
LINE
  8
_0-3_軸組
  6
CONTINUOUS
 62
    3
 10
1086.6741
 20
2147.6024
 11
1090.6666
 21
2144.4023
  0
LINE
  8
_0-3_軸組
  6
CONTINUOUS
 62
    3
 10
1090.6666
 20
2144.4023
 11
1094.6229
 21
2141.3303
  0
LINE
  8
_0-3_軸組
  6
CONTINUOUS
 62
    3
 10
1094.6229
 20
2141.3303
 11
1098.521
 21
2138.4006
  0
LINE
  8
_0-3_軸組
  6
CONTINUOUS
 62
    3
 10
1098.521
 20
2138.4006
 11
1102.3408
 21
2135.6268
  0
LINE
  8
_0-3_軸組
  6
CONTINUOUS
 62
    3
 10
1102.3408
 20
2135.6268
 11
1106.0652
 21
2133.0176
  0
LINE
  8
_0-3_軸組
  6
CONTINUOUS
 62
    3
 10
1106.0652
 20
2133.0176
 11
1109.6803
 21
2130.58
  0
LINE
  8
_0-3_軸組
  6
CONTINUOUS
 62
    3
 10
1109.6803
 20
2130.58
 11
1113.1734
 21
2128.3197
  0
LINE
  8
_0-3_軸組
  6
CONTINUOUS
 62
    3
 10
1113.1734
 20
2128.3197
 11
1116.5359
 21
2126.2377
  0
LINE
  8
_0-3_軸組
  6
CONTINUOUS
 62
    3
 10
1116.5359
 20
2126.2377
 11
1119.7605
 21
2124.3339
  0
LINE
  8
_0-3_軸組
  6
CONTINUOUS
 62
    3
 10
1119.7605
 20
2124.3339
 11
1122.8436
 21
2122.6041
  0
LINE
  8
_0-3_軸組
  6
CONTINUOUS
 62
    3
 10
1122.8436
 20
2122.6041
 11
1123.0705
 21
2122.5048
  0
LINE
  8
_0-3_軸組
  6
CONTINUOUS
 62
    3
 10
1123.0705
 20
2122.5048
 11
1123.2952
 21
2122.4103
  0
LINE
  8
_0-3_軸組
  6
CONTINUOUS
 62
    3
 10
1123.2952
 20
2122.4103
 11
1123.5179
 21
2122.3203
  0
LINE
  8
_0-3_軸組
  6
CONTINUOUS
 62
    3
 10
1123.5179
 20
2122.3203
 11
1123.7376
 21
2122.2354
  0
LINE
  8
_0-3_軸組
  6
CONTINUOUS
 62
    3
 10
1123.7376
 20
2122.2354
 11
1123.9554
 21
2122.1552
  0
LINE
  8
_0-3_軸組
  6
CONTINUOUS
 62
    3
 10
1123.9554
 20
2122.1552
 11
1124.1709
 21
2122.0793
  0
LINE
  8
_0-3_軸組
  6
CONTINUOUS
 62
    3
 10
1124.1709
 20
2122.0793
 11
1124.3844
 21
2122.0077
  0
LINE
  8
_0-3_軸組
  6
CONTINUOUS
 62
    3
 10
1124.3844
 20
2122.0077
 11
1124.595
 21
2121.9424
  0
LINE
  8
_0-3_軸組
  6
CONTINUOUS
 62
    3
 10
1124.595
 20
2121.9424
 11
1124.8036
 21
2121.8801
  0
LINE
  8
_0-3_軸組
  6
CONTINUOUS
 62
    3
 10
1054.1353
 20
2178.3745
 11
1055.833
 21
2179.2176
  0
LINE
  8
_0-3_軸組
  6
CONTINUOUS
 62
    3
 10
1055.833
 20
2179.2176
 11
1057.348
 21
2180.1024
  0
LINE
  8
_0-3_軸組
  6
CONTINUOUS
 62
    3
 10
1057.348
 20
2180.1024
 11
1058.682
 21
2181.0301
  0
LINE
  8
_0-3_軸組
  6
CONTINUOUS
 62
    3
 10
1058.682
 20
2181.0301
 11
1059.8343
 21
2181.9995
  0
LINE
  8
_0-3_軸組
  6
CONTINUOUS
 62
    3
 10
1059.8343
 20
2181.9995
 11
1060.805
 21
2183.0118
  0
LINE
  8
_0-3_軸組
  6
CONTINUOUS
 62
    3
 10
1060.805
 20
2183.0118
 11
1061.5941
 21
2184.0657
  0
LINE
  8
_0-3_軸組
  6
CONTINUOUS
 62
    3
 10
1061.5941
 20
2184.0657
 11
1062.2013
 21
2185.1621
  0
LINE
  8
_0-3_軸組
  6
CONTINUOUS
 62
    3
 10
1062.2013
 20
2185.1621
 11
1062.6272
 21
2186.3
  0
LINE
  8
_0-3_軸組
  6
CONTINUOUS
 62
    3
 10
1062.6272
 20
2186.3
 11
1062.8712
 21
2187.4808
  0
LINE
  8
_0-3_軸組
  6
CONTINUOUS
 62
    3
 10
1062.8726
 20
2157.5116
 11
1062.8726
 21
2169.0084
  0
LINE
  8
_0-3_軸組
  6
CONTINUOUS
 62
    3
 10
1127.2416
 20
2200.292
 11
1117.4819
 21
2221.8037
  0
LINE
  8
_0-3_軸組
  6
CONTINUOUS
 62
    3
 10
1089.6654
 20
2083.4455
 11
1050.0006
 21
2083.4455
  0
LINE
  8
_0-3_軸組
  6
CONTINUOUS
 62
    3
 10
1096.2958
 20
2090.0759
 11
1096.2958
 21
2106.1221
  0
LINE
  8
_0-3_軸組
  6
CONTINUOUS
 62
    3
 10
1086.3505
 20
2077.4834
 11
1050.0006
 21
2077.4834
  0
LINE
  8
_0-3_軸組
  6
CONTINUOUS
 62
    3
 10
1089.6654
 20
2080.7991
 11
1089.6654
 21
2083.4455
  0
LINE
  8
_0-3_軸組
  6
CONTINUOUS
 62
    3
 10
1096.2958
 20
2138.5164
 11
1096.2958
 21
2117.1765
  0
LINE
  8
_0-3_軸組
  6
CONTINUOUS
 62
    3
 10
1088.1103
 20
2146.702
 11
1050.0006
 21
2146.702
  0
LINE
  8
_0-2_躯体
  6
CONTINUOUS
 62
    3
 10
1049.9998
 20
2274.9295
 11
1305.2276
 21
2274.9295
  0
LINE
  8
_0-2_躯体
  6
CONTINUOUS
 62
    3
 10
1305.2246
 20
2227.2657
 11
1449.7507
 21
2227.2657
  0
LINE
  8
_0-2_躯体
  6
CONTINUOUS
 62
    3
 10
1305.2246
 20
2211.2761
 11
1449.7507
 21
2211.2761
  0
LINE
  8
_0-2_躯体
  6
CONTINUOUS
 62
    3
 10
1305.2246
 20
2183.9093
 11
1449.7507
 21
2183.9093
  0
LINE
  8
_0-2_躯体
  6
CONTINUOUS
 62
    3
 10
1305.2246
 20
2167.9197
 11
1449.7507
 21
2167.9197
  0
LINE
  8
_0-2_躯体
  6
CONTINUOUS
 62
    3
 10
650.2497
 20
2227.2657
 11
1049.9998
 21
2227.2657
  0
LINE
  8
_0-2_躯体
  6
CONTINUOUS
 62
    3
 10
650.2497
 20
2211.2761
 11
1049.9998
 21
2211.2761
  0
LINE
  8
_0-2_躯体
  6
CONTINUOUS
 62
    3
 10
650.2497
 20
2183.9093
 11
1049.9998
 21
2183.9093
  0
LINE
  8
_0-2_躯体
  6
CONTINUOUS
 62
    3
 10
650.2497
 20
2167.9197
 11
1049.9998
 21
2167.9197
  0
LINE
  8
_0-2_躯体
  6
CONTINUOUS
 62
    3
 10
1305.2246
 20
2112.5696
 11
1305.2246
 21
2074.6589
  0
LINE
  8
_0-2_躯体
  6
CONTINUOUS
 62
    3
 10
1305.2246
 20
2274.9295
 11
1305.2246
 21
2128.5592
  0
LINE
  8
_0-2_躯体
  6
CONTINUOUS
 62
    3
 10
1234.942
 20
2128.5592
 11
1305.2261
 21
2128.5592
  0
LINE
  8
_0-2_躯体
  6
CONTINUOUS
 62
    3
 10
794.7746
 20
2128.5592
 11
1049.9998
 21
2128.5592
  0
LINE
  8
_0-2_躯体
  6
CONTINUOUS
 62
    3
 10
794.7746
 20
2112.5696
 11
1049.9998
 21
2112.5696
  0
LINE
  8
_0-2_躯体
  6
CONTINUOUS
 62
    3
 10
1112.0275
 20
2112.5696
 11
1305.2261
 21
2112.5696
  0
LINE
  8
_0-2_躯体
  6
CONTINUOUS
 62
    3
 10
631.74318
 20
2358.6478
 11
1049.9998
 21
2452.9197
  0
LINE
  8
_0-2_躯体
  6
CONTINUOUS
 62
    3
 10
1467.3808
 20
2358.8497
 11
1049.9998
 21
2452.9197
  0
LINE
  8
_0-2_躯体
  6
CONTINUOUS
 62
    3
 10
1049.9998
 20
2405.9689
 11
1250.0933
 21
2405.9689
  0
LINE
  8
_0-2_躯体
  6
CONTINUOUS
 62
    3
 10
650.2497
 20
2362.9189
 11
1049.5616
 21
2362.9189
  0
LINE
  8
_0-2_躯体
  6
CONTINUOUS
 62
    3
 10
1049.9998
 20
2290.9193
 11
1305.2261
 21
2290.9193
  0
LINE
  8
_0-8_寸法
  6
CONTINUOUS
 62
    7
 10
730.28337
 20
2452.9197
 11
459.60041
 21
2452.9197
  0
LINE
  8
_0-1_基準線
  6
CENTER2
 62
    7
 10
1049.9998
 20
2452.9197
 11
1049.9998
 21
1942.9197
  0
LINE
  8
_0-2_躯体
  6
CONTINUOUS
 62
    3
 10
1305.2246
 20
2112.5696
 11
1305.2246
 21
2002.9197
  0
LINE
  8
_0-2_躯体
  6
CONTINUOUS
 62
    3
 10
1409.9998
 20
2002.9197
 11
1303.466
 21
2071.9446
  0
LINE
  8
_0-2_躯体
  6
CONTINUOUS
 62
    3
 10
1049.9998
 20
2290.9193
 11
1305.2261
 21
2290.9193
  0
LINE
  8
_0-4_仕上
  6
CONTINUOUS
 62
    4
 10
1305.2261
 20
2395.3963
 11
1049.9998
 21
2395.3963
  0
LINE
  8
_0-4_仕上
  6
CONTINUOUS
 62
    4
 10
1305.2261
 20
2390.3963
 11
1049.9998
 21
2390.3963
  0
LINE
  8
_0-4_仕上
  6
CONTINUOUS
 62
    4
 10
1049.9998
 20
2295.9193
 11
1305.2261
 21
2295.9193
  0
LINE
  8
_0-4_仕上
  6
CONTINUOUS
 62
    4
 10
1305.2261
 20
2385.3963
 11
1049.9998
 21
2385.3963
  0
LINE
  8
_0-4_仕上
  6
CONTINUOUS
 62
    4
 10
1305.2261
 20
2380.3963
 11
1049.9998
 21
2380.3963
  0
LINE
  8
_0-4_仕上
  6
CONTINUOUS
 62
    4
 10
1305.2261
 20
2375.3963
 11
1049.9998
 21
2375.3963
  0
LINE
  8
_0-4_仕上
  6
CONTINUOUS
 62
    4
 10
1305.2261
 20
2370.3962
 11
1049.9998
 21
2370.3962
  0
LINE
  8
_0-4_仕上
  6
CONTINUOUS
 62
    4
 10
1305.2261
 20
2365.3962
 11
1049.9998
 21
2365.3962
  0
LINE
  8
_0-4_仕上
  6
CONTINUOUS
 62
    4
 10
1305.2261
 20
2360.3962
 11
1049.9998
 21
2360.3962
  0
LINE
  8
_0-4_仕上
  6
CONTINUOUS
 62
    4
 10
1305.2261
 20
2355.3962
 11
1049.9998
 21
2355.3962
  0
LINE
  8
_0-4_仕上
  6
CONTINUOUS
 62
    4
 10
1305.2261
 20
2350.3964
 11
1049.9998
 21
2350.3964
  0
LINE
  8
_0-4_仕上
  6
CONTINUOUS
 62
    4
 10
1305.2261
 20
2345.3964
 11
1049.9998
 21
2345.3964
  0
LINE
  8
_0-4_仕上
  6
CONTINUOUS
 62
    4
 10
1305.2261
 20
2340.3964
 11
1049.9998
 21
2340.3964
  0
LINE
  8
_0-4_仕上
  6
CONTINUOUS
 62
    4
 10
1305.2261
 20
2335.3964
 11
1049.9998
 21
2335.3964
  0
LINE
  8
_0-4_仕上
  6
CONTINUOUS
 62
    4
 10
1305.2261
 20
2330.3964
 11
1049.9998
 21
2330.3964
  0
LINE
  8
_0-4_仕上
  6
CONTINUOUS
 62
    4
 10
1305.2261
 20
2325.3963
 11
1049.9998
 21
2325.3963
  0
LINE
  8
_0-4_仕上
  6
CONTINUOUS
 62
    4
 10
1305.2261
 20
2320.3963
 11
1049.9998
 21
2320.3963
  0
LINE
  8
_0-4_仕上
  6
CONTINUOUS
 62
    4
 10
1305.2261
 20
2315.3963
 11
1049.9998
 21
2315.3963
  0
LINE
  8
_0-4_仕上
  6
CONTINUOUS
 62
    4
 10
1305.2261
 20
2310.3963
 11
1049.9998
 21
2310.3963
  0
LINE
  8
_0-4_仕上
  6
CONTINUOUS
 62
    4
 10
1305.2261
 20
2305.3963
 11
1049.9998
 21
2305.3963
  0
LINE
  8
_0-4_仕上
  6
CONTINUOUS
 62
    4
 10
1305.2261
 20
2300.3963
 11
1049.9998
 21
2300.3963
  0
LINE
  8
_0-2_躯体
  6
CONTINUOUS
 62
    3
 10
1250.0933
 20
2405.9689
 11
1228.9706
 21
2395.3963
  0
LINE
  8
_0-4_仕上
  6
CONTINUOUS
 62
    3
 10
1305.2261
 20
2290.9191
 11
1305.2261
 21
2395.3963
  0
LINE
  8
_0-2_躯体
  6
CONTINUOUS
 62
    3
 10
1305.2261
 20
2362.9189
 11
1449.7497
 21
2362.9189
  0
LINE
  8
_0-4_仕上
  6
CONTINUOUS
 62
    4
 10
1300.2261
 20
2290.9191
 11
1300.2261
 21
2395.3963
  0
LINE
  8
_0-4_仕上
  6
CONTINUOUS
 62
    4
 10
1295.2261
 20
2290.9191
 11
1295.2261
 21
2395.3963
  0
LINE
  8
_0-4_仕上
  6
CONTINUOUS
 62
    4
 10
1290.226
 20
2290.9191
 11
1290.226
 21
2395.3963
  0
LINE
  8
_0-4_仕上
  6
CONTINUOUS
 62
    4
 10
1285.2261
 20
2290.9191
 11
1285.2261
 21
2395.3963
  0
LINE
  8
_0-4_仕上
  6
CONTINUOUS
 62
    4
 10
1280.2261
 20
2290.9191
 11
1280.2261
 21
2395.3963
  0
LINE
  8
_0-4_仕上
  6
CONTINUOUS
 62
    4
 10
1275.2261
 20
2290.9191
 11
1275.2261
 21
2395.3963
  0
LINE
  8
_0-4_仕上
  6
CONTINUOUS
 62
    4
 10
1270.2261
 20
2290.9191
 11
1270.2261
 21
2395.3963
  0
LINE
  8
_0-4_仕上
  6
CONTINUOUS
 62
    4
 10
1265.2261
 20
2290.9191
 11
1265.2261
 21
2395.3963
  0
LINE
  8
_0-4_仕上
  6
CONTINUOUS
 62
    4
 10
1260.2261
 20
2290.9191
 11
1260.2261
 21
2395.3963
  0
LINE
  8
_0-4_仕上
  6
CONTINUOUS
 62
    4
 10
1255.226
 20
2290.9191
 11
1255.226
 21
2395.3963
  0
LINE
  8
_0-4_仕上
  6
CONTINUOUS
 62
    4
 10
1250.226
 20
2290.9191
 11
1250.226
 21
2395.3963
  0
LINE
  8
_0-4_仕上
  6
CONTINUOUS
 62
    4
 10
1245.2261
 20
2290.9191
 11
1245.2261
 21
2395.3963
  0
LINE
  8
_0-4_仕上
  6
CONTINUOUS
 62
    4
 10
1240.2261
 20
2290.9191
 11
1240.2261
 21
2395.3963
  0
LINE
  8
_0-4_仕上
  6
CONTINUOUS
 62
    4
 10
1235.2261
 20
2290.9191
 11
1235.2261
 21
2395.3963
  0
LINE
  8
_0-4_仕上
  6
CONTINUOUS
 62
    4
 10
1230.2261
 20
2290.9191
 11
1230.2261
 21
2395.3963
  0
LINE
  8
_0-4_仕上
  6
CONTINUOUS
 62
    4
 10
1225.2262
 20
2290.9191
 11
1225.2262
 21
2395.3963
  0
LINE
  8
_0-4_仕上
  6
CONTINUOUS
 62
    4
 10
1220.2262
 20
2290.9191
 11
1220.2262
 21
2395.3963
  0
LINE
  8
_0-4_仕上
  6
CONTINUOUS
 62
    4
 10
1215.2262
 20
2290.9191
 11
1215.2262
 21
2395.3963
  0
LINE
  8
_0-4_仕上
  6
CONTINUOUS
 62
    4
 10
1210.2261
 20
2290.9191
 11
1210.2261
 21
2395.3963
  0
LINE
  8
_0-4_仕上
  6
CONTINUOUS
 62
    4
 10
1205.2261
 20
2290.9191
 11
1205.2261
 21
2395.3963
  0
LINE
  8
_0-4_仕上
  6
CONTINUOUS
 62
    4
 10
1200.2261
 20
2290.9191
 11
1200.2261
 21
2395.3963
  0
LINE
  8
_0-4_仕上
  6
CONTINUOUS
 62
    4
 10
1195.2261
 20
2290.9191
 11
1195.2261
 21
2395.3963
  0
LINE
  8
_0-4_仕上
  6
CONTINUOUS
 62
    4
 10
1190.2261
 20
2290.9191
 11
1190.2261
 21
2395.3963
  0
LINE
  8
_0-4_仕上
  6
CONTINUOUS
 62
    4
 10
1185.2262
 20
2290.9191
 11
1185.2262
 21
2395.3963
  0
LINE
  8
_0-4_仕上
  6
CONTINUOUS
 62
    4
 10
1180.2262
 20
2290.9191
 11
1180.2262
 21
2395.3963
  0
LINE
  8
_0-4_仕上
  6
CONTINUOUS
 62
    4
 10
1175.2262
 20
2290.9191
 11
1175.2262
 21
2395.3963
  0
LINE
  8
_0-4_仕上
  6
CONTINUOUS
 62
    4
 10
1170.2261
 20
2290.9191
 11
1170.2261
 21
2395.3963
  0
LINE
  8
_0-4_仕上
  6
CONTINUOUS
 62
    4
 10
1165.2262
 20
2290.9191
 11
1165.2262
 21
2395.3963
  0
LINE
  8
_0-4_仕上
  6
CONTINUOUS
 62
    4
 10
1160.2262
 20
2290.9191
 11
1160.2262
 21
2395.3963
  0
LINE
  8
_0-4_仕上
  6
CONTINUOUS
 62
    4
 10
1155.2262
 20
2290.9191
 11
1155.2262
 21
2395.3963
  0
LINE
  8
_0-4_仕上
  6
CONTINUOUS
 62
    4
 10
1150.2262
 20
2290.9191
 11
1150.2262
 21
2395.3963
  0
LINE
  8
_0-4_仕上
  6
CONTINUOUS
 62
    4
 10
1145.2262
 20
2290.9191
 11
1145.2262
 21
2395.3963
  0
LINE
  8
_0-4_仕上
  6
CONTINUOUS
 62
    4
 10
1140.2262
 20
2290.9191
 11
1140.2262
 21
2395.3963
  0
LINE
  8
_0-4_仕上
  6
CONTINUOUS
 62
    4
 10
1135.2261
 20
2290.9191
 11
1135.2261
 21
2395.3963
  0
LINE
  8
_0-4_仕上
  6
CONTINUOUS
 62
    4
 10
1130.2261
 20
2290.9191
 11
1130.2261
 21
2395.3963
  0
LINE
  8
_0-4_仕上
  6
CONTINUOUS
 62
    4
 10
1125.2262
 20
2290.9191
 11
1125.2262
 21
2395.3963
  0
LINE
  8
_0-4_仕上
  6
CONTINUOUS
 62
    4
 10
1120.2262
 20
2290.9191
 11
1120.2262
 21
2395.3963
  0
LINE
  8
_0-4_仕上
  6
CONTINUOUS
 62
    4
 10
1115.2262
 20
2290.9191
 11
1115.2262
 21
2395.3963
  0
LINE
  8
_0-4_仕上
  6
CONTINUOUS
 62
    4
 10
1110.2262
 20
2290.9191
 11
1110.2262
 21
2395.3963
  0
LINE
  8
_0-4_仕上
  6
CONTINUOUS
 62
    4
 10
1105.2263
 20
2290.9191
 11
1105.2263
 21
2395.3963
  0
LINE
  8
_0-4_仕上
  6
CONTINUOUS
 62
    4
 10
1100.2263
 20
2290.9191
 11
1100.2263
 21
2395.3963
  0
LINE
  8
_0-4_仕上
  6
CONTINUOUS
 62
    4
 10
1095.2263
 20
2290.9191
 11
1095.2263
 21
2395.3963
  0
LINE
  8
_0-4_仕上
  6
CONTINUOUS
 62
    4
 10
1090.2262
 20
2290.9191
 11
1090.2262
 21
2395.3963
  0
LINE
  8
_0-4_仕上
  6
CONTINUOUS
 62
    4
 10
1085.2262
 20
2290.9191
 11
1085.2262
 21
2395.3963
  0
LINE
  8
_0-4_仕上
  6
CONTINUOUS
 62
    4
 10
1080.2262
 20
2290.9191
 11
1080.2262
 21
2395.3963
  0
LINE
  8
_0-4_仕上
  6
CONTINUOUS
 62
    4
 10
1075.2262
 20
2290.9191
 11
1075.2262
 21
2395.3963
  0
LINE
  8
_0-4_仕上
  6
CONTINUOUS
 62
    4
 10
1070.2262
 20
2290.9191
 11
1070.2262
 21
2395.3963
  0
LINE
  8
_0-4_仕上
  6
CONTINUOUS
 62
    4
 10
1065.2263
 20
2290.9191
 11
1065.2263
 21
2395.3963
  0
LINE
  8
_0-4_仕上
  6
CONTINUOUS
 62
    4
 10
1060.2263
 20
2290.9191
 11
1060.2263
 21
2395.3963
  0
LINE
  8
_0-4_仕上
  6
CONTINUOUS
 62
    4
 10
1055.2263
 20
2290.9191
 11
1055.2263
 21
2395.3963
  0
ARC
  8
_0-2_躯体
  6
CONTINUOUS
 62
    3
 10
794.7746
 20
2120.5642
 40
7.9946298
 50
90
 51
270
  0
ARC
  8
_0-2_躯体
  6
CONTINUOUS
 62
    3
 10
1305.2246
 20
2120.5642
 40
7.9946298
 50
270
 51
90
  0
ARC
  8
_0-2_躯体
  6
CONTINUOUS
 62
    3
 10
650.2497
 20
2219.2711
 40
7.9946298
 50
90
 51
270
  0
ARC
  8
_0-2_躯体
  6
CONTINUOUS
 62
    3
 10
650.2497
 20
2175.9142
 40
7.9946298
 50
90
 51
270
  0
ARC
  8
_0-2_躯体
  6
CONTINUOUS
 62
    3
 10
1449.7497
 20
2219.2711
 40
7.9946298
 50
270
 51
90
  0
ARC
  8
_0-2_躯体
  6
CONTINUOUS
 62
    3
 10
1449.7497
 20
2175.9142
 40
7.9946298
 50
270
 51
90
  0
ARC
  8
_0-3_軸組
  6
CONTINUOUS
 62
    3
 10
1057.9164
 20
2157.5116
 40
4.9561727
 50
270
 51
0
  0
ARC
  8
_0-3_軸組
  6
CONTINUOUS
 62
    3
 10
1057.9164
 20
2223.7498
 40
4.9561727
 50
0
 51
90
  0
ARC
  8
_0-3_軸組
  6
CONTINUOUS
 62
    3
 10
1089.6654
 20
2090.0759
 40
6.6303752
 50
270
 51
0
  0
ARC
  8
_0-3_軸組
  6
CONTINUOUS
 62
    3
 10
1086.3505
 20
2080.7991
 40
3.3151876
 50
270
 51
0
  0
ARC
  8
_0-2_躯体
  6
CONTINUOUS
 62
    3
 10
1305.2261
 20
2282.9245
 40
7.9946298
 50
270
 51
90
  0
TEXT
  8
_0-d_文字
 62
    7
 10
254.99978
 20
157.4999
 40
25
 41
1
 50
0
  1
図
  0
TEXT
  8
_0-d_文字
 62
    7
 10
254.99978
 20
97.499958
 40
25
 41
1
 50
0
  1
番
  0
TEXT
  8
_0-d_文字
 62
    7
 10
655.00043
 20
157.4999
 40
25
 41
1
 50
0
  1
承
  0
TEXT
  8
_0-d_文字
 62
    7
 10
655.00043
 20
97.499958
 40
25
 41
1
 50
0
  1
認
  0
TEXT
  8
_0-d_文字
 62
    7
 10
1020.0002
 20
237.49993
 40
25
 41
1
 50
0
  1
尺
  0
TEXT
  8
_0-d_文字
 62
    7
 10
1020.0002
 20
197.49977
 40
25
 41
1
 50
0.0000708
  1
度
  0
TEXT
  8
_0-d_文字
 62
    7
 10
855.0001
 20
157.4999
 40
25
 41
1
 50
0
  1
製
  0
TEXT
  8
_0-d_文字
 62
    7
 10
855.0001
 20
97.499958
 40
25
 41
1
 50
0
  1
図
  0
TEXT
  8
_0-d_文字
 62
    7
 10
1555
 20
237.49993
 40
25
 41
1
 50
0
  1
日
  0
TEXT
  8
_0-d_文字
 62
    7
 10
1555
 20
197.49977
 40
25
 41
1
 50
0.0000708
  1
付
  0
TEXT
  8
_0-d_文字
 62
    7
 10
1111.4263
 20
163.48225
 40
20
 41
1
 50
0
  1
株式
  0
TEXT
  8
_0-d_文字
 62
    7
 10
1111.4263
 20
141.85179
 40
20
 41
1
 50
0.0000196
  1
会社
  0
TEXT
  8
_0-d_文字
 62
    3
 10
1174.2246
 20
143.24711
 40
40
 41
1
 50
0
  1
スズキベンチレーター
  0
TEXT
  8
_0-d_文字
 62
    7
 10
1237.9181
 20
94.024178
 40
20
 41
1
 50
0
  1
TEL(054)296-7000  FAX(054)296-7001
  0
TEXT
  8
_0-d_文字
 62
    3
 10
1084.3489
 20
210.10064
 40
40
 41
1
 50
0.000005
  1
１／１０
  0
TEXT
  8
_0-8_寸法
 62
    3
 10
1028.3211
 20
2584.2503
 40
30
 41
1
 50
-0.0002835
  1
800
  0
TEXT
  8
_0-8_寸法
 62
    3
 10
1014.3297
 20
1809.0753
 40
30
 41
1
 50
-0.0001181
  1
720*720
  0
TEXT
  8
_0-8_寸法
 62
    3
 10
435.61545
 20
2187.5981
 40
30
 41
1
 50
90
  1
510
  0
TEXT
  8
_0-d_文字
 62
    7
 10
1235.6792
 20
118.64592
 40
20
 41
1
 50
0
  1
〒421-2114　静岡市葵区安倍口新田１５２番地
  0
TEXT
  8
_0-d_文字
 62
    3
 10
255.00005
 20
2792.7013
 40
50
 41
1
 50
0
  1
ＳＴ－５０Ｌ　架台型（低騒音）網付断面
  0
TEXT
  8
_0-d_文字
 62
    3
 10
280.67565
 20
215.81081
 40
30
 41
1
 50
0
  1
ＳＴ－５０Ｌ　架台型（低騒音）網付断面
  0
TEXT
  8
_0-d_文字
 62
    3
 10
308.45925
 20
140.30213
 40
30
 41
1
 50
0
  1
50L-04b
  0
POINT
  8
_0-8_寸法
 62
    2
 10
459.60041
 20
2452.9197
  0
POINT
  8
_0-8_寸法
 62
    2
 10
650.2497
 20
2560.2642
  0
POINT
  8
_0-8_寸法
 62
    2
 10
1449.7507
 20
2560.2642
  0
POINT
  8
_0-8_寸法
 62
    2
 10
689.99992
 20
1793.0851
  0
POINT
  8
_0-8_寸法
 62
    2
 10
1409.9998
 20
1793.0851
  0
POINT
  8
_0-8_寸法
 62
    2
 10
459.60041
 20
1942.9197
  0
ENDSEC
  0
EOF
