  0
SECTION
  2
HEADER
  9
$ACADVER
  1
AC1009
  9
$INSBASE
 10
0
 20
0
 30
0
  9
$EXTMIN
 10
0
 20
0
  9
$EXTMAX
 10
4200
 20
2970
  9
$LIMMIN
 10
0
 20
0
  9
$LIMMAX
 10
4200
 20
2970
  9
$LTSCALE
 40
10
  0
ENDSEC
  0
SECTION
  2
TABLES
  0
TABLE
  2
LTYPE
 70
     9
  0
LTYPE
  2
CONTINUOUS
 70
    64
  3
実線
 72
    65
 73
     0
 40
0.0
  0
LTYPE
  2
DASHED1
 70
    64
  3
--  --  --  --  --  --  --  --  
 72
    65
 73
     2
 40
2.5
 49
1.25
 49
-1.25
  0
LTYPE
  2
DASHED2
 70
    64
  3
----    ----    ----    ----    
 72
    65
 73
     2
 40
5.0
 49
2.5
 49
-2.5
  0
LTYPE
  2
DASHED3
 70
    64
  3
------  ------  ------  ------  
 72
    65
 73
     2
 40
5.0
 49
3.75
 49
-1.25
  0
LTYPE
  2
CENTER1
 70
    64
  3
----- - ----- - ----- - ----- - 
 72
    65
 73
     4
 40
10.0
 49
6.25
 49
-1.25
 49
1.25
 49
-1.25
  0
LTYPE
  2
CENTER2
 70
    64
  3
----------  --  ----------  --  
 72
    65
 73
     4
 40
20.0
 49
12.5
 49
-2.5
 49
2.5
 49
-2.5
  0
LTYPE
  2
PHANTOM1
 70
    64
  3
--- - - --- - - --- - - --- - - 
 72
    65
 73
     6
 40
10.0
 49
3.25
 49
-1.25
 49
1.25
 49
-1.25
 49
1.25
 49
-1.25
  0
LTYPE
  2
PHANTOM2
 70
    64
  3
--------  -  -  --------  -  -  
 72
    65
 73
     6
 40
20.0
 49
10.0
 49
-2.5
 49
1.25
 49
-2.5
 49
1.25
 49
-2.5
  0
LTYPE
  2
DOT
 70
    64
  3
-   -   -   -   -   -   -   -   
 72
    65
 73
     2
 40
2.5
 49
0.625
 49
-1.875
  0
LTYPE
  2
DUMMY
 70
    64
  3
ダミー
 72
    65
 73
     0
 40
0.0
  0
LTYPE
  2
RAND1
 70
    64
  3
----- - ----- - ----- - ----- - 
 72
    65
 73
     4
 40
10.0
 49
6.25
 49
-1.25
 49
1.25
 49
-1.25
  0
LTYPE
  2
RAND2
 70
    64
  3
----------  --  ----------  --  
 72
    65
 73
     4
 40
20.0
 49
12.5
 49
-2.5
 49
2.5
 49
-2.5
  0
LTYPE
  2
RAND3
 70
    64
  3
--- - - --- - - --- - - --- - - 
 72
    65
 73
     6
 40
10.0
 49
3.25
 49
-1.25
 49
1.25
 49
-1.25
 49
1.25
 49
-1.25
  0
LTYPE
  2
RAND4
 70
    64
  3
--------  -  -  --------  -  -  
 72
    65
 73
     6
 40
20.0
 49
10.0
 49
-2.5
 49
1.25
 49
-2.5
 49
1.25
 49
-2.5
  0
LTYPE
  2
RAND5
 70
    64
  3
----- - ----- - ----- - ----- - 
 72
    65
 73
     4
 40
10.0
 49
6.25
 49
-1.25
 49
1.25
 49
-1.25
  0
LTYPE
  2
LONG1
 70
    64
  3
----------  --  ----------  --  
 72
    65
 73
     4
 40
20.0
 49
12.5
 49
-2.5
 49
2.5
 49
-2.5
  0
LTYPE
  2
LONG2
 70
    64
  3
--- - - --- - - --- - - --- - - 
 72
    65
 73
     6
 40
10.0
 49
3.25
 49
-1.25
 49
1.25
 49
-1.25
 49
1.25
 49
-1.25
  0
LTYPE
  2
LONG3
 70
    64
  3
--------  -  -  --------  -  -  
 72
    65
 73
     6
 40
20.0
 49
10.0
 49
-2.5
 49
1.25
 49
-2.5
 49
1.25
 49
-2.5
  0
LTYPE
  2
LONG4
 70
    64
  3
----- - ----- - ----- - ----- - 
 72
    65
 73
     4
 40
10.0
 49
6.25
 49
-1.25
 49
1.25
 49
-1.25
  0
LTYPE
  2
LONG5
 70
    64
  3
----------  --  ----------  --  
 72
    65
 73
     4
 40
20.0
 49
12.5
 49
-2.5
 49
2.5
 49
-2.5
  0
ENDTAB
  0
TABLE
  2
STYLE
  5
3
100
AcDbSymbolTable
 70
     1
  0
STYLE
  5
10
100
AcDbSymbolTableRecord
100
AcDbTextStyleTableRecord
  2
STANDARD
 70
     0
 40
0.0
 41
1.0
 50
0.0
 71
     0
 42
0.2
  3
txt
  4
bigfont.shx
  0
STYLE
  5
26
100
AcDbSymbolTableRecord
100
AcDbTextStyleTableRecord
  2
TATEGAKI
 70
    68
 40
0.0
 41
1.0
 50
0.0
 71
     0
 42
1.0
  3
txt
  4
bigfont.shx
  0
ENDTAB
  0
TABLE
  2
LAYER
 70
    4
  0
LAYER
  2
_0-2_躯体
 70
   64
 62
    7
  6
CONTINUOUS
  0
LAYER
  2
_0-8_寸法
 70
   64
 62
    7
  6
CONTINUOUS
  0
LAYER
  2
_0-d_文字
 70
   64
 62
    7
  6
CONTINUOUS
  0
LAYER
  2
ADD_LINE
 70
   64
 62
    7
  6
CONTINUOUS
  0
ENDTAB
  0
ENDSEC
  0
SECTION
  2
BLOCKS
  0
ENDSEC
  0
SECTION
  2
ENTITIES
  0
LINE
  8
_0-d_文字
  6
CONTINUOUS
 62
    7
 10
250.00003
 20
2757.7012
 11
1850
 21
2757.7012
  0
LINE
  8
_0-d_文字
  6
CONTINUOUS
 62
    7
 10
250.00003
 20
2767.7015
 11
1850
 21
2767.7015
  0
LINE
  8
_0-d_文字
  6
CONTINUOUS
 62
    7
 10
249.99966
 20
189.99988
 11
1850.0002
 21
189.99988
  0
LINE
  8
_0-d_文字
  6
CONTINUOUS
 62
    7
 10
249.99966
 20
89.999802
 11
249.99966
 21
269.9999
  0
LINE
  8
_0-d_文字
  6
CONTINUOUS
 62
    7
 10
249.99966
 20
89.999802
 11
1850.0002
 21
89.999802
  0
LINE
  8
_0-d_文字
  6
CONTINUOUS
 62
    7
 10
1850.0002
 20
269.9999
 11
1850.0002
 21
89.999802
  0
LINE
  8
_0-d_文字
  6
CONTINUOUS
 62
    7
 10
249.99966
 20
269.9999
 11
1850.0002
 21
269.9999
  0
LINE
  8
_0-d_文字
  6
CONTINUOUS
 62
    7
 10
1050
 20
269.9999
 11
1050
 21
89.999802
  0
LINE
  8
_0-d_文字
  6
CONTINUOUS
 62
    7
 10
650.00016
 20
89.999802
 11
650.00016
 21
189.99988
  0
LINE
  8
_0-d_文字
  6
CONTINUOUS
 62
    7
 10
1050
 20
189.99988
 11
1050
 21
269.9999
  0
LINE
  8
_0-d_文字
  6
CONTINUOUS
 62
    7
 10
849.99971
 20
89.999802
 11
849.99971
 21
189.99988
  0
LINE
  8
_0-d_文字
  6
CONTINUOUS
 62
    7
 10
285.00001
 20
89.999802
 11
285.00001
 21
189.99988
  0
LINE
  8
_0-d_文字
  6
CONTINUOUS
 62
    7
 10
685.00003
 20
89.999802
 11
685.00003
 21
189.99988
  0
LINE
  8
_0-d_文字
  6
CONTINUOUS
 62
    7
 10
885.00007
 20
89.999802
 11
885.00007
 21
189.99988
  0
LINE
  8
_0-d_文字
  6
CONTINUOUS
 62
    7
 10
1015
 20
189.99988
 11
1015
 21
269.9999
  0
LINE
  8
_0-d_文字
  6
CONTINUOUS
 62
    7
 10
1550.0004
 20
189.99988
 11
1550.0004
 21
269.9999
  0
LINE
  8
_0-d_文字
  6
CONTINUOUS
 62
    7
 10
1585.0001
 20
189.99988
 11
1585.0001
 21
269.9999
  0
LINE
  8
_0-2_躯体
  6
CONTINUOUS
 62
    3
 10
632.37205
 20
2520.9394
 11
1050
 21
2615.1689
  0
LINE
  8
_0-2_躯体
  6
CONTINUOUS
 62
    3
 10
1467.6272
 20
2520.6006
 11
1050
 21
2615.1689
  0
LINE
  8
_0-8_寸法
  6
CONTINUOUS
 62
    7
 10
609.30151
 20
2145.1689
 11
234.00062
 21
2145.1689
  0
LINE
  8
_0-2_躯体
  6
CONTINUOUS
 62
    3
 10
649.99991
 20
2525.1689
 11
1450
 21
2524.8301
  0
LINE
  8
_0-2_躯体
  6
CONTINUOUS
 62
    3
 10
649.99991
 20
2367.468
 11
1450
 21
2367.468
  0
LINE
  8
_0-2_躯体
  6
CONTINUOUS
 62
    3
 10
649.99991
 20
2383.0679
 11
1450
 21
2383.0679
  0
LINE
  8
_0-2_躯体
  6
CONTINUOUS
 62
    3
 10
649.99991
 20
2340.7688
 11
1450
 21
2340.7688
  0
LINE
  8
_0-2_躯体
  6
CONTINUOUS
 62
    3
 10
649.99991
 20
2525.1689
 11
649.99991
 21
2383.0679
  0
LINE
  8
_0-2_躯体
  6
CONTINUOUS
 62
    3
 10
649.99991
 20
2367.468
 11
649.99991
 21
2340.7683
  0
LINE
  8
_0-2_躯体
  6
CONTINUOUS
 62
    3
 10
1450
 20
2524.8301
 11
1450
 21
2383.0679
  0
LINE
  8
_0-2_躯体
  6
CONTINUOUS
 62
    3
 10
792.50001
 20
2215.3685
 11
1307.5009
 21
2215.3685
  0
LINE
  8
_0-2_躯体
  6
CONTINUOUS
 62
    3
 10
792.50001
 20
2230.9681
 11
1307.5009
 21
2230.9681
  0
LINE
  8
_0-2_躯体
  6
CONTINUOUS
 62
    3
 10
792.50001
 20
2160.7684
 11
1307.5009
 21
2160.7684
  0
LINE
  8
_0-2_躯体
  6
CONTINUOUS
 62
    3
 10
792.50001
 20
2145.1689
 11
1307.5009
 21
2145.1689
  0
LINE
  8
_0-2_躯体
  6
CONTINUOUS
 62
    3
 10
792.50001
 20
2215.3685
 11
792.50001
 21
2160.7682
  0
LINE
  8
_0-2_躯体
  6
CONTINUOUS
 62
    3
 10
1307.4999
 20
2215.3685
 11
1307.4999
 21
2160.7682
  0
LINE
  8
_0-2_躯体
  6
CONTINUOUS
 62
    3
 10
792.50001
 20
2325.1687
 11
792.50001
 21
2230.9681
  0
LINE
  8
_0-2_躯体
  6
CONTINUOUS
 62
    3
 10
1307.4999
 20
2325.1687
 11
1307.4999
 21
2230.9681
  0
LINE
  8
_0-8_寸法
  6
CONTINUOUS
 62
    7
 10
650.00004
 20
2571.1474
 11
650.00004
 21
2697.701
  0
LINE
  8
_0-8_寸法
  6
CONTINUOUS
 62
    7
 10
738.08156
 20
2615.1689
 11
234.00062
 21
2615.1689
  0
LINE
  8
_0-2_躯体
  6
CONTINUOUS
 62
    3
 10
1307.4999
 20
2215.3685
 11
1307.4999
 21
2160.7682
  0
LINE
  8
_0-2_躯体
  6
CONTINUOUS
 62
    3
 10
1449.9988
 20
2367.468
 11
1449.9988
 21
2340.7683
  0
LINE
  8
_0-2_躯体
  6
CONTINUOUS
 62
    3
 10
649.99991
 20
2325.169
 11
1450
 21
2325.169
  0
LINE
  8
_0-8_寸法
  6
CONTINUOUS
 62
    7
 10
234.00062
 20
1617.9468
 11
234.00062
 21
1929.9463
  0
LINE
  8
_0-8_寸法
  6
CONTINUOUS
 62
    7
 10
609.30151
 20
1617.9468
 11
234.00062
 21
1617.9468
  0
LINE
  8
_0-8_寸法
  6
CONTINUOUS
 62
    7
 10
609.30151
 20
1857.9468
 11
234.00062
 21
1857.9468
  0
LINE
  8
_0-8_寸法
  6
CONTINUOUS
 62
    7
 10
609.30151
 20
1929.9463
 11
234.00062
 21
1929.9463
  0
LINE
  8
_0-2_躯体
  6
CONTINUOUS
 62
    3
 10
749.99975
 20
576.99997
 11
749.99975
 21
1176.9998
  0
LINE
  8
_0-2_躯体
  6
CONTINUOUS
 62
    3
 10
749.99975
 20
1176.9998
 11
1350.0002
 21
1176.9998
  0
LINE
  8
_0-2_躯体
  6
CONTINUOUS
 62
    3
 10
1350.0002
 20
1176.9998
 11
1350.0002
 21
576.99991
  0
LINE
  8
_0-2_躯体
  6
CONTINUOUS
 62
    3
 10
1350.0002
 20
576.99991
 11
749.99975
 21
576.99997
  0
LINE
  8
_0-8_寸法
  6
CONTINUOUS
 62
    7
 10
749.99975
 20
1513.6988
 11
1350.0002
 21
1513.6988
  0
LINE
  8
_0-2_躯体
  6
CONTINUOUS
 62
    3
 10
749.99975
 20
1176.9998
 11
832.7315
 21
1094.268
  0
LINE
  8
_0-2_躯体
  6
CONTINUOUS
 62
    3
 10
1350.0002
 20
1176.9998
 11
1267.2684
 21
1094.268
  0
LINE
  8
_0-2_躯体
  6
CONTINUOUS
 62
    3
 10
749.99975
 20
576.99997
 11
832.7315
 21
659.73116
  0
LINE
  8
_0-2_躯体
  6
CONTINUOUS
 62
    3
 10
1350.0002
 20
576.99991
 11
1267.2684
 21
659.7311
  0
LINE
  8
_0-2_躯体
  6
CONTINUOUS
 62
    3
 10
797.50003
 20
1857.9468
 11
1302.4997
 21
1857.9468
  0
LINE
  8
_0-8_寸法
  6
CONTINUOUS
 62
    7
 10
749.99975
 20
1589.412
 11
749.99975
 21
1513.6988
  0
LINE
  8
_0-8_寸法
  6
CONTINUOUS
 62
    7
 10
1350.0002
 20
1589.412
 11
1350.0002
 21
1513.6988
  0
LINE
  8
_0-2_躯体
  6
CONTINUOUS
 62
    3
 10
797.50003
 20
1914.3462
 11
1302.4997
 21
1914.3462
  0
LINE
  8
_0-2_躯体
  6
CONTINUOUS
 62
    3
 10
797.50003
 20
1898.7461
 11
797.50003
 21
1857.9468
  0
LINE
  8
_0-2_躯体
  6
CONTINUOUS
 62
    3
 10
797.50003
 20
1898.7461
 11
1302.4997
 21
1898.7461
  0
LINE
  8
_0-2_躯体
  6
CONTINUOUS
 62
    3
 10
1302.4997
 20
1898.7461
 11
1302.4997
 21
1857.9468
  0
LINE
  8
_0-2_躯体
  6
CONTINUOUS
 62
    3
 10
1302.4999
 20
1929.9463
 11
1302.4999
 21
1914.3462
  0
LINE
  8
_0-8_寸法
  6
CONTINUOUS
 62
    7
 10
525.50551
 20
1705.7235
 11
634.39388
 21
1705.7235
  0
LINE
  8
_0-8_寸法
  6
CONTINUOUS
 62
    7
 10
525.50551
 20
1705.7235
 11
634.39388
 21
1738.3887
  0
LINE
  8
_0-8_寸法
  6
CONTINUOUS
 62
    7
 10
634.39388
 20
1705.7235
 11
634.39388
 21
1738.3887
  0
LINE
  8
_0-8_寸法
  6
CONTINUOUS
 62
    7
 10
792.50001
 20
2114.2312
 11
792.50001
 21
2069.7216
  0
LINE
  8
_0-8_寸法
  6
CONTINUOUS
 62
    7
 10
1307.5009
 20
2114.2312
 11
1307.5009
 21
2069.7216
  0
LINE
  8
_0-8_寸法
  6
CONTINUOUS
 62
    7
 10
797.50003
 20
1954.4995
 11
797.50003
 21
1986.3214
  0
LINE
  8
_0-8_寸法
  6
CONTINUOUS
 62
    7
 10
1302.4999
 20
1954.4995
 11
1302.4999
 21
1986.3214
  0
LINE
  8
_0-8_寸法
  6
CONTINUOUS
 62
    7
 10
792.50001
 20
2069.7216
 11
1307.5009
 21
2069.7216
  0
LINE
  8
_0-2_躯体
  6
CONTINUOUS
 62
    3
 10
797.50003
 20
1857.9468
 11
750
 21
1616.8321
  0
LINE
  8
_0-2_躯体
  6
CONTINUOUS
 62
    3
 10
1302.4997
 20
1857.9468
 11
1350
 21
1616.6451
  0
LINE
  8
_0-2_躯体
  6
CONTINUOUS
 62
    3
 10
499.99991
 20
1426.9996
 11
1600
 21
1426.9996
  0
LINE
  8
_0-8_寸法
  6
CONTINUOUS
 62
    7
 10
811.69565
 20
793.52911
 11
1288.3043
 21
960.47008
  0
LINE
  8
_0-2_躯体
  6
CONTINUOUS
 62
    3
 10
797.50003
 20
1929.9463
 11
797.50003
 21
1914.3462
  0
LINE
  8
_0-2_躯体
  6
CONTINUOUS
 62
    3
 10
797.50003
 20
1929.9463
 11
1302.4999
 21
1929.9463
  0
LINE
  8
_0-8_寸法
  6
CONTINUOUS
 62
    7
 10
234.00062
 20
326.99967
 11
234.00062
 21
1426.9996
  0
LINE
  8
_0-8_寸法
  6
CONTINUOUS
 62
    7
 10
440.13333
 20
326.99967
 11
234.00062
 21
326.99967
  0
LINE
  8
_0-8_寸法
  6
CONTINUOUS
 62
    7
 10
440.13333
 20
1426.9996
 11
234.00062
 21
1426.9996
  0
LINE
  8
_0-8_寸法
  6
CONTINUOUS
 62
    7
 10
1818.5117
 20
576.99991
 11
1818.5117
 21
1176.9998
  0
LINE
  8
_0-8_寸法
  6
CONTINUOUS
 62
    7
 10
1688.7819
 20
576.99991
 11
1818.5117
 21
576.99991
  0
LINE
  8
_0-8_寸法
  6
CONTINUOUS
 62
    7
 10
1688.7819
 20
1176.9998
 11
1818.5117
 21
1176.9998
  0
LINE
  8
_0-8_寸法
  6
CENTER2
 62
    7
 10
1050
 20
316.99967
 11
1050
 21
2615.1687
  0
LINE
  8
_0-8_寸法
  6
CENTER2
 62
    7
 10
499.99991
 20
876.99984
 11
1600
 21
876.99984
  0
LINE
  8
_0-8_寸法
  6
CONTINUOUS
 62
    7
 10
797.50003
 20
1986.3214
 11
1302.4999
 21
1986.3214
  0
LINE
  8
_0-8_寸法
  6
CONTINUOUS
 62
    7
 10
650.00004
 20
2697.701
 11
1449.9999
 21
2697.701
  0
LINE
  8
_0-8_寸法
  6
CONTINUOUS
 62
    7
 10
1449.9999
 20
2571.1474
 11
1449.9999
 21
2697.701
  0
LINE
  8
_0-2_躯体
  6
CONTINUOUS
 62
    3
 10
1599.9999
 20
1426.9995
 11
1599.9999
 21
326.99967
  0
LINE
  8
_0-2_躯体
  6
CONTINUOUS
 62
    3
 10
500.00004
 20
1426.9995
 11
500.00004
 21
326.99967
  0
LINE
  8
_0-2_躯体
  6
CONTINUOUS
 62
    3
 10
499.99991
 20
326.99992
 11
1599.9999
 21
326.99992
  0
LINE
  8
_0-2_躯体
  6
CONTINUOUS
 62
    3
 10
1599.9999
 20
1541.4924
 11
1050
 21
1706.8285
  0
LINE
  8
_0-2_躯体
  6
CONTINUOUS
 62
    3
 10
1050
 20
1706.8285
 11
500.00004
 21
1541.8353
  0
LINE
  8
_0-8_寸法
  6
CONTINUOUS
 62
    7
 10
234.00062
 20
2145.1689
 11
234.00062
 21
2615.1689
  0
ARC
  8
_0-2_躯体
  6
CONTINUOUS
 62
    3
 10
792.50001
 20
2152.9684
 40
7.7996395
 50
90
 51
270
  0
ARC
  8
_0-2_躯体
  6
CONTINUOUS
 62
    3
 10
792.50001
 20
2223.1681
 40
7.7996395
 50
90
 51
270
  0
ARC
  8
_0-2_躯体
  6
CONTINUOUS
 62
    3
 10
1307.4999
 20
2152.9684
 40
7.7996395
 50
270
 51
90
  0
ARC
  8
_0-2_躯体
  6
CONTINUOUS
 62
    3
 10
1307.4999
 20
2223.1681
 40
7.7996395
 50
270
 51
90
  0
ARC
  8
_0-2_躯体
  6
CONTINUOUS
 62
    3
 10
649.99991
 20
2375.2681
 40
7.7996395
 50
90
 51
270
  0
ARC
  8
_0-2_躯体
  6
CONTINUOUS
 62
    3
 10
649.99991
 20
2332.9687
 40
7.7996395
 50
90
 51
270
  0
ARC
  8
_0-2_躯体
  6
CONTINUOUS
 62
    3
 10
1449.9988
 20
2375.2681
 40
7.7996395
 50
270
 51
90
  0
ARC
  8
_0-2_躯体
  6
CONTINUOUS
 62
    3
 10
1449.9988
 20
2332.9687
 40
7.7996395
 50
270
 51
90
  0
ARC
  8
_0-2_躯体
  6
CONTINUOUS
 62
    3
 10
1302.4999
 20
1906.5462
 40
7.7996395
 50
90
 51
270
  0
ARC
  8
_0-2_躯体
  6
CONTINUOUS
 62
    3
 10
797.49978
 20
1906.5462
 40
7.7996395
 50
270
 51
90
  0
CIRCLE
  8
_0-2_躯体
  6
CONTINUOUS
 62
    3
 10
1050
 20
876.99972
 40
252.49998
  0
TEXT
  8
_0-d_文字
 62
    7
 10
254.99978
 20
157.4999
 40
25
 41
1
 50
0
  1
図
  0
TEXT
  8
_0-d_文字
 62
    7
 10
254.99978
 20
97.499958
 40
25
 41
1
 50
0
  1
番
  0
TEXT
  8
_0-d_文字
 62
    7
 10
655.00043
 20
157.4999
 40
25
 41
1
 50
0
  1
承
  0
TEXT
  8
_0-d_文字
 62
    7
 10
655.00043
 20
97.499958
 40
25
 41
1
 50
0
  1
認
  0
TEXT
  8
_0-d_文字
 62
    7
 10
1020.0002
 20
237.49993
 40
25
 41
1
 50
0
  1
尺
  0
TEXT
  8
_0-d_文字
 62
    7
 10
1020.0002
 20
197.49977
 40
25
 41
1
 50
0.0000708
  1
度
  0
TEXT
  8
_0-d_文字
 62
    7
 10
855.0001
 20
157.4999
 40
25
 41
1
 50
0
  1
製
  0
TEXT
  8
_0-d_文字
 62
    7
 10
855.0001
 20
97.499958
 40
25
 41
1
 50
0
  1
図
  0
TEXT
  8
_0-d_文字
 62
    7
 10
1555
 20
237.49993
 40
25
 41
1
 50
0
  1
日
  0
TEXT
  8
_0-d_文字
 62
    7
 10
1555
 20
197.49977
 40
25
 41
1
 50
0.0000708
  1
付
  0
TEXT
  8
_0-d_文字
 62
    7
 10
1111.4263
 20
163.48225
 40
20
 41
1
 50
0
  1
株式
  0
TEXT
  8
_0-d_文字
 62
    7
 10
1111.4263
 20
141.85179
 40
20
 41
1
 50
0.0000196
  1
会社
  0
TEXT
  8
_0-d_文字
 62
    3
 10
1174.2246
 20
143.24711
 40
40
 41
1
 50
0
  1
スズキベンチレーター
  0
TEXT
  8
_0-d_文字
 62
    7
 10
1237.9181
 20
94.024178
 40
20
 41
1
 50
0
  1
TEL(054)296-7000  FAX(054)296-7001
  0
TEXT
  8
_0-d_文字
 62
    3
 10
1084.3489
 20
210.10064
 40
40
 41
1
 50
0.000005
  1
１／１０
  0
TEXT
  8
_0-8_寸法
 62
    3
 10
654.34099
 20
1706.0213
 40
30
 41
1
 50
0
  1
3
  0
TEXT
  8
_0-8_寸法
 62
    3
 10
566.74902
 20
1663.1259
 40
30
 41
1
 50
0.0002181
  1
10
  0
TEXT
  8
_0-8_寸法
 62
    3
 10
1016.85
 20
2721.1019
 40
30
 41
1
 50
0
  1
800
  0
TEXT
  8
_0-8_寸法
 62
    3
 10
210.60048
 20
2340.3674
 40
30
 41
1
 50
90
  1
470
  0
TEXT
  8
_0-8_寸法
 62
    3
 10
995.39994
 20
2085.3216
 40
30
 41
1
 50
0
  1
515φ
  0
TEXT
  8
_0-8_寸法
 62
    3
 10
995.39994
 20
2001.9215
 40
30
 41
1
 50
0
  1
505φ
  0
TEXT
  8
_0-8_寸法
 62
    3
 10
210.60048
 20
1875.4966
 40
30
 41
1
 50
90
  1
70
  0
TEXT
  8
_0-8_寸法
 62
    3
 10
210.60048
 20
1712.6698
 40
30
 41
1
 50
90
  1
240
  0
TEXT
  8
_0-8_寸法
 62
    3
 10
1016.824
 20
1529.2988
 40
30
 41
1
 50
0
  1
600
  0
TEXT
  8
_0-8_寸法
 62
    3
 10
1808.5116
 20
855.74983
 40
30
 41
1
 50
90
  1
600
  0
TEXT
  8
_0-8_寸法
 62
    3
 10
993.31301
 20
873.67308
 40
30
 41
1
 50
19.30378
  1
505φ
  0
TEXT
  8
_0-8_寸法
 62
    3
 10
224.00059
 20
840.74961
 40
30
 41
1
 50
90
  1
≒ 1,100
  0
TEXT
  8
_0-d_文字
 62
    7
 10
1235.6792
 20
118.64592
 40
20
 41
1
 50
0
  1
〒421-2114　静岡市葵区安倍口新田１５２番地
  0
TEXT
  8
_0-d_文字
 62
    3
 10
255.00006
 20
2792.7013
 40
50
 41
1
 50
0
  1
ＳＴ－５０Ｌ　直付型（低騒音）立面、直付袴立面・平面
  0
TEXT
  8
_0-d_文字
 62
    7
 10
281.17651
 20
231.10352
 40
25
 41
1
 50
0
  1
ＳＴ－５０Ｌ　直付型（低騒音）
  0
TEXT
  8
_0-8_寸法
 62
    7
 10
583.46184
 20
199.98592
 40
25
 41
1
 50
0
  1
立面、直付袴立面・平面
  0
TEXT
  8
_0-d_文字
 62
    3
 10
308.45925
 20
140.30213
 40
30
 41
1
 50
0
  1
50L-01
  0
POINT
  8
_0-8_寸法
 62
    2
 10
234.00062
 20
2145.1689
  0
POINT
  8
_0-8_寸法
 62
    2
 10
234.00062
 20
2615.1689
  0
POINT
  8
_0-8_寸法
 62
    2
 10
650.00004
 20
2697.701
  0
POINT
  8
_0-8_寸法
 62
    2
 10
1449.9999
 20
2697.701
  0
POINT
  8
_0-8_寸法
 62
    2
 10
792.50001
 20
2069.7216
  0
POINT
  8
_0-8_寸法
 62
    2
 10
1307.5009
 20
2069.7216
  0
POINT
  8
_0-8_寸法
 62
    2
 10
234.00062
 20
1617.9468
  0
POINT
  8
_0-8_寸法
 62
    2
 10
234.00062
 20
1857.9468
  0
POINT
  8
_0-8_寸法
 62
    2
 10
234.00062
 20
1929.9463
  0
POINT
  8
_0-8_寸法
 62
    2
 10
749.99975
 20
1513.6988
  0
POINT
  8
_0-8_寸法
 62
    2
 10
1350.0002
 20
1513.6988
  0
POINT
  8
_0-8_寸法
 62
    2
 10
811.69565
 20
793.52911
  0
POINT
  8
_0-8_寸法
 62
    2
 10
1288.3043
 20
960.47008
  0
POINT
  8
_0-8_寸法
 62
    2
 10
797.50003
 20
1986.3214
  0
POINT
  8
_0-8_寸法
 62
    2
 10
1302.4999
 20
1986.3214
  0
POINT
  8
_0-8_寸法
 62
    2
 10
234.00062
 20
326.99967
  0
POINT
  8
_0-8_寸法
 62
    2
 10
234.00062
 20
1426.9996
  0
POINT
  8
_0-8_寸法
 62
    2
 10
1818.5117
 20
576.99991
  0
POINT
  8
_0-8_寸法
 62
    2
 10
1818.5117
 20
1176.9998
  0
ENDSEC
  0
EOF
