  0
SECTION
  2
HEADER
  9
$ACADVER
  1
AC1009
  9
$INSBASE
 10
0
 20
0
 30
0
  9
$EXTMIN
 10
0
 20
0
  9
$EXTMAX
 10
2520
 20
1782
  9
$LIMMIN
 10
0
 20
0
  9
$LIMMAX
 10
2520
 20
1782
  9
$LTSCALE
 40
6
  0
ENDSEC
  0
SECTION
  2
TABLES
  0
TABLE
  2
LTYPE
 70
     9
  0
LTYPE
  2
CONTINUOUS
 70
    64
  3
実線
 72
    65
 73
     0
 40
0.0
  0
LTYPE
  2
DASHED1
 70
    64
  3
--  --  --  --  --  --  --  --  
 72
    65
 73
     2
 40
2.5
 49
1.25
 49
-1.25
  0
LTYPE
  2
DASHED2
 70
    64
  3
----    ----    ----    ----    
 72
    65
 73
     2
 40
5.0
 49
2.5
 49
-2.5
  0
LTYPE
  2
DASHED3
 70
    64
  3
------  ------  ------  ------  
 72
    65
 73
     2
 40
5.0
 49
3.75
 49
-1.25
  0
LTYPE
  2
CENTER1
 70
    64
  3
----- - ----- - ----- - ----- - 
 72
    65
 73
     4
 40
10.0
 49
6.25
 49
-1.25
 49
1.25
 49
-1.25
  0
LTYPE
  2
CENTER2
 70
    64
  3
----------  --  ----------  --  
 72
    65
 73
     4
 40
20.0
 49
12.5
 49
-2.5
 49
2.5
 49
-2.5
  0
LTYPE
  2
PHANTOM1
 70
    64
  3
--- - - --- - - --- - - --- - - 
 72
    65
 73
     6
 40
10.0
 49
3.25
 49
-1.25
 49
1.25
 49
-1.25
 49
1.25
 49
-1.25
  0
LTYPE
  2
PHANTOM2
 70
    64
  3
--------  -  -  --------  -  -  
 72
    65
 73
     6
 40
20.0
 49
10.0
 49
-2.5
 49
1.25
 49
-2.5
 49
1.25
 49
-2.5
  0
LTYPE
  2
DOT
 70
    64
  3
-   -   -   -   -   -   -   -   
 72
    65
 73
     2
 40
2.5
 49
0.625
 49
-1.875
  0
LTYPE
  2
DUMMY
 70
    64
  3
ダミー
 72
    65
 73
     0
 40
0.0
  0
LTYPE
  2
RAND1
 70
    64
  3
----- - ----- - ----- - ----- - 
 72
    65
 73
     4
 40
10.0
 49
6.25
 49
-1.25
 49
1.25
 49
-1.25
  0
LTYPE
  2
RAND2
 70
    64
  3
----------  --  ----------  --  
 72
    65
 73
     4
 40
20.0
 49
12.5
 49
-2.5
 49
2.5
 49
-2.5
  0
LTYPE
  2
RAND3
 70
    64
  3
--- - - --- - - --- - - --- - - 
 72
    65
 73
     6
 40
10.0
 49
3.25
 49
-1.25
 49
1.25
 49
-1.25
 49
1.25
 49
-1.25
  0
LTYPE
  2
RAND4
 70
    64
  3
--------  -  -  --------  -  -  
 72
    65
 73
     6
 40
20.0
 49
10.0
 49
-2.5
 49
1.25
 49
-2.5
 49
1.25
 49
-2.5
  0
LTYPE
  2
RAND5
 70
    64
  3
----- - ----- - ----- - ----- - 
 72
    65
 73
     4
 40
10.0
 49
6.25
 49
-1.25
 49
1.25
 49
-1.25
  0
LTYPE
  2
LONG1
 70
    64
  3
----------  --  ----------  --  
 72
    65
 73
     4
 40
20.0
 49
12.5
 49
-2.5
 49
2.5
 49
-2.5
  0
LTYPE
  2
LONG2
 70
    64
  3
--- - - --- - - --- - - --- - - 
 72
    65
 73
     6
 40
10.0
 49
3.25
 49
-1.25
 49
1.25
 49
-1.25
 49
1.25
 49
-1.25
  0
LTYPE
  2
LONG3
 70
    64
  3
--------  -  -  --------  -  -  
 72
    65
 73
     6
 40
20.0
 49
10.0
 49
-2.5
 49
1.25
 49
-2.5
 49
1.25
 49
-2.5
  0
LTYPE
  2
LONG4
 70
    64
  3
----- - ----- - ----- - ----- - 
 72
    65
 73
     4
 40
10.0
 49
6.25
 49
-1.25
 49
1.25
 49
-1.25
  0
LTYPE
  2
LONG5
 70
    64
  3
----------  --  ----------  --  
 72
    65
 73
     4
 40
20.0
 49
12.5
 49
-2.5
 49
2.5
 49
-2.5
  0
ENDTAB
  0
TABLE
  2
STYLE
  5
3
100
AcDbSymbolTable
 70
     1
  0
STYLE
  5
10
100
AcDbSymbolTableRecord
100
AcDbTextStyleTableRecord
  2
STANDARD
 70
     0
 40
0.0
 41
1.0
 50
0.0
 71
     0
 42
0.2
  3
txt
  4
bigfont.shx
  0
STYLE
  5
26
100
AcDbSymbolTableRecord
100
AcDbTextStyleTableRecord
  2
TATEGAKI
 70
    68
 40
0.0
 41
1.0
 50
0.0
 71
     0
 42
1.0
  3
txt
  4
bigfont.shx
  0
ENDTAB
  0
TABLE
  2
LAYER
 70
    7
  0
LAYER
  2
_0-1_基準線
 70
   64
 62
    7
  6
CONTINUOUS
  0
LAYER
  2
_0-2_躯体
 70
   64
 62
    7
  6
CONTINUOUS
  0
LAYER
  2
_0-3_軸組
 70
   64
 62
    7
  6
CONTINUOUS
  0
LAYER
  2
_0-5_建具
 70
   64
 62
    7
  6
CONTINUOUS
  0
LAYER
  2
_0-8_寸法
 70
   64
 62
    7
  6
CONTINUOUS
  0
LAYER
  2
_0-d_文字
 70
   64
 62
    7
  6
CONTINUOUS
  0
LAYER
  2
ADD_LINE
 70
   64
 62
    7
  6
CONTINUOUS
  0
ENDTAB
  0
ENDSEC
  0
SECTION
  2
BLOCKS
  0
ENDSEC
  0
SECTION
  2
ENTITIES
  0
LINE
  8
_0-d_文字
  6
CONTINUOUS
 62
    7
 10
150.00001
 20
1654.6207
 11
1110
 21
1654.6207
  0
LINE
  8
_0-d_文字
  6
CONTINUOUS
 62
    7
 10
150.00001
 20
1660.6207
 11
1110
 21
1660.6207
  0
LINE
  8
_0-d_文字
  6
CONTINUOUS
 62
    7
 10
149.99978
 20
113.99993
 11
1110.0001
 21
113.99993
  0
LINE
  8
_0-d_文字
  6
CONTINUOUS
 62
    7
 10
149.99978
 20
53.999881
 11
149.99978
 21
161.99994
  0
LINE
  8
_0-d_文字
  6
CONTINUOUS
 62
    7
 10
149.99978
 20
53.999881
 11
1110.0001
 21
53.999881
  0
LINE
  8
_0-d_文字
  6
CONTINUOUS
 62
    7
 10
1110.0001
 20
161.99994
 11
1110.0001
 21
53.999881
  0
LINE
  8
_0-d_文字
  6
CONTINUOUS
 62
    7
 10
149.99978
 20
161.99994
 11
1110.0001
 21
161.99994
  0
LINE
  8
_0-d_文字
  6
CONTINUOUS
 62
    7
 10
630
 20
161.99994
 11
630
 21
53.999881
  0
LINE
  8
_0-d_文字
  6
CONTINUOUS
 62
    7
 10
390.00009
 20
53.999881
 11
390.00009
 21
113.99993
  0
LINE
  8
_0-d_文字
  6
CONTINUOUS
 62
    7
 10
630
 20
113.99993
 11
630
 21
161.99994
  0
LINE
  8
_0-d_文字
  6
CONTINUOUS
 62
    7
 10
509.99982
 20
53.999881
 11
509.99982
 21
113.99993
  0
LINE
  8
_0-d_文字
  6
CONTINUOUS
 62
    7
 10
171
 20
53.999881
 11
171
 21
113.99993
  0
LINE
  8
_0-d_文字
  6
CONTINUOUS
 62
    7
 10
411.00001
 20
53.999881
 11
411.00001
 21
113.99993
  0
LINE
  8
_0-d_文字
  6
CONTINUOUS
 62
    7
 10
531.00004
 20
53.999881
 11
531.00004
 21
113.99993
  0
LINE
  8
_0-d_文字
  6
CONTINUOUS
 62
    7
 10
609
 20
113.99993
 11
609
 21
161.99994
  0
LINE
  8
_0-d_文字
  6
CONTINUOUS
 62
    7
 10
930.00017
 20
113.99993
 11
930.00017
 21
161.99994
  0
LINE
  8
_0-d_文字
  6
CONTINUOUS
 62
    7
 10
951.00009
 20
113.99993
 11
951.00009
 21
161.99994
  0
LINE
  8
_0-8_寸法
  6
CONTINUOUS
 62
    7
 10
304.99991
 20
1574.9174
 11
955.00097
 21
1574.9174
  0
LINE
  8
_0-2_躯体
  6
CONTINUOUS
 62
    3
 10
304.99991
 20
1414.474
 11
304.99991
 21
1302.7231
  0
LINE
  8
_0-2_躯体
  6
CONTINUOUS
 62
    3
 10
304.99991
 20
1289.7233
 11
304.99991
 21
1267.4736
  0
LINE
  8
_0-2_躯体
  6
CONTINUOUS
 62
    3
 10
955.00097
 20
1414.474
 11
955.00097
 21
1302.7231
  0
LINE
  8
_0-2_躯体
  6
CONTINUOUS
 62
    3
 10
422.49988
 20
1254.4741
 11
422.49988
 21
1222.4738
  0
LINE
  8
_0-8_寸法
  6
CONTINUOUS
 62
    7
 10
304.99991
 20
1452.7892
 11
304.99991
 21
1574.9174
  0
LINE
  8
_0-8_寸法
  6
CONTINUOUS
 62
    7
 10
955.00097
 20
1452.7892
 11
955.00097
 21
1574.9174
  0
LINE
  8
_0-2_躯体
  6
CONTINUOUS
 62
    3
 10
955.00008
 20
1289.7233
 11
955.00008
 21
1267.4736
  0
LINE
  8
_0-8_寸法
  6
CONTINUOUS
 62
    7
 10
319.99996
 20
988.69262
 11
319.99996
 21
934.93451
  0
LINE
  8
_0-8_寸法
  6
CONTINUOUS
 62
    7
 10
939.99988
 20
988.69262
 11
939.99988
 21
934.93451
  0
LINE
  8
_0-8_寸法
  6
CONTINUOUS
 62
    7
 10
150.00049
 20
1059.4741
 11
150.00049
 21
1489.4741
  0
LINE
  8
_0-8_寸法
  6
CONTINUOUS
 62
    7
 10
319.99996
 20
934.93451
 11
939.99988
 21
934.93451
  0
LINE
  8
_0-8_寸法
  6
CONTINUOUS
 62
    7
 10
273.85976
 20
1059.4741
 11
150.00049
 21
1059.4741
  0
LINE
  8
_0-8_寸法
  6
CONTINUOUS
 62
    7
 10
273.85976
 20
1489.4741
 11
150.00049
 21
1489.4741
  0
LINE
  8
_0-2_躯体
  6
CONTINUOUS
 62
    3
 10
319.99996
 20
1059.4741
 11
319.99996
 21
1119.474
  0
LINE
  8
_0-2_躯体
  6
CONTINUOUS
 62
    3
 10
319.99996
 20
1059.4741
 11
939.99988
 21
1059.4741
  0
LINE
  8
_0-2_躯体
  6
CONTINUOUS
 62
    3
 10
939.99988
 20
1059.4741
 11
939.99988
 21
1119.474
  0
LINE
  8
_0-2_躯体
  6
CONTINUOUS
 62
    3
 10
319.99996
 20
1119.474
 11
939.99988
 21
1119.474
  0
LINE
  8
_0-2_躯体
  6
CONTINUOUS
 62
    3
 10
319.99996
 20
1119.474
 11
466.89905
 21
1204.2863
  0
LINE
  8
_0-2_躯体
  6
CONTINUOUS
 62
    3
 10
466.89905
 20
1204.2863
 11
466.89905
 21
1119.474
  0
LINE
  8
_0-2_躯体
  6
CONTINUOUS
 62
    3
 10
422.49988
 20
1209.4741
 11
422.49988
 21
1178.6525
  0
LINE
  8
_0-3_軸組
  6
CONTINUOUS
 62
    3
 10
644.76235
 20
1291.0236
 11
648.64736
 21
1293.4112
  0
LINE
  8
_0-3_軸組
  6
CONTINUOUS
 62
    3
 10
648.64736
 20
1293.4112
 11
652.5138
 21
1295.8463
  0
LINE
  8
_0-3_軸組
  6
CONTINUOUS
 62
    3
 10
652.5138
 20
1295.8463
 11
656.34402
 21
1298.3725
  0
LINE
  8
_0-3_軸組
  6
CONTINUOUS
 62
    3
 10
656.34402
 20
1298.3725
 11
660.09467
 21
1301.0394
  0
LINE
  8
_0-3_軸組
  6
CONTINUOUS
 62
    3
 10
660.09467
 20
1301.0394
 11
663.69788
 21
1303.9004
  0
LINE
  8
_0-3_軸組
  6
CONTINUOUS
 62
    3
 10
663.69788
 20
1303.9004
 11
667.07781
 21
1307.002
  0
LINE
  8
_0-3_軸組
  6
CONTINUOUS
 62
    3
 10
667.07781
 20
1307.002
 11
670.16052
 21
1310.4002
  0
LINE
  8
_0-3_軸組
  6
CONTINUOUS
 62
    3
 10
670.16052
 20
1310.4002
 11
672.87251
 21
1314.1421
  0
LINE
  8
_0-3_軸組
  6
CONTINUOUS
 62
    3
 10
672.87251
 20
1314.1421
 11
675.23769
 21
1318.1898
  0
LINE
  8
_0-3_軸組
  6
CONTINUOUS
 62
    3
 10
675.23769
 20
1318.1898
 11
677.47266
 21
1322.3233
  0
LINE
  8
_0-3_軸組
  6
CONTINUOUS
 62
    3
 10
677.47266
 20
1322.3233
 11
679.80384
 21
1326.309
  0
LINE
  8
_0-3_軸組
  6
CONTINUOUS
 62
    3
 10
679.80384
 20
1326.309
 11
682.47114
 21
1329.9137
  0
LINE
  8
_0-3_軸組
  6
CONTINUOUS
 62
    3
 10
682.47114
 20
1329.9137
 11
685.69964
 21
1332.9024
  0
LINE
  8
_0-3_軸組
  6
CONTINUOUS
 62
    3
 10
685.69964
 20
1332.9024
 11
689.56104
 21
1335.2135
  0
LINE
  8
_0-3_軸組
  6
CONTINUOUS
 62
    3
 10
689.56104
 20
1335.2135
 11
693.81972
 21
1337.1014
  0
LINE
  8
_0-3_軸組
  6
CONTINUOUS
 62
    3
 10
693.81972
 20
1337.1014
 11
695.83586
 21
1337.907
  0
LINE
  8
_0-3_軸組
  6
CONTINUOUS
 62
    3
 10
693.81972
 20
1337.1014
 11
696.62421
 21
1337.5471
  0
LINE
  8
_0-3_軸組
  6
CONTINUOUS
 62
    3
 10
696.62421
 20
1337.5471
 11
699.45378
 21
1337.9347
  0
LINE
  8
_0-3_軸組
  6
CONTINUOUS
 62
    3
 10
699.45378
 20
1337.9347
 11
702.32997
 21
1338.2122
  0
LINE
  8
_0-3_軸組
  6
CONTINUOUS
 62
    3
 10
702.32997
 20
1338.2122
 11
705.27698
 21
1338.3176
  0
LINE
  8
_0-3_軸組
  6
CONTINUOUS
 62
    3
 10
705.27698
 20
1338.3176
 11
708.31381
 21
1338.1987
  0
LINE
  8
_0-3_軸組
  6
CONTINUOUS
 62
    3
 10
708.31381
 20
1338.1987
 11
711.35212
 21
1337.756
  0
LINE
  8
_0-3_軸組
  6
CONTINUOUS
 62
    3
 10
711.35212
 20
1337.756
 11
714.18659
 21
1336.8677
  0
LINE
  8
_0-3_軸組
  6
CONTINUOUS
 62
    3
 10
714.18659
 20
1336.8677
 11
716.6027
 21
1335.3962
  0
LINE
  8
_0-3_軸組
  6
CONTINUOUS
 62
    3
 10
716.6027
 20
1335.3962
 11
718.42643
 21
1333.2457
  0
LINE
  8
_0-3_軸組
  6
CONTINUOUS
 62
    3
 10
718.42643
 20
1333.2457
 11
719.84812
 21
1330.6634
  0
LINE
  8
_0-3_軸組
  6
CONTINUOUS
 62
    3
 10
643.23718
 20
1280.352
 11
647.78968
 21
1281.0276
  0
LINE
  8
_0-3_軸組
  6
CONTINUOUS
 62
    3
 10
647.78968
 20
1281.0276
 11
652.31442
 21
1281.7927
  0
LINE
  8
_0-3_軸組
  6
CONTINUOUS
 62
    3
 10
652.31442
 20
1281.7927
 11
656.78912
 21
1282.7271
  0
LINE
  8
_0-3_軸組
  6
CONTINUOUS
 62
    3
 10
656.78912
 20
1282.7271
 11
661.18335
 21
1283.923
  0
LINE
  8
_0-3_軸組
  6
CONTINUOUS
 62
    3
 10
661.18335
 20
1283.923
 11
665.47485
 21
1285.4625
  0
LINE
  8
_0-3_軸組
  6
CONTINUOUS
 62
    3
 10
665.47485
 20
1285.4625
 11
669.63896
 21
1287.367
  0
LINE
  8
_0-3_軸組
  6
CONTINUOUS
 62
    3
 10
669.63896
 20
1287.367
 11
673.65788
 21
1289.599
  0
LINE
  8
_0-3_軸組
  6
CONTINUOUS
 62
    3
 10
673.65788
 20
1289.599
 11
677.51007
 21
1292.1335
  0
LINE
  8
_0-3_軸組
  6
CONTINUOUS
 62
    3
 10
677.51007
 20
1292.1335
 11
681.17669
 21
1294.9252
  0
LINE
  8
_0-3_軸組
  6
CONTINUOUS
 62
    3
 10
681.17669
 20
1294.9252
 11
684.6405
 21
1297.9467
  0
LINE
  8
_0-3_軸組
  6
CONTINUOUS
 62
    3
 10
684.6405
 20
1297.9467
 11
687.92793
 21
1301.1437
  0
LINE
  8
_0-3_軸組
  6
CONTINUOUS
 62
    3
 10
687.92793
 20
1301.1437
 11
691.10551
 21
1304.4432
  0
LINE
  8
_0-3_軸組
  6
CONTINUOUS
 62
    3
 10
691.10551
 20
1304.4432
 11
694.2427
 21
1307.7733
  0
LINE
  8
_0-3_軸組
  6
CONTINUOUS
 62
    3
 10
694.2427
 20
1307.7733
 11
697.40602
 21
1311.0585
  0
LINE
  8
_0-3_軸組
  6
CONTINUOUS
 62
    3
 10
697.40602
 20
1311.0585
 11
700.66792
 21
1314.2286
  0
LINE
  8
_0-3_軸組
  6
CONTINUOUS
 62
    3
 10
700.66792
 20
1314.2286
 11
704.09046
 21
1317.22
  0
LINE
  8
_0-3_軸組
  6
CONTINUOUS
 62
    3
 10
704.09046
 20
1317.22
 11
707.66962
 21
1320.0309
  0
LINE
  8
_0-3_軸組
  6
CONTINUOUS
 62
    3
 10
707.66962
 20
1320.0309
 11
711.37588
 21
1322.7035
  0
LINE
  8
_0-3_軸組
  6
CONTINUOUS
 62
    3
 10
711.37588
 20
1322.7035
 11
715.17076
 21
1325.2722
  0
LINE
  8
_0-3_軸組
  6
CONTINUOUS
 62
    3
 10
715.17076
 20
1325.2722
 11
719.02533
 21
1327.7765
  0
LINE
  8
_0-3_軸組
  6
CONTINUOUS
 62
    3
 10
719.02533
 20
1327.7765
 11
721.75439
 21
1329.5207
  0
LINE
  8
_0-3_軸組
  6
CONTINUOUS
 62
    3
 10
721.75439
 20
1329.5207
 11
726.01263
 21
1331.287
  0
LINE
  8
_0-3_軸組
  6
CONTINUOUS
 62
    3
 10
726.01263
 20
1331.287
 11
730.29493
 21
1332.9358
  0
LINE
  8
_0-3_軸組
  6
CONTINUOUS
 62
    3
 10
730.29493
 20
1332.9358
 11
734.62814
 21
1334.3516
  0
LINE
  8
_0-3_軸組
  6
CONTINUOUS
 62
    3
 10
734.62814
 20
1334.3516
 11
739.03722
 21
1335.4184
  0
LINE
  8
_0-3_軸組
  6
CONTINUOUS
 62
    3
 10
739.03722
 20
1335.4184
 11
743.53271
 21
1336.0717
  0
LINE
  8
_0-3_軸組
  6
CONTINUOUS
 62
    3
 10
743.53271
 20
1336.0717
 11
748.09278
 21
1336.3588
  0
LINE
  8
_0-3_軸組
  6
CONTINUOUS
 62
    3
 10
748.09278
 20
1336.3588
 11
752.69115
 21
1336.342
  0
LINE
  8
_0-3_軸組
  6
CONTINUOUS
 62
    3
 10
752.69115
 20
1336.342
 11
757.30303
 21
1336.0832
  0
LINE
  8
_0-3_軸組
  6
CONTINUOUS
 62
    3
 10
757.30303
 20
1336.0832
 11
761.90675
 21
1335.6463
  0
LINE
  8
_0-3_軸組
  6
CONTINUOUS
 62
    3
 10
761.90675
 20
1335.6463
 11
766.47498
 21
1335.0847
  0
LINE
  8
_0-3_軸組
  6
CONTINUOUS
 62
    3
 10
766.47498
 20
1335.0847
 11
771.00343
 21
1334.3857
  0
LINE
  8
_0-3_軸組
  6
CONTINUOUS
 62
    3
 10
771.00343
 20
1334.3857
 11
775.49268
 21
1333.5352
  0
LINE
  8
_0-3_軸組
  6
CONTINUOUS
 62
    3
 10
775.49268
 20
1333.5352
 11
779.9371
 21
1332.5032
  0
LINE
  8
_0-3_軸組
  6
CONTINUOUS
 62
    3
 10
779.9371
 20
1332.5032
 11
784.33875
 21
1331.2727
  0
LINE
  8
_0-3_軸組
  6
CONTINUOUS
 62
    3
 10
784.33875
 20
1331.2727
 11
788.69617
 21
1329.8155
  0
LINE
  8
_0-3_軸組
  6
CONTINUOUS
 62
    3
 10
788.69617
 20
1329.8155
 11
792.99153
 21
1328.1113
  0
LINE
  8
_0-3_軸組
  6
CONTINUOUS
 62
    3
 10
792.99153
 20
1328.1113
 11
797.18504
 21
1326.1412
  0
LINE
  8
_0-3_軸組
  6
CONTINUOUS
 62
    3
 10
797.18504
 20
1326.1412
 11
801.21524
 21
1323.8929
  0
LINE
  8
_0-3_軸組
  6
CONTINUOUS
 62
    3
 10
801.21524
 20
1323.8929
 11
805.02987
 21
1321.3457
  0
LINE
  8
_0-3_軸組
  6
CONTINUOUS
 62
    3
 10
805.02987
 20
1321.3457
 11
808.57341
 21
1318.4803
  0
LINE
  8
_0-3_軸組
  6
CONTINUOUS
 62
    3
 10
808.57341
 20
1318.4803
 11
811.79715
 21
1315.2888
  0
LINE
  8
_0-3_軸組
  6
CONTINUOUS
 62
    3
 10
811.79715
 20
1315.2888
 11
814.74267
 21
1311.8179
  0
LINE
  8
_0-3_軸組
  6
CONTINUOUS
 62
    3
 10
814.74267
 20
1311.8179
 11
817.48272
 21
1308.1447
  0
LINE
  8
_0-3_軸組
  6
CONTINUOUS
 62
    3
 10
817.48272
 20
1308.1447
 11
820.09539
 21
1304.3467
  0
LINE
  8
_0-3_軸組
  6
CONTINUOUS
 62
    3
 10
820.09539
 20
1304.3467
 11
821.61388
 21
1302.0785
  0
LINE
  8
_0-3_軸組
  6
CONTINUOUS
 62
    3
 10
820.09539
 20
1304.3467
 11
822.13855
 21
1300.1164
  0
LINE
  8
_0-3_軸組
  6
CONTINUOUS
 62
    3
 10
822.13855
 20
1300.1164
 11
824.07244
 21
1295.867
  0
LINE
  8
_0-3_軸組
  6
CONTINUOUS
 62
    3
 10
824.07244
 20
1295.867
 11
825.79344
 21
1291.5882
  0
LINE
  8
_0-3_軸組
  6
CONTINUOUS
 62
    3
 10
825.79344
 20
1291.5882
 11
827.19107
 21
1287.2558
  0
LINE
  8
_0-3_軸組
  6
CONTINUOUS
 62
    3
 10
827.19107
 20
1287.2558
 11
828.15936
 21
1282.8588
  0
LINE
  8
_0-3_軸組
  6
CONTINUOUS
 62
    3
 10
828.15936
 20
1282.8588
 11
828.59465
 21
1278.3787
  0
LINE
  8
_0-3_軸組
  6
CONTINUOUS
 62
    3
 10
828.59465
 20
1278.3787
 11
828.46994
 21
1273.835
  0
LINE
  8
_0-3_軸組
  6
CONTINUOUS
 62
    3
 10
828.46994
 20
1273.835
 11
827.86065
 21
1269.2709
  0
LINE
  8
_0-3_軸組
  6
CONTINUOUS
 62
    3
 10
827.86065
 20
1269.2709
 11
826.84575
 21
1264.7395
  0
LINE
  8
_0-3_軸組
  6
CONTINUOUS
 62
    3
 10
826.84575
 20
1264.7395
 11
825.49502
 21
1260.293
  0
LINE
  8
_0-3_軸組
  6
CONTINUOUS
 62
    3
 10
825.49502
 20
1260.293
 11
823.83074
 21
1255.9923
  0
LINE
  8
_0-3_軸組
  6
CONTINUOUS
 62
    3
 10
823.83074
 20
1255.9923
 11
821.80777
 21
1251.8986
  0
LINE
  8
_0-3_軸組
  6
CONTINUOUS
 62
    3
 10
821.80777
 20
1251.8986
 11
819.37742
 21
1248.0749
  0
LINE
  8
_0-3_軸組
  6
CONTINUOUS
 62
    3
 10
819.37742
 20
1248.0749
 11
816.54532
 21
1244.5443
  0
LINE
  8
_0-3_軸組
  6
CONTINUOUS
 62
    3
 10
816.54532
 20
1244.5443
 11
813.39759
 21
1241.2408
  0
LINE
  8
_0-3_軸組
  6
CONTINUOUS
 62
    3
 10
813.39759
 20
1241.2408
 11
810.03251
 21
1238.0961
  0
LINE
  8
_0-3_軸組
  6
CONTINUOUS
 62
    3
 10
810.03251
 20
1238.0961
 11
806.54479
 21
1235.0428
  0
LINE
  8
_0-3_軸組
  6
CONTINUOUS
 62
    3
 10
806.54479
 20
1235.0428
 11
805.60472
 21
1234.2349
  0
LINE
  8
_0-3_軸組
  6
CONTINUOUS
 62
    3
 10
806.54479
 20
1235.0428
 11
802.54221
 21
1232.7989
  0
LINE
  8
_0-3_軸組
  6
CONTINUOUS
 62
    3
 10
802.54221
 20
1232.7989
 11
798.52418
 21
1230.5962
  0
LINE
  8
_0-3_軸組
  6
CONTINUOUS
 62
    3
 10
798.52418
 20
1230.5962
 11
794.4729
 21
1228.4738
  0
LINE
  8
_0-3_軸組
  6
CONTINUOUS
 62
    3
 10
794.4729
 20
1228.4738
 11
790.36579
 21
1226.4716
  0
LINE
  8
_0-3_軸組
  6
CONTINUOUS
 62
    3
 10
790.36579
 20
1226.4716
 11
786.19336
 21
1224.6295
  0
LINE
  8
_0-3_軸組
  6
CONTINUOUS
 62
    3
 10
786.19336
 20
1224.6295
 11
781.93156
 21
1222.9867
  0
LINE
  8
_0-3_軸組
  6
CONTINUOUS
 62
    3
 10
781.93156
 20
1222.9867
 11
777.57979
 21
1221.5669
  0
LINE
  8
_0-3_軸組
  6
CONTINUOUS
 62
    3
 10
777.57979
 20
1221.5669
 11
773.15616
 21
1220.3754
  0
LINE
  8
_0-3_軸組
  6
CONTINUOUS
 62
    3
 10
773.15616
 20
1220.3754
 11
768.67745
 21
1219.4099
  0
LINE
  8
_0-3_軸組
  6
CONTINUOUS
 62
    3
 10
768.67745
 20
1219.4099
 11
764.15746
 21
1218.6717
  0
LINE
  8
_0-3_軸組
  6
CONTINUOUS
 62
    3
 10
764.15746
 20
1218.6717
 11
759.61773
 21
1218.155
  0
LINE
  8
_0-3_軸組
  6
CONTINUOUS
 62
    3
 10
759.61773
 20
1218.155
 11
755.06316
 21
1217.8208
  0
LINE
  8
_0-3_軸組
  6
CONTINUOUS
 62
    3
 10
755.06316
 20
1217.8208
 11
750.49671
 21
1217.6256
  0
LINE
  8
_0-3_軸組
  6
CONTINUOUS
 62
    3
 10
750.49671
 20
1217.6256
 11
745.92001
 21
1217.5198
  0
LINE
  8
_0-3_軸組
  6
CONTINUOUS
 62
    3
 10
745.92001
 20
1217.5198
 11
741.95305
 21
1217.4641
  0
LINE
  8
_0-3_軸組
  6
CONTINUOUS
 62
    3
 10
690.81615
 20
1217.0436
 11
695.09636
 21
1215.3113
  0
LINE
  8
_0-3_軸組
  6
CONTINUOUS
 62
    3
 10
695.09636
 20
1215.3113
 11
699.40182
 21
1213.5986
  0
LINE
  8
_0-3_軸組
  6
CONTINUOUS
 62
    3
 10
699.40182
 20
1213.5986
 11
703.7475
 21
1212.0203
  0
LINE
  8
_0-3_軸組
  6
CONTINUOUS
 62
    3
 10
703.7475
 20
1212.0203
 11
708.13476
 21
1210.7044
  0
LINE
  8
_0-3_軸組
  6
CONTINUOUS
 62
    3
 10
708.13476
 20
1210.7044
 11
712.57561
 21
1209.7765
  0
LINE
  8
_0-3_軸組
  6
CONTINUOUS
 62
    3
 10
712.57561
 20
1209.7765
 11
717.07986
 21
1209.3608
  0
LINE
  8
_0-3_軸組
  6
CONTINUOUS
 62
    3
 10
717.07986
 20
1209.3608
 11
721.63651
 21
1209.4257
  0
LINE
  8
_0-3_軸組
  6
CONTINUOUS
 62
    3
 10
721.63651
 20
1209.4257
 11
726.22657
 21
1209.7643
  0
LINE
  8
_0-3_軸組
  6
CONTINUOUS
 62
    3
 10
726.22657
 20
1209.7643
 11
727.08885
 21
1209.8405
  0
LINE
  8
_0-3_軸組
  6
CONTINUOUS
 62
    3
 10
726.22657
 20
1209.7643
 11
729.97944
 21
1210.6013
  0
LINE
  8
_0-3_軸組
  6
CONTINUOUS
 62
    3
 10
729.97944
 20
1210.6013
 11
733.58192
 21
1211.7594
  0
LINE
  8
_0-3_軸組
  6
CONTINUOUS
 62
    3
 10
733.58192
 20
1211.7594
 11
736.88687
 21
1213.5627
  0
LINE
  8
_0-3_軸組
  6
CONTINUOUS
 62
    3
 10
736.88687
 20
1213.5627
 11
739.70457
 21
1216.1501
  0
LINE
  8
_0-3_軸組
  6
CONTINUOUS
 62
    3
 10
739.70457
 20
1216.1501
 11
741.7939
 21
1219.3933
  0
LINE
  8
_0-3_軸組
  6
CONTINUOUS
 62
    3
 10
741.7939
 20
1219.3933
 11
742.93158
 21
1223.1018
  0
LINE
  8
_0-3_軸組
  6
CONTINUOUS
 62
    3
 10
742.93158
 20
1223.1018
 11
743.01561
 21
1226.937
  0
LINE
  8
_0-3_軸組
  6
CONTINUOUS
 62
    3
 10
743.01561
 20
1226.937
 11
742.00071
 21
1230.5304
  0
LINE
  8
_0-3_軸組
  6
CONTINUOUS
 62
    3
 10
742.00071
 20
1230.5304
 11
740.10408
 21
1233.7992
  0
LINE
  8
_0-3_軸組
  6
CONTINUOUS
 62
    3
 10
740.10408
 20
1233.7992
 11
737.76118
 21
1236.9022
  0
LINE
  8
_0-3_軸組
  6
CONTINUOUS
 62
    3
 10
649.82289
 20
1274.436
 11
654.43567
 21
1273.6508
  0
LINE
  8
_0-3_軸組
  6
CONTINUOUS
 62
    3
 10
654.43567
 20
1273.6508
 11
659.03315
 21
1272.9981
  0
LINE
  8
_0-3_軸組
  6
CONTINUOUS
 62
    3
 10
659.03315
 20
1272.9981
 11
663.59693
 21
1272.6105
  0
LINE
  8
_0-3_軸組
  6
CONTINUOUS
 62
    3
 10
663.59693
 20
1272.6105
 11
668.11142
 21
1272.6173
  0
LINE
  8
_0-3_軸組
  6
CONTINUOUS
 62
    3
 10
668.11142
 20
1272.6173
 11
672.55984
 21
1273.1485
  0
LINE
  8
_0-3_軸組
  6
CONTINUOUS
 62
    3
 10
672.55984
 20
1273.1485
 11
676.94279
 21
1274.2275
  0
LINE
  8
_0-3_軸組
  6
CONTINUOUS
 62
    3
 10
676.94279
 20
1274.2275
 11
681.26992
 21
1275.7085
  0
LINE
  8
_0-3_軸組
  6
CONTINUOUS
 62
    3
 10
681.26992
 20
1275.7085
 11
685.56201
 21
1277.4452
  0
LINE
  8
_0-3_軸組
  6
CONTINUOUS
 62
    3
 10
685.56201
 20
1277.4452
 11
689.82738
 21
1279.2804
  0
LINE
  8
_0-3_軸組
  6
CONTINUOUS
 62
    3
 10
689.82738
 20
1279.2804
 11
694.088
 21
1281.0821
  0
LINE
  8
_0-3_軸組
  6
CONTINUOUS
 62
    3
 10
694.088
 20
1281.0821
 11
698.34416
 21
1282.8165
  0
LINE
  8
_0-3_軸組
  6
CONTINUOUS
 62
    3
 10
698.34416
 20
1282.8165
 11
702.60018
 21
1284.499
  0
LINE
  8
_0-3_軸組
  6
CONTINUOUS
 62
    3
 10
702.60018
 20
1284.499
 11
706.85144
 21
1286.1398
  0
LINE
  8
_0-3_軸組
  6
CONTINUOUS
 62
    3
 10
706.85144
 20
1286.1398
 11
711.10255
 21
1287.7504
  0
LINE
  8
_0-3_軸組
  6
CONTINUOUS
 62
    3
 10
711.10255
 20
1287.7504
 11
715.35486
 21
1289.3458
  0
LINE
  8
_0-3_軸組
  6
CONTINUOUS
 62
    3
 10
715.35486
 20
1289.3458
 11
715.29547
 21
1285.4294
  0
LINE
  8
_0-3_軸組
  6
CONTINUOUS
 62
    3
 10
715.29547
 20
1285.4294
 11
715.2392
 21
1281.5177
  0
LINE
  8
_0-3_軸組
  6
CONTINUOUS
 62
    3
 10
715.2392
 20
1281.5177
 11
715.18279
 21
1277.6012
  0
LINE
  8
_0-3_軸組
  6
CONTINUOUS
 62
    3
 10
715.18279
 20
1277.6012
 11
715.12385
 21
1273.6886
  0
LINE
  8
_0-3_軸組
  6
CONTINUOUS
 62
    3
 10
715.12385
 20
1273.6886
 11
715.06802
 21
1269.7764
  0
LINE
  8
_0-3_軸組
  6
CONTINUOUS
 62
    3
 10
715.06802
 20
1269.7764
 11
715.01131
 21
1265.8598
  0
LINE
  8
_0-3_軸組
  6
CONTINUOUS
 62
    3
 10
715.01131
 20
1265.8598
 11
714.95237
 21
1261.9481
  0
LINE
  8
_0-3_軸組
  6
CONTINUOUS
 62
    3
 10
714.95237
 20
1261.9481
 11
714.8961
 21
1258.0319
  0
LINE
  8
_0-3_軸組
  6
CONTINUOUS
 62
    3
 10
714.8961
 20
1258.0319
 11
714.83791
 21
1254.1188
  0
LINE
  8
_0-3_軸組
  6
CONTINUOUS
 62
    3
 10
714.83791
 20
1254.1188
 11
714.7809
 21
1250.2036
  0
LINE
  8
_0-3_軸組
  6
CONTINUOUS
 62
    3
 10
737.76118
 20
1236.9022
 11
736.82556
 21
1237.727
  0
LINE
  8
_0-3_軸組
  6
CONTINUOUS
 62
    3
 10
736.82556
 20
1237.727
 11
735.48047
 21
1238.7248
  0
LINE
  8
_0-3_軸組
  6
CONTINUOUS
 62
    3
 10
735.48047
 20
1238.7248
 11
733.77967
 21
1239.866
  0
LINE
  8
_0-3_軸組
  6
CONTINUOUS
 62
    3
 10
733.77967
 20
1239.866
 11
731.76858
 21
1241.1234
  0
LINE
  8
_0-3_軸組
  6
CONTINUOUS
 62
    3
 10
731.76858
 20
1241.1234
 11
729.4763
 21
1242.4717
  0
LINE
  8
_0-3_軸組
  6
CONTINUOUS
 62
    3
 10
729.4763
 20
1242.4717
 11
726.94321
 21
1243.8935
  0
LINE
  8
_0-3_軸組
  6
CONTINUOUS
 62
    3
 10
726.94321
 20
1243.8935
 11
724.1938
 21
1245.3717
  0
LINE
  8
_0-3_軸組
  6
CONTINUOUS
 62
    3
 10
724.1938
 20
1245.3717
 11
721.24872
 21
1246.8897
  0
LINE
  8
_0-3_軸組
  6
CONTINUOUS
 62
    3
 10
721.24872
 20
1246.8897
 11
718.13455
 21
1248.4364
  0
LINE
  8
_0-3_軸組
  6
CONTINUOUS
 62
    3
 10
718.13455
 20
1248.4364
 11
714.86819
 21
1249.9996
  0
LINE
  8
_0-3_軸組
  6
CONTINUOUS
 62
    3
 10
714.86819
 20
1249.9996
 11
711.46198
 21
1251.5691
  0
LINE
  8
_0-3_軸組
  6
CONTINUOUS
 62
    3
 10
711.46198
 20
1251.5691
 11
707.93701
 21
1253.1409
  0
LINE
  8
_0-3_軸組
  6
CONTINUOUS
 62
    3
 10
707.93701
 20
1253.1409
 11
704.30335
 21
1254.7045
  0
LINE
  8
_0-3_軸組
  6
CONTINUOUS
 62
    3
 10
704.30335
 20
1254.7045
 11
700.57899
 21
1256.2555
  0
LINE
  8
_0-3_軸組
  6
CONTINUOUS
 62
    3
 10
700.57899
 20
1256.2555
 11
696.77371
 21
1257.7905
  0
LINE
  8
_0-3_軸組
  6
CONTINUOUS
 62
    3
 10
696.77371
 20
1257.7905
 11
692.90311
 21
1259.3019
  0
LINE
  8
_0-3_軸組
  6
CONTINUOUS
 62
    3
 10
692.90311
 20
1259.3019
 11
688.98099
 21
1260.7881
  0
LINE
  8
_0-3_軸組
  6
CONTINUOUS
 62
    3
 10
688.98099
 20
1260.7881
 11
685.02324
 21
1262.2467
  0
LINE
  8
_0-3_軸組
  6
CONTINUOUS
 62
    3
 10
685.02324
 20
1262.2467
 11
681.04648
 21
1263.6756
  0
LINE
  8
_0-3_軸組
  6
CONTINUOUS
 62
    3
 10
681.04648
 20
1263.6756
 11
677.06572
 21
1265.0664
  0
LINE
  8
_0-3_軸組
  6
CONTINUOUS
 62
    3
 10
677.06572
 20
1265.0664
 11
673.09669
 21
1266.4195
  0
LINE
  8
_0-3_軸組
  6
CONTINUOUS
 62
    3
 10
673.09669
 20
1266.4195
 11
669.15913
 21
1267.7343
  0
LINE
  8
_0-3_軸組
  6
CONTINUOUS
 62
    3
 10
669.15913
 20
1267.7343
 11
665.27472
 21
1269.0025
  0
LINE
  8
_0-3_軸組
  6
CONTINUOUS
 62
    3
 10
665.27472
 20
1269.0025
 11
661.45771
 21
1270.2247
  0
LINE
  8
_0-3_軸組
  6
CONTINUOUS
 62
    3
 10
661.45771
 20
1270.2247
 11
657.7332
 21
1271.3953
  0
LINE
  8
_0-3_軸組
  6
CONTINUOUS
 62
    3
 10
657.7332
 20
1271.3953
 11
654.12048
 21
1272.5091
  0
LINE
  8
_0-3_軸組
  6
CONTINUOUS
 62
    3
 10
654.12048
 20
1272.5091
 11
650.64004
 21
1273.5614
  0
LINE
  8
_0-3_軸組
  6
CONTINUOUS
 62
    3
 10
650.64004
 20
1273.5614
 11
647.31014
 21
1274.5499
  0
LINE
  8
_0-3_軸組
  6
CONTINUOUS
 62
    3
 10
647.31014
 20
1274.5499
 11
644.15232
 21
1275.4657
  0
LINE
  8
_0-3_軸組
  6
CONTINUOUS
 62
    3
 10
715.35486
 20
1289.3458
 11
715.40905
 21
1289.3643
  0
LINE
  8
_0-3_軸組
  6
CONTINUOUS
 62
    3
 10
653.11864
 20
1213.2195
 11
653.11864
 21
1204.2323
  0
LINE
  8
_0-3_軸組
  6
CONTINUOUS
 62
    3
 10
653.11864
 20
1204.2323
 11
680.42917
 21
1204.2323
  0
LINE
  8
_0-3_軸組
  6
CONTINUOUS
 62
    3
 10
680.42917
 20
1213.2195
 11
680.42917
 21
1204.2323
  0
LINE
  8
_0-3_軸組
  6
CONTINUOUS
 62
    3
 10
653.11864
 20
1213.2195
 11
680.42917
 21
1213.2195
  0
LINE
  8
_0-3_軸組
  6
CONTINUOUS
 62
    3
 10
640.46462
 20
1299.8646
 11
640.46462
 21
1270.3776
  0
LINE
  8
_0-3_軸組
  6
CONTINUOUS
 62
    3
 10
644.76235
 20
1291.0236
 11
644.31622
 21
1290.7712
  0
LINE
  8
_0-3_軸組
  6
CONTINUOUS
 62
    3
 10
644.31622
 20
1290.7712
 11
643.8594
 21
1290.506
  0
LINE
  8
_0-3_軸組
  6
CONTINUOUS
 62
    3
 10
643.8594
 20
1290.506
 11
643.39738
 21
1290.2285
  0
LINE
  8
_0-3_軸組
  6
CONTINUOUS
 62
    3
 10
643.39738
 20
1290.2285
 11
642.92526
 21
1289.9377
  0
LINE
  8
_0-3_軸組
  6
CONTINUOUS
 62
    3
 10
642.92526
 20
1289.9377
 11
642.44364
 21
1289.6374
  0
LINE
  8
_0-3_軸組
  6
CONTINUOUS
 62
    3
 10
642.44364
 20
1289.6374
 11
641.95401
 21
1289.3216
  0
LINE
  8
_0-3_軸組
  6
CONTINUOUS
 62
    3
 10
641.95401
 20
1289.3216
 11
641.45591
 21
1288.9954
  0
LINE
  8
_0-3_軸組
  6
CONTINUOUS
 62
    3
 10
641.45591
 20
1288.9954
 11
640.94802
 21
1288.6547
  0
LINE
  8
_0-3_軸組
  6
CONTINUOUS
 62
    3
 10
640.94802
 20
1288.6547
 11
640.4333
 21
1288.304
  0
LINE
  8
_0-3_軸組
  6
CONTINUOUS
 62
    3
 10
643.23718
 20
1280.352
 11
642.90626
 21
1280.2884
  0
LINE
  8
_0-3_軸組
  6
CONTINUOUS
 62
    3
 10
642.90626
 20
1280.2884
 11
642.58008
 21
1280.2295
  0
LINE
  8
_0-3_軸組
  6
CONTINUOUS
 62
    3
 10
642.58008
 20
1280.2295
 11
642.25955
 21
1280.1711
  0
LINE
  8
_0-3_軸組
  6
CONTINUOUS
 62
    3
 10
642.25955
 20
1280.1711
 11
641.94243
 21
1280.1138
  0
LINE
  8
_0-3_軸組
  6
CONTINUOUS
 62
    3
 10
641.94243
 20
1280.1138
 11
641.63199
 21
1280.0595
  0
LINE
  8
_0-3_軸組
  6
CONTINUOUS
 62
    3
 10
641.63199
 20
1280.0595
 11
641.32452
 21
1280.0086
  0
LINE
  8
_0-3_軸組
  6
CONTINUOUS
 62
    3
 10
641.32452
 20
1280.0086
 11
641.0227
 21
1279.9609
  0
LINE
  8
_0-3_軸組
  6
CONTINUOUS
 62
    3
 10
641.0227
 20
1279.9609
 11
640.72458
 21
1279.9145
  0
LINE
  8
_0-3_軸組
  6
CONTINUOUS
 62
    3
 10
640.72458
 20
1279.9145
 11
640.4333
 21
1279.8692
  0
LINE
  8
_0-3_軸組
  6
CONTINUOUS
 62
    3
 10
649.82289
 20
1274.436
 11
648.5657
 21
1274.7028
  0
LINE
  8
_0-3_軸組
  6
CONTINUOUS
 62
    3
 10
648.5657
 20
1274.7028
 11
647.35928
 21
1274.9604
  0
LINE
  8
_0-3_軸組
  6
CONTINUOUS
 62
    3
 10
647.35928
 20
1274.9604
 11
646.20824
 21
1275.2096
  0
LINE
  8
_0-3_軸組
  6
CONTINUOUS
 62
    3
 10
646.20824
 20
1275.2096
 11
645.11095
 21
1275.4515
  0
LINE
  8
_0-3_軸組
  6
CONTINUOUS
 62
    3
 10
645.11095
 20
1275.4515
 11
644.0668
 21
1275.684
  0
LINE
  8
_0-3_軸組
  6
CONTINUOUS
 62
    3
 10
644.0668
 20
1275.684
 11
643.07803
 21
1275.9099
  0
LINE
  8
_0-3_軸組
  6
CONTINUOUS
 62
    3
 10
643.07803
 20
1275.9099
 11
642.14211
 21
1276.1264
  0
LINE
  8
_0-3_軸組
  6
CONTINUOUS
 62
    3
 10
642.14211
 20
1276.1264
 11
641.26083
 21
1276.3354
  0
LINE
  8
_0-3_軸組
  6
CONTINUOUS
 62
    3
 10
641.26083
 20
1276.3354
 11
640.4333
 21
1276.5345
  0
LINE
  8
_0-3_軸組
  6
CONTINUOUS
 62
    3
 10
644.15232
 20
1275.4657
 11
643.66016
 21
1275.5995
  0
LINE
  8
_0-3_軸組
  6
CONTINUOUS
 62
    3
 10
643.66016
 20
1275.5995
 11
643.18819
 21
1275.7285
  0
LINE
  8
_0-3_軸組
  6
CONTINUOUS
 62
    3
 10
643.18819
 20
1275.7285
 11
642.73656
 21
1275.8556
  0
LINE
  8
_0-3_軸組
  6
CONTINUOUS
 62
    3
 10
642.73656
 20
1275.8556
 11
642.30617
 21
1275.9779
  0
LINE
  8
_0-3_軸組
  6
CONTINUOUS
 62
    3
 10
642.30617
 20
1275.9779
 11
641.89774
 21
1276.0957
  0
LINE
  8
_0-3_軸組
  6
CONTINUOUS
 62
    3
 10
641.89774
 20
1276.0957
 11
641.50758
 21
1276.2078
  0
LINE
  8
_0-3_軸組
  6
CONTINUOUS
 62
    3
 10
641.50758
 20
1276.2078
 11
641.1388
 21
1276.3176
  0
LINE
  8
_0-3_軸組
  6
CONTINUOUS
 62
    3
 10
641.1388
 20
1276.3176
 11
640.79154
 21
1276.4244
  0
LINE
  8
_0-3_軸組
  6
CONTINUOUS
 62
    3
 10
640.79154
 20
1276.4244
 11
640.46462
 21
1276.5283
  0
LINE
  8
_0-3_軸組
  6
CONTINUOUS
 62
    3
 10
636.4362
 20
1303.8951
 11
630.00074
 21
1303.8951
  0
LINE
  8
_0-3_軸組
  6
CONTINUOUS
 62
    3
 10
636.4362
 20
1241.982
 11
630.00074
 21
1241.982
  0
LINE
  8
_0-3_軸組
  6
CONTINUOUS
 62
    3
 10
633.36241
 20
1262.974
 11
635.69641
 21
1260.3392
  0
LINE
  8
_0-3_軸組
  6
CONTINUOUS
 62
    3
 10
635.69641
 20
1260.3392
 11
638.26201
 21
1257.602
  0
LINE
  8
_0-3_軸組
  6
CONTINUOUS
 62
    3
 10
638.26201
 20
1257.602
 11
641.02121
 21
1254.7942
  0
LINE
  8
_0-3_軸組
  6
CONTINUOUS
 62
    3
 10
641.02121
 20
1254.7942
 11
643.93912
 21
1251.9452
  0
LINE
  8
_0-3_軸組
  6
CONTINUOUS
 62
    3
 10
643.93912
 20
1251.9452
 11
646.98189
 21
1249.0822
  0
LINE
  8
_0-3_軸組
  6
CONTINUOUS
 62
    3
 10
646.98189
 20
1249.0822
 11
650.11923
 21
1246.2302
  0
LINE
  8
_0-3_軸組
  6
CONTINUOUS
 62
    3
 10
650.11923
 20
1246.2302
 11
653.32145
 21
1243.4117
  0
LINE
  8
_0-3_軸組
  6
CONTINUOUS
 62
    3
 10
653.32145
 20
1243.4117
 11
656.56226
 21
1240.6472
  0
LINE
  8
_0-3_軸組
  6
CONTINUOUS
 62
    3
 10
656.56226
 20
1240.6472
 11
659.81674
 21
1237.956
  0
LINE
  8
_0-3_軸組
  6
CONTINUOUS
 62
    3
 10
659.81674
 20
1237.956
 11
663.06246
 21
1235.3543
  0
LINE
  8
_0-3_軸組
  6
CONTINUOUS
 62
    3
 10
663.06246
 20
1235.3543
 11
666.27908
 21
1232.8568
  0
LINE
  8
_0-3_軸組
  6
CONTINUOUS
 62
    3
 10
666.27908
 20
1232.8568
 11
669.44819
 21
1230.4749
  0
LINE
  8
_0-3_軸組
  6
CONTINUOUS
 62
    3
 10
669.44819
 20
1230.4749
 11
672.55361
 21
1228.2198
  0
LINE
  8
_0-3_軸組
  6
CONTINUOUS
 62
    3
 10
672.55361
 20
1228.2198
 11
675.58183
 21
1226.0984
  0
LINE
  8
_0-3_軸組
  6
CONTINUOUS
 62
    3
 10
675.58183
 20
1226.0984
 11
678.52096
 21
1224.1169
  0
LINE
  8
_0-3_軸組
  6
CONTINUOUS
 62
    3
 10
678.52096
 20
1224.1169
 11
681.36078
 21
1222.2792
  0
LINE
  8
_0-3_軸組
  6
CONTINUOUS
 62
    3
 10
681.36078
 20
1222.2792
 11
684.09445
 21
1220.5864
  0
LINE
  8
_0-3_軸組
  6
CONTINUOUS
 62
    3
 10
684.09445
 20
1220.5864
 11
686.71617
 21
1219.0385
  0
LINE
  8
_0-3_軸組
  6
CONTINUOUS
 62
    3
 10
686.71617
 20
1219.0385
 11
689.22254
 21
1217.6322
  0
LINE
  8
_0-3_軸組
  6
CONTINUOUS
 62
    3
 10
689.22254
 20
1217.6322
 11
689.40708
 21
1217.5515
  0
LINE
  8
_0-3_軸組
  6
CONTINUOUS
 62
    3
 10
689.40708
 20
1217.5515
 11
689.58969
 21
1217.4748
  0
LINE
  8
_0-3_軸組
  6
CONTINUOUS
 62
    3
 10
689.58969
 20
1217.4748
 11
689.77082
 21
1217.4015
  0
LINE
  8
_0-3_軸組
  6
CONTINUOUS
 62
    3
 10
689.77082
 20
1217.4015
 11
689.94957
 21
1217.3325
  0
LINE
  8
_0-3_軸組
  6
CONTINUOUS
 62
    3
 10
689.94957
 20
1217.3325
 11
690.12654
 21
1217.2673
  0
LINE
  8
_0-3_軸組
  6
CONTINUOUS
 62
    3
 10
690.12654
 20
1217.2673
 11
690.30172
 21
1217.2055
  0
LINE
  8
_0-3_軸組
  6
CONTINUOUS
 62
    3
 10
690.30172
 20
1217.2055
 11
690.47528
 21
1217.1475
  0
LINE
  8
_0-3_軸組
  6
CONTINUOUS
 62
    3
 10
690.47528
 20
1217.1475
 11
690.64675
 21
1217.0942
  0
LINE
  8
_0-3_軸組
  6
CONTINUOUS
 62
    3
 10
690.64675
 20
1217.0942
 11
690.81615
 21
1217.0436
  0
LINE
  8
_0-3_軸組
  6
CONTINUOUS
 62
    3
 10
633.36241
 20
1262.974
 11
634.74238
 21
1263.6594
  0
LINE
  8
_0-3_軸組
  6
CONTINUOUS
 62
    3
 10
634.74238
 20
1263.6594
 11
635.97433
 21
1264.3789
  0
LINE
  8
_0-3_軸組
  6
CONTINUOUS
 62
    3
 10
635.97433
 20
1264.3789
 11
637.05871
 21
1265.1329
  0
LINE
  8
_0-3_軸組
  6
CONTINUOUS
 62
    3
 10
637.05871
 20
1265.1329
 11
637.99567
 21
1265.9211
  0
LINE
  8
_0-3_軸組
  6
CONTINUOUS
 62
    3
 10
637.99567
 20
1265.9211
 11
638.78475
 21
1266.7442
  0
LINE
  8
_0-3_軸組
  6
CONTINUOUS
 62
    3
 10
638.78475
 20
1266.7442
 11
639.42626
 21
1267.601
  0
LINE
  8
_0-3_軸組
  6
CONTINUOUS
 62
    3
 10
639.42626
 20
1267.601
 11
639.92006
 21
1268.4924
  0
LINE
  8
_0-3_軸組
  6
CONTINUOUS
 62
    3
 10
639.92006
 20
1268.4924
 11
640.26627
 21
1269.4176
  0
LINE
  8
_0-3_軸組
  6
CONTINUOUS
 62
    3
 10
640.26627
 20
1269.4176
 11
640.46462
 21
1270.3776
  0
LINE
  8
_0-3_軸組
  6
CONTINUOUS
 62
    3
 10
640.46581
 20
1246.0123
 11
640.46581
 21
1255.3594
  0
LINE
  8
_0-3_軸組
  6
CONTINUOUS
 62
    3
 10
692.79829
 20
1280.7931
 11
684.86334
 21
1298.2823
  0
LINE
  8
_0-3_軸組
  6
CONTINUOUS
 62
    3
 10
662.24843
 20
1185.7961
 11
630.00074
 21
1185.7961
  0
LINE
  8
_0-3_軸組
  6
CONTINUOUS
 62
    3
 10
667.63901
 20
1191.1866
 11
667.63901
 21
1204.2323
  0
LINE
  8
_0-3_軸組
  6
CONTINUOUS
 62
    3
 10
659.55322
 20
1180.9489
 11
630.00074
 21
1180.9489
  0
LINE
  8
_0-3_軸組
  6
CONTINUOUS
 62
    3
 10
662.24843
 20
1183.6444
 11
662.24843
 21
1185.7961
  0
LINE
  8
_0-3_軸組
  6
CONTINUOUS
 62
    3
 10
667.63901
 20
1230.5691
 11
667.63901
 21
1213.2195
  0
LINE
  8
_0-3_軸組
  6
CONTINUOUS
 62
    3
 10
660.98411
 20
1237.224
 11
630.00074
 21
1237.224
  0
LINE
  8
_0-2_躯体
  6
CONTINUOUS
 62
    3
 10
630
 20
1354.4738
 11
837.501
 21
1354.4738
  0
LINE
  8
_0-2_躯体
  6
CONTINUOUS
 62
    3
 10
630
 20
1341.474
 11
837.50219
 21
1341.474
  0
LINE
  8
_0-2_躯体
  6
CONTINUOUS
 62
    3
 10
837.50011
 20
1302.7231
 11
955.00097
 21
1302.7231
  0
LINE
  8
_0-2_躯体
  6
CONTINUOUS
 62
    3
 10
837.50011
 20
1289.7233
 11
955.00097
 21
1289.7233
  0
LINE
  8
_0-2_躯体
  6
CONTINUOUS
 62
    3
 10
837.50011
 20
1267.4736
 11
955.00097
 21
1267.4736
  0
LINE
  8
_0-2_躯体
  6
CONTINUOUS
 62
    3
 10
837.50011
 20
1254.4741
 11
955.00097
 21
1254.4741
  0
LINE
  8
_0-2_躯体
  6
CONTINUOUS
 62
    3
 10
304.99991
 20
1302.7231
 11
630
 21
1302.7231
  0
LINE
  8
_0-2_躯体
  6
CONTINUOUS
 62
    3
 10
304.99991
 20
1289.7233
 11
630
 21
1289.7233
  0
LINE
  8
_0-2_躯体
  6
CONTINUOUS
 62
    3
 10
304.99991
 20
1267.4736
 11
630
 21
1267.4736
  0
LINE
  8
_0-2_躯体
  6
CONTINUOUS
 62
    3
 10
304.99991
 20
1254.4741
 11
630
 21
1254.4741
  0
LINE
  8
_0-2_躯体
  6
CONTINUOUS
 62
    3
 10
837.50011
 20
1209.4741
 11
837.50011
 21
1178.6525
  0
LINE
  8
_0-2_躯体
  6
CONTINUOUS
 62
    3
 10
837.50011
 20
1341.474
 11
837.50011
 21
1222.4738
  0
LINE
  8
_0-2_躯体
  6
CONTINUOUS
 62
    3
 10
780.35962
 20
1222.4738
 11
837.501
 21
1222.4738
  0
LINE
  8
_0-2_躯体
  6
CONTINUOUS
 62
    3
 10
422.49988
 20
1222.4738
 11
630
 21
1222.4738
  0
LINE
  8
_0-2_躯体
  6
CONTINUOUS
 62
    3
 10
422.49988
 20
1209.4741
 11
630
 21
1209.4741
  0
LINE
  8
_0-2_躯体
  6
CONTINUOUS
 62
    3
 10
680.42917
 20
1209.4741
 11
837.501
 21
1209.4741
  0
LINE
  8
_0-2_躯体
  6
CONTINUOUS
 62
    3
 10
289.95384
 20
1411.0017
 11
630
 21
1489.4741
  0
LINE
  8
_0-2_躯体
  6
CONTINUOUS
 62
    3
 10
969.33397
 20
1411.1659
 11
630
 21
1489.4741
  0
LINE
  8
_0-2_躯体
  6
CONTINUOUS
 62
    3
 10
304.99991
 20
1414.474
 11
629.64368
 21
1414.474
  0
LINE
  8
_0-2_躯体
  6
CONTINUOUS
 62
    3
 10
630
 20
1354.4738
 11
837.501
 21
1354.4738
  0
LINE
  8
_0-5_建具
  6
CONTINUOUS
 62
    3
 10
837.501
 20
1441.5888
 11
630
 21
1441.5888
  0
LINE
  8
_0-5_建具
  6
CONTINUOUS
 62
    3
 10
837.501
 20
1354.4738
 11
837.501
 21
1441.5888
  0
LINE
  8
_0-5_建具
  6
CONTINUOUS
 62
    3
 10
837.501
 20
1436.5888
 11
630
 21
1436.5888
  0
LINE
  8
_0-5_建具
  6
CONTINUOUS
 62
    3
 10
630
 20
1359.4737
 11
837.501
 21
1359.4737
  0
LINE
  8
_0-5_建具
  6
CONTINUOUS
 62
    4
 10
837.501
 20
1433.589
 11
630
 21
1433.589
  0
LINE
  8
_0-5_建具
  6
CONTINUOUS
 62
    4
 10
837.501
 20
1430.5888
 11
630
 21
1430.5888
  0
LINE
  8
_0-5_建具
  6
CONTINUOUS
 62
    4
 10
837.501
 20
1427.589
 11
630
 21
1427.589
  0
LINE
  8
_0-5_建具
  6
CONTINUOUS
 62
    4
 10
837.501
 20
1424.5888
 11
630
 21
1424.5888
  0
LINE
  8
_0-5_建具
  6
CONTINUOUS
 62
    4
 10
837.501
 20
1421.5889
 11
630
 21
1421.5889
  0
LINE
  8
_0-5_建具
  6
CONTINUOUS
 62
    4
 10
837.501
 20
1418.5888
 11
630
 21
1418.5888
  0
LINE
  8
_0-5_建具
  6
CONTINUOUS
 62
    4
 10
837.501
 20
1415.5889
 11
630
 21
1415.5889
  0
LINE
  8
_0-5_建具
  6
CONTINUOUS
 62
    4
 10
837.501
 20
1412.5891
 11
630
 21
1412.5891
  0
LINE
  8
_0-5_建具
  6
CONTINUOUS
 62
    4
 10
837.501
 20
1409.5889
 11
630
 21
1409.5889
  0
LINE
  8
_0-5_建具
  6
CONTINUOUS
 62
    4
 10
837.501
 20
1406.589
 11
630
 21
1406.589
  0
LINE
  8
_0-5_建具
  6
CONTINUOUS
 62
    4
 10
837.501
 20
1403.589
 11
630
 21
1403.589
  0
LINE
  8
_0-5_建具
  6
CONTINUOUS
 62
    4
 10
837.501
 20
1400.589
 11
630
 21
1400.589
  0
LINE
  8
_0-5_建具
  6
CONTINUOUS
 62
    4
 10
837.501
 20
1397.5889
 11
630
 21
1397.5889
  0
LINE
  8
_0-5_建具
  6
CONTINUOUS
 62
    4
 10
837.501
 20
1394.589
 11
630
 21
1394.589
  0
LINE
  8
_0-5_建具
  6
CONTINUOUS
 62
    4
 10
837.501
 20
1391.5888
 11
630
 21
1391.5888
  0
LINE
  8
_0-5_建具
  6
CONTINUOUS
 62
    4
 10
837.501
 20
1388.589
 11
630
 21
1388.589
  0
LINE
  8
_0-5_建具
  6
CONTINUOUS
 62
    4
 10
837.501
 20
1385.589
 11
630
 21
1385.589
  0
LINE
  8
_0-5_建具
  6
CONTINUOUS
 62
    4
 10
837.501
 20
1382.5888
 11
630
 21
1382.5888
  0
LINE
  8
_0-5_建具
  6
CONTINUOUS
 62
    4
 10
837.501
 20
1379.5888
 11
630
 21
1379.5888
  0
LINE
  8
_0-5_建具
  6
CONTINUOUS
 62
    4
 10
837.501
 20
1376.5889
 11
630
 21
1376.5889
  0
LINE
  8
_0-5_建具
  6
CONTINUOUS
 62
    4
 10
837.501
 20
1373.5888
 11
630
 21
1373.5888
  0
LINE
  8
_0-5_建具
  6
CONTINUOUS
 62
    4
 10
837.501
 20
1370.5889
 11
630
 21
1370.5889
  0
LINE
  8
_0-5_建具
  6
CONTINUOUS
 62
    4
 10
837.501
 20
1367.5891
 11
630
 21
1367.5891
  0
LINE
  8
_0-5_建具
  6
CONTINUOUS
 62
    4
 10
837.501
 20
1364.5889
 11
630
 21
1364.5889
  0
LINE
  8
_0-5_建具
  6
CONTINUOUS
 62
    4
 10
837.501
 20
1361.589
 11
630
 21
1361.589
  0
LINE
  8
_0-5_建具
  6
CONTINUOUS
 62
    4
 10
834.50114
 20
1361.589
 11
834.50114
 21
1436.5888
  0
LINE
  8
_0-5_建具
  6
CONTINUOUS
 62
    4
 10
831.50098
 20
1361.589
 11
831.50098
 21
1436.5888
  0
LINE
  8
_0-5_建具
  6
CONTINUOUS
 62
    4
 10
828.50112
 20
1361.589
 11
828.50112
 21
1436.5888
  0
LINE
  8
_0-5_建具
  6
CONTINUOUS
 62
    4
 10
825.50096
 20
1361.589
 11
825.50096
 21
1436.5888
  0
LINE
  8
_0-5_建具
  6
CONTINUOUS
 62
    4
 10
822.5011
 20
1361.589
 11
822.5011
 21
1436.5888
  0
LINE
  8
_0-5_建具
  6
CONTINUOUS
 62
    4
 10
819.50094
 20
1361.589
 11
819.50094
 21
1436.5888
  0
LINE
  8
_0-5_建具
  6
CONTINUOUS
 62
    4
 10
816.50108
 20
1361.589
 11
816.50108
 21
1436.5888
  0
LINE
  8
_0-5_建具
  6
CONTINUOUS
 62
    4
 10
813.50092
 20
1361.589
 11
813.50092
 21
1436.5888
  0
LINE
  8
_0-5_建具
  6
CONTINUOUS
 62
    4
 10
810.50106
 20
1361.589
 11
810.50106
 21
1436.5888
  0
LINE
  8
_0-5_建具
  6
CONTINUOUS
 62
    4
 10
807.5009
 20
1361.589
 11
807.5009
 21
1436.5888
  0
LINE
  8
_0-5_建具
  6
CONTINUOUS
 62
    4
 10
804.50104
 20
1361.589
 11
804.50104
 21
1436.5888
  0
LINE
  8
_0-5_建具
  6
CONTINUOUS
 62
    4
 10
801.50118
 20
1361.589
 11
801.50118
 21
1436.5888
  0
LINE
  8
_0-5_建具
  6
CONTINUOUS
 62
    4
 10
798.50102
 20
1361.589
 11
798.50102
 21
1436.5888
  0
LINE
  8
_0-5_建具
  6
CONTINUOUS
 62
    4
 10
795.50116
 20
1361.589
 11
795.50116
 21
1436.5888
  0
LINE
  8
_0-5_建具
  6
CONTINUOUS
 62
    4
 10
792.501
 20
1361.589
 11
792.501
 21
1436.5888
  0
LINE
  8
_0-5_建具
  6
CONTINUOUS
 62
    4
 10
789.50114
 20
1361.589
 11
789.50114
 21
1436.5888
  0
LINE
  8
_0-5_建具
  6
CONTINUOUS
 62
    4
 10
786.50098
 20
1361.589
 11
786.50098
 21
1436.5888
  0
LINE
  8
_0-5_建具
  6
CONTINUOUS
 62
    4
 10
783.50112
 20
1361.589
 11
783.50112
 21
1436.5888
  0
LINE
  8
_0-5_建具
  6
CONTINUOUS
 62
    4
 10
780.50096
 20
1361.589
 11
780.50096
 21
1436.5888
  0
LINE
  8
_0-5_建具
  6
CONTINUOUS
 62
    4
 10
777.5011
 20
1361.589
 11
777.5011
 21
1436.5888
  0
LINE
  8
_0-5_建具
  6
CONTINUOUS
 62
    4
 10
774.50094
 20
1361.589
 11
774.50094
 21
1436.5888
  0
LINE
  8
_0-5_建具
  6
CONTINUOUS
 62
    4
 10
771.50108
 20
1361.589
 11
771.50108
 21
1436.5888
  0
LINE
  8
_0-5_建具
  6
CONTINUOUS
 62
    4
 10
768.50107
 20
1361.589
 11
768.50107
 21
1436.5888
  0
LINE
  8
_0-5_建具
  6
CONTINUOUS
 62
    4
 10
765.50106
 20
1361.589
 11
765.50106
 21
1436.5888
  0
LINE
  8
_0-5_建具
  6
CONTINUOUS
 62
    4
 10
762.50105
 20
1361.589
 11
762.50105
 21
1436.5888
  0
LINE
  8
_0-5_建具
  6
CONTINUOUS
 62
    4
 10
759.50104
 20
1361.589
 11
759.50104
 21
1436.5888
  0
LINE
  8
_0-5_建具
  6
CONTINUOUS
 62
    4
 10
756.50103
 20
1361.589
 11
756.50103
 21
1436.5888
  0
LINE
  8
_0-5_建具
  6
CONTINUOUS
 62
    4
 10
753.50102
 20
1361.589
 11
753.50102
 21
1436.5888
  0
LINE
  8
_0-5_建具
  6
CONTINUOUS
 62
    4
 10
750.50116
 20
1361.589
 11
750.50116
 21
1436.5888
  0
LINE
  8
_0-5_建具
  6
CONTINUOUS
 62
    4
 10
747.501
 20
1361.589
 11
747.501
 21
1436.5888
  0
LINE
  8
_0-5_建具
  6
CONTINUOUS
 62
    4
 10
744.50099
 20
1361.589
 11
744.50099
 21
1436.5888
  0
LINE
  8
_0-5_建具
  6
CONTINUOUS
 62
    4
 10
741.50098
 20
1361.589
 11
741.50098
 21
1436.5888
  0
LINE
  8
_0-5_建具
  6
CONTINUOUS
 62
    4
 10
738.50112
 20
1361.589
 11
738.50112
 21
1436.5888
  0
LINE
  8
_0-5_建具
  6
CONTINUOUS
 62
    4
 10
735.50111
 20
1361.589
 11
735.50111
 21
1436.5888
  0
LINE
  8
_0-5_建具
  6
CONTINUOUS
 62
    4
 10
732.5011
 20
1361.589
 11
732.5011
 21
1436.5888
  0
LINE
  8
_0-5_建具
  6
CONTINUOUS
 62
    4
 10
729.50109
 20
1361.589
 11
729.50109
 21
1436.5888
  0
LINE
  8
_0-5_建具
  6
CONTINUOUS
 62
    4
 10
726.50108
 20
1361.589
 11
726.50108
 21
1436.5888
  0
LINE
  8
_0-5_建具
  6
CONTINUOUS
 62
    4
 10
723.50107
 20
1361.589
 11
723.50107
 21
1436.5888
  0
LINE
  8
_0-5_建具
  6
CONTINUOUS
 62
    4
 10
720.50106
 20
1361.589
 11
720.50106
 21
1436.5888
  0
LINE
  8
_0-5_建具
  6
CONTINUOUS
 62
    4
 10
717.50105
 20
1361.589
 11
717.50105
 21
1436.5888
  0
LINE
  8
_0-5_建具
  6
CONTINUOUS
 62
    4
 10
714.50104
 20
1361.589
 11
714.50104
 21
1436.5888
  0
LINE
  8
_0-5_建具
  6
CONTINUOUS
 62
    4
 10
711.50103
 20
1361.589
 11
711.50103
 21
1436.5888
  0
LINE
  8
_0-5_建具
  6
CONTINUOUS
 62
    4
 10
708.50102
 20
1361.589
 11
708.50102
 21
1436.5888
  0
LINE
  8
_0-5_建具
  6
CONTINUOUS
 62
    4
 10
705.50116
 20
1361.589
 11
705.50116
 21
1436.5888
  0
LINE
  8
_0-5_建具
  6
CONTINUOUS
 62
    4
 10
702.501
 20
1361.589
 11
702.501
 21
1436.5888
  0
LINE
  8
_0-5_建具
  6
CONTINUOUS
 62
    4
 10
699.50099
 20
1361.589
 11
699.50099
 21
1436.5888
  0
LINE
  8
_0-5_建具
  6
CONTINUOUS
 62
    4
 10
696.50113
 20
1361.589
 11
696.50113
 21
1436.5888
  0
LINE
  8
_0-5_建具
  6
CONTINUOUS
 62
    4
 10
693.50112
 20
1361.589
 11
693.50112
 21
1436.5888
  0
LINE
  8
_0-5_建具
  6
CONTINUOUS
 62
    4
 10
690.50111
 20
1361.589
 11
690.50111
 21
1436.5888
  0
LINE
  8
_0-5_建具
  6
CONTINUOUS
 62
    4
 10
687.5011
 20
1361.589
 11
687.5011
 21
1436.5888
  0
LINE
  8
_0-5_建具
  6
CONTINUOUS
 62
    4
 10
684.50109
 20
1361.589
 11
684.50109
 21
1436.5888
  0
LINE
  8
_0-5_建具
  6
CONTINUOUS
 62
    4
 10
681.50108
 20
1361.589
 11
681.50108
 21
1436.5888
  0
LINE
  8
_0-5_建具
  6
CONTINUOUS
 62
    4
 10
678.50092
 20
1361.589
 11
678.50092
 21
1436.5888
  0
LINE
  8
_0-5_建具
  6
CONTINUOUS
 62
    4
 10
675.50106
 20
1361.589
 11
675.50106
 21
1436.5888
  0
LINE
  8
_0-5_建具
  6
CONTINUOUS
 62
    4
 10
672.50105
 20
1361.589
 11
672.50105
 21
1436.5888
  0
LINE
  8
_0-5_建具
  6
CONTINUOUS
 62
    4
 10
669.50104
 20
1361.589
 11
669.50104
 21
1436.5888
  0
LINE
  8
_0-5_建具
  6
CONTINUOUS
 62
    4
 10
666.50103
 20
1361.589
 11
666.50103
 21
1436.5888
  0
LINE
  8
_0-5_建具
  6
CONTINUOUS
 62
    4
 10
663.50102
 20
1361.589
 11
663.50102
 21
1436.5888
  0
LINE
  8
_0-5_建具
  6
CONTINUOUS
 62
    4
 10
660.50101
 20
1361.589
 11
660.50101
 21
1436.5888
  0
LINE
  8
_0-5_建具
  6
CONTINUOUS
 62
    4
 10
657.501
 20
1361.589
 11
657.501
 21
1436.5888
  0
LINE
  8
_0-5_建具
  6
CONTINUOUS
 62
    4
 10
654.50114
 20
1361.589
 11
654.50114
 21
1436.5888
  0
LINE
  8
_0-5_建具
  6
CONTINUOUS
 62
    4
 10
651.50113
 20
1361.589
 11
651.50113
 21
1436.5888
  0
LINE
  8
_0-5_建具
  6
CONTINUOUS
 62
    4
 10
648.50112
 20
1361.589
 11
648.50112
 21
1436.5888
  0
LINE
  8
_0-5_建具
  6
CONTINUOUS
 62
    4
 10
645.50111
 20
1361.589
 11
645.50111
 21
1436.5888
  0
LINE
  8
_0-5_建具
  6
CONTINUOUS
 62
    4
 10
642.5011
 20
1361.589
 11
642.5011
 21
1436.5888
  0
LINE
  8
_0-5_建具
  6
CONTINUOUS
 62
    4
 10
639.50109
 20
1361.589
 11
639.50109
 21
1436.5888
  0
LINE
  8
_0-5_建具
  6
CONTINUOUS
 62
    4
 10
636.50108
 20
1361.589
 11
636.50108
 21
1436.5888
  0
LINE
  8
_0-5_建具
  6
CONTINUOUS
 62
    4
 10
633.50107
 20
1361.589
 11
633.50107
 21
1436.5888
  0
LINE
  8
_0-5_建具
  6
CONTINUOUS
 62
    4
 10
630.50106
 20
1361.589
 11
630.50106
 21
1436.5888
  0
LINE
  8
_0-2_躯体
  6
CONTINUOUS
 62
    3
 10
837.50011
 20
1414.474
 11
955.00008
 21
1414.474
  0
LINE
  8
_0-2_躯体
  6
CONTINUOUS
 62
    3
 10
837.50011
 20
1209.4741
 11
837.50011
 21
1119.474
  0
LINE
  8
_0-2_躯体
  6
CONTINUOUS
 62
    3
 10
939.99988
 20
1119.474
 11
837.50011
 21
1178.6524
  0
LINE
  8
_0-1_基準線
  6
CENTER2
 62
    7
 10
630
 20
1489.4741
 11
630
 21
1059.4741
  0
LINE
  8
_0-2_躯体
  6
CONTINUOUS
 62
    3
 10
795.99911
 20
1451.1664
 11
777.20239
 21
1441.5888
  0
LINE
  8
_0-2_躯体
  6
CONTINUOUS
 62
    3
 10
795.99911
 20
1451.1664
 11
630
 21
1451.1664
  0
ARC
  8
_0-2_躯体
  6
CONTINUOUS
 62
    3
 10
422.49988
 20
1215.9739
 40
6.4996993
 50
90
 51
270
  0
ARC
  8
_0-2_躯体
  6
CONTINUOUS
 62
    3
 10
837.50011
 20
1215.9739
 40
6.4996993
 50
270
 51
90
  0
ARC
  8
_0-2_躯体
  6
CONTINUOUS
 62
    3
 10
304.99991
 20
1296.2234
 40
6.4996993
 50
90
 51
270
  0
ARC
  8
_0-2_躯体
  6
CONTINUOUS
 62
    3
 10
304.99991
 20
1260.9739
 40
6.4996993
 50
90
 51
270
  0
ARC
  8
_0-2_躯体
  6
CONTINUOUS
 62
    3
 10
955.00008
 20
1296.2234
 40
6.4996993
 50
270
 51
90
  0
ARC
  8
_0-2_躯体
  6
CONTINUOUS
 62
    3
 10
955.00008
 20
1260.9739
 40
6.4996993
 50
270
 51
90
  0
ARC
  8
_0-3_軸組
  6
CONTINUOUS
 62
    3
 10
636.4362
 20
1246.0123
 40
4.0294089
 50
270
 51
0
  0
ARC
  8
_0-3_軸組
  6
CONTINUOUS
 62
    3
 10
636.4362
 20
1299.8646
 40
4.0294089
 50
0
 51
90
  0
ARC
  8
_0-3_軸組
  6
CONTINUOUS
 62
    3
 10
662.24843
 20
1191.1866
 40
5.3905494
 50
270
 51
0
  0
ARC
  8
_0-3_軸組
  6
CONTINUOUS
 62
    3
 10
659.55322
 20
1183.6444
 40
2.6952747
 50
270
 51
0
  0
ARC
  8
_0-2_躯体
  6
CONTINUOUS
 62
    3
 10
837.501
 20
1347.974
 40
6.4996993
 50
270
 51
90
  0
TEXT
  8
_0-d_文字
 62
    7
 10
152.99987
 20
94.499931
 40
15
 41
1
 50
0.0000354
  1
図
  0
TEXT
  8
_0-d_文字
 62
    7
 10
152.99987
 20
58.49997
 40
15
 41
1
 50
0
  1
番
  0
TEXT
  8
_0-d_文字
 62
    7
 10
393.00026
 20
94.499931
 40
15
 41
1
 50
0.0000354
  1
承
  0
TEXT
  8
_0-d_文字
 62
    7
 10
393.00026
 20
58.49997
 40
15
 41
1
 50
0
  1
認
  0
TEXT
  8
_0-d_文字
 62
    7
 10
612.00015
 20
142.49995
 40
15
 41
1
 50
0
  1
尺
  0
TEXT
  8
_0-d_文字
 62
    7
 10
612.00015
 20
118.49985
 40
15
 41
1
 50
0.0000708
  1
度
  0
TEXT
  8
_0-d_文字
 62
    7
 10
513.00006
 20
94.499931
 40
15
 41
1
 50
0.0000354
  1
製
  0
TEXT
  8
_0-d_文字
 62
    7
 10
513.00006
 20
58.49997
 40
15
 41
1
 50
0
  1
図
  0
TEXT
  8
_0-d_文字
 62
    7
 10
933.00002
 20
142.49995
 40
15
 41
1
 50
0
  1
日
  0
TEXT
  8
_0-d_文字
 62
    7
 10
933.00002
 20
118.49985
 40
15
 41
1
 50
0.0000708
  1
付
  0
TEXT
  8
_0-d_文字
 62
    7
 10
666.85579
 20
98.089352
 40
12
 41
1
 50
0
  1
株式
  0
TEXT
  8
_0-d_文字
 62
    7
 10
666.85579
 20
85.111074
 40
12
 41
1
 50
0.0000196
  1
会社
  0
TEXT
  8
_0-d_文字
 62
    3
 10
704.5348
 20
85.948271
 40
24
 41
1
 50
0
  1
スズキベンチレーター
  0
TEXT
  8
_0-d_文字
 62
    7
 10
742.75091
 20
56.414507
 40
12
 41
1
 50
0
  1
TEL(054)296-7000  FAX(054)296-7001
  0
TEXT
  8
_0-d_文字
 62
    3
 10
650.6094
 20
126.06037
 40
24
 41
1
 50
0.0000136
  1
１／６
  0
TEXT
  8
_0-8_寸法
 62
    3
 10
612.37512
 20
1594.4181
 40
18
 41
1
 50
0.0002835
  1
650
  0
TEXT
  8
_0-8_寸法
 62
    3
 10
600.99996
 20
947.93461
 40
18
 41
1
 50
0
  1
620*620
  0
TEXT
  8
_0-8_寸法
 62
    3
 10
144.00047
 20
1261.724
 40
18
 41
1
 50
90
  1
430
  0
TEXT
  8
_0-d_文字
 62
    7
 10
741.40752
 20
71.187555
 40
12
 41
1
 50
0
  1
〒421-2114　静岡市葵区安倍口新田１５２番地
  0
TEXT
  8
_0-d_文字
 62
    3
 10
152.99997
 20
1663.6207
 40
30
 41
1
 50
0
  1
ＳＴ－４０Ｌ　架台型（低騒音）網付断面
  0
TEXT
  8
_0-d_文字
 62
    3
 10
167.61647
 20
125.44811
 40
18
 41
1
 50
0
  1
ＳＴ－４０Ｌ　架台型（低騒音）網付断面
  0
TEXT
  8
_0-d_文字
 62
    3
 10
185.07555
 20
84.181282
 40
18
 41
1
 50
0
  1
40L-04b
  0
POINT
  8
_0-8_寸法
 62
    2
 10
150.00049
 20
1489.4741
  0
POINT
  8
_0-8_寸法
 62
    2
 10
304.99991
 20
1574.9174
  0
POINT
  8
_0-8_寸法
 62
    2
 10
955.00097
 20
1574.9174
  0
POINT
  8
_0-8_寸法
 62
    2
 10
319.99996
 20
934.93451
  0
POINT
  8
_0-8_寸法
 62
    2
 10
939.99988
 20
934.93451
  0
POINT
  8
_0-8_寸法
 62
    2
 10
150.00049
 20
1059.4741
  0
ENDSEC
  0
EOF
