  0
SECTION
  2
HEADER
  9
$ACADVER
  1
AC1009
  9
$INSBASE
 10
0
 20
0
 30
0
  9
$EXTMIN
 10
0
 20
0
  9
$EXTMAX
 10
8400
 20
5940
  9
$LIMMIN
 10
0
 20
0
  9
$LIMMAX
 10
8400
 20
5940
  9
$LTSCALE
 40
20
  0
ENDSEC
  0
SECTION
  2
TABLES
  0
TABLE
  2
LTYPE
 70
     9
  0
LTYPE
  2
CONTINUOUS
 70
    64
  3
実線
 72
    65
 73
     0
 40
0.0
  0
LTYPE
  2
DASHED1
 70
    64
  3
--  --  --  --  --  --  --  --  
 72
    65
 73
     2
 40
2.5
 49
1.25
 49
-1.25
  0
LTYPE
  2
DASHED2
 70
    64
  3
----    ----    ----    ----    
 72
    65
 73
     2
 40
5.0
 49
2.5
 49
-2.5
  0
LTYPE
  2
DASHED3
 70
    64
  3
------  ------  ------  ------  
 72
    65
 73
     2
 40
5.0
 49
3.75
 49
-1.25
  0
LTYPE
  2
CENTER1
 70
    64
  3
----- - ----- - ----- - ----- - 
 72
    65
 73
     4
 40
10.0
 49
6.25
 49
-1.25
 49
1.25
 49
-1.25
  0
LTYPE
  2
CENTER2
 70
    64
  3
----------  --  ----------  --  
 72
    65
 73
     4
 40
20.0
 49
12.5
 49
-2.5
 49
2.5
 49
-2.5
  0
LTYPE
  2
PHANTOM1
 70
    64
  3
--- - - --- - - --- - - --- - - 
 72
    65
 73
     6
 40
10.0
 49
3.25
 49
-1.25
 49
1.25
 49
-1.25
 49
1.25
 49
-1.25
  0
LTYPE
  2
PHANTOM2
 70
    64
  3
--------  -  -  --------  -  -  
 72
    65
 73
     6
 40
20.0
 49
10.0
 49
-2.5
 49
1.25
 49
-2.5
 49
1.25
 49
-2.5
  0
LTYPE
  2
DOT
 70
    64
  3
-   -   -   -   -   -   -   -   
 72
    65
 73
     2
 40
2.5
 49
0.625
 49
-1.875
  0
LTYPE
  2
DUMMY
 70
    64
  3
ダミー
 72
    65
 73
     0
 40
0.0
  0
LTYPE
  2
RAND1
 70
    64
  3
----- - ----- - ----- - ----- - 
 72
    65
 73
     4
 40
10.0
 49
6.25
 49
-1.25
 49
1.25
 49
-1.25
  0
LTYPE
  2
RAND2
 70
    64
  3
----------  --  ----------  --  
 72
    65
 73
     4
 40
20.0
 49
12.5
 49
-2.5
 49
2.5
 49
-2.5
  0
LTYPE
  2
RAND3
 70
    64
  3
--- - - --- - - --- - - --- - - 
 72
    65
 73
     6
 40
10.0
 49
3.25
 49
-1.25
 49
1.25
 49
-1.25
 49
1.25
 49
-1.25
  0
LTYPE
  2
RAND4
 70
    64
  3
--------  -  -  --------  -  -  
 72
    65
 73
     6
 40
20.0
 49
10.0
 49
-2.5
 49
1.25
 49
-2.5
 49
1.25
 49
-2.5
  0
LTYPE
  2
RAND5
 70
    64
  3
----- - ----- - ----- - ----- - 
 72
    65
 73
     4
 40
10.0
 49
6.25
 49
-1.25
 49
1.25
 49
-1.25
  0
LTYPE
  2
LONG1
 70
    64
  3
----------  --  ----------  --  
 72
    65
 73
     4
 40
20.0
 49
12.5
 49
-2.5
 49
2.5
 49
-2.5
  0
LTYPE
  2
LONG2
 70
    64
  3
--- - - --- - - --- - - --- - - 
 72
    65
 73
     6
 40
10.0
 49
3.25
 49
-1.25
 49
1.25
 49
-1.25
 49
1.25
 49
-1.25
  0
LTYPE
  2
LONG3
 70
    64
  3
--------  -  -  --------  -  -  
 72
    65
 73
     6
 40
20.0
 49
10.0
 49
-2.5
 49
1.25
 49
-2.5
 49
1.25
 49
-2.5
  0
LTYPE
  2
LONG4
 70
    64
  3
----- - ----- - ----- - ----- - 
 72
    65
 73
     4
 40
10.0
 49
6.25
 49
-1.25
 49
1.25
 49
-1.25
  0
LTYPE
  2
LONG5
 70
    64
  3
----------  --  ----------  --  
 72
    65
 73
     4
 40
20.0
 49
12.5
 49
-2.5
 49
2.5
 49
-2.5
  0
ENDTAB
  0
TABLE
  2
STYLE
  5
3
100
AcDbSymbolTable
 70
     1
  0
STYLE
  5
10
100
AcDbSymbolTableRecord
100
AcDbTextStyleTableRecord
  2
STANDARD
 70
     0
 40
0.0
 41
1.0
 50
0.0
 71
     0
 42
0.2
  3
txt
  4
bigfont.shx
  0
STYLE
  5
26
100
AcDbSymbolTableRecord
100
AcDbTextStyleTableRecord
  2
TATEGAKI
 70
    68
 40
0.0
 41
1.0
 50
0.0
 71
     0
 42
1.0
  3
txt
  4
bigfont.shx
  0
ENDTAB
  0
TABLE
  2
LAYER
 70
    7
  0
LAYER
  2
_0-1_基準線
 70
   64
 62
    7
  6
CONTINUOUS
  0
LAYER
  2
_0-2_躯体
 70
   64
 62
    7
  6
CONTINUOUS
  0
LAYER
  2
_0-3_軸組
 70
   64
 62
    7
  6
CONTINUOUS
  0
LAYER
  2
_0-4_仕上
 70
   64
 62
    7
  6
CONTINUOUS
  0
LAYER
  2
_0-8_寸法
 70
   64
 62
    7
  6
CONTINUOUS
  0
LAYER
  2
_0-d_文字
 70
   64
 62
    7
  6
CONTINUOUS
  0
LAYER
  2
ADD_LINE
 70
   64
 62
    7
  6
CONTINUOUS
  0
ENDTAB
  0
ENDSEC
  0
SECTION
  2
BLOCKS
  0
ENDSEC
  0
SECTION
  2
ENTITIES
  0
LINE
  8
_0-d_文字
  6
CONTINUOUS
 62
    7
 10
500.00004
 20
5515.4024
 11
3700
 21
5515.4024
  0
LINE
  8
_0-d_文字
  6
CONTINUOUS
 62
    7
 10
500.00004
 20
5535.4025
 11
3700
 21
5535.4025
  0
LINE
  8
_0-d_文字
  6
CONTINUOUS
 62
    7
 10
499.99979
 20
375.13522
 11
3699.9998
 21
375.13522
  0
LINE
  8
_0-d_文字
  6
CONTINUOUS
 62
    7
 10
499.99979
 20
175.13518
 11
499.99979
 21
535.13513
  0
LINE
  8
_0-d_文字
  6
CONTINUOUS
 62
    7
 10
499.99979
 20
175.13518
 11
3699.9998
 21
175.13518
  0
LINE
  8
_0-d_文字
  6
CONTINUOUS
 62
    7
 10
2100
 20
535.13513
 11
2100
 21
175.13518
  0
LINE
  8
_0-d_文字
  6
CONTINUOUS
 62
    7
 10
1299.9999
 20
175.13518
 11
1299.9999
 21
375.13522
  0
LINE
  8
_0-d_文字
  6
CONTINUOUS
 62
    7
 10
2100
 20
375.13522
 11
2100
 21
535.13513
  0
LINE
  8
_0-d_文字
  6
CONTINUOUS
 62
    7
 10
1699.9999
 20
175.13518
 11
1699.9999
 21
375.13522
  0
LINE
  8
_0-d_文字
  6
CONTINUOUS
 62
    7
 10
569.99965
 20
175.13518
 11
569.99965
 21
375.13522
  0
LINE
  8
_0-d_文字
  6
CONTINUOUS
 62
    7
 10
1369.9995
 20
175.13518
 11
1369.9995
 21
375.13522
  0
LINE
  8
_0-d_文字
  6
CONTINUOUS
 62
    7
 10
1769.9995
 20
175.13518
 11
1769.9995
 21
375.13522
  0
LINE
  8
_0-d_文字
  6
CONTINUOUS
 62
    7
 10
2029.9998
 20
375.13522
 11
2029.9998
 21
535.13513
  0
LINE
  8
_0-d_文字
  6
CONTINUOUS
 62
    7
 10
3099.9998
 20
375.13522
 11
3099.9998
 21
535.13513
  0
LINE
  8
_0-d_文字
  6
CONTINUOUS
 62
    7
 10
3169.9995
 20
375.13522
 11
3169.9995
 21
535.13513
  0
LINE
  8
_0-d_文字
  6
CONTINUOUS
 62
    7
 10
499.99979
 20
535.13513
 11
3699.9998
 21
535.13513
  0
LINE
  8
_0-d_文字
  6
CONTINUOUS
 62
    7
 10
3699.9998
 20
535.13513
 11
3699.9998
 21
175.13518
  0
LINE
  8
_0-8_寸法
  6
CONTINUOUS
 62
    7
 10
1300
 20
5095.9969
 11
2899.9999
 21
5095.9969
  0
LINE
  8
_0-2_躯体
  6
CONTINUOUS
 62
    3
 10
1300
 20
4771.7567
 11
1300
 21
4534.7563
  0
LINE
  8
_0-2_躯体
  6
CONTINUOUS
 62
    3
 10
2899.9999
 20
4771.7567
 11
2899.9999
 21
4534.7563
  0
LINE
  8
_0-8_寸法
  6
CONTINUOUS
 62
    7
 10
1299.9998
 20
4852.3048
 11
1300
 21
5095.9969
  0
LINE
  8
_0-8_寸法
  6
CONTINUOUS
 62
    7
 10
1604.554
 20
4956.7565
 11
1013.2748
 21
4956.7565
  0
LINE
  8
_0-8_寸法
  6
CONTINUOUS
 62
    7
 10
2899.9999
 20
4852.3048
 11
2899.9999
 21
5095.9969
  0
LINE
  8
_0-2_躯体
  6
CONTINUOUS
 62
    3
 10
1300
 20
4515.2571
 11
1300
 21
4456.7569
  0
LINE
  8
_0-2_躯体
  6
CONTINUOUS
 62
    3
 10
1300
 20
4437.2571
 11
1300
 21
4391.7564
  0
LINE
  8
_0-2_躯体
  6
CONTINUOUS
 62
    3
 10
2899.9999
 20
4515.2571
 11
2899.9999
 21
4456.7569
  0
LINE
  8
_0-2_躯体
  6
CONTINUOUS
 62
    3
 10
2899.9979
 20
4437.2571
 11
2899.9979
 21
4391.7564
  0
LINE
  8
_0-2_躯体
  6
CONTINUOUS
 62
    3
 10
1567.5
 20
4388.7564
 11
1567.5
 21
4244.7569
  0
LINE
  8
_0-2_躯体
  6
CONTINUOUS
 62
    3
 10
2632.5154
 20
4579.15
 11
2100.015
 21
4579.15
  0
LINE
  8
_0-2_躯体
  6
CONTINUOUS
 62
    3
 10
2100.015
 20
4601.7561
 11
2632.5149
 21
4601.7561
  0
LINE
  8
_0-2_躯体
  6
CONTINUOUS
 62
    3
 10
1300
 20
4771.7567
 11
2100
 21
4771.7567
  0
LINE
  8
_0-2_躯体
  6
CONTINUOUS
 62
    3
 10
2632.4999
 20
4391.7564
 11
2899.9999
 21
4391.7564
  0
LINE
  8
_0-2_躯体
  6
CONTINUOUS
 62
    3
 10
2632.4999
 20
4437.2571
 11
2899.9999
 21
4437.2571
  0
LINE
  8
_0-2_躯体
  6
CONTINUOUS
 62
    3
 10
2632.4999
 20
4456.7569
 11
2899.9999
 21
4456.7569
  0
LINE
  8
_0-2_躯体
  6
CONTINUOUS
 62
    3
 10
2632.4999
 20
4515.2571
 11
2899.9999
 21
4515.2571
  0
LINE
  8
_0-2_躯体
  6
CONTINUOUS
 62
    3
 10
2632.4999
 20
4534.7563
 11
2899.9999
 21
4534.7563
  0
LINE
  8
_0-2_躯体
  6
CONTINUOUS
 62
    3
 10
1300
 20
4391.7564
 11
2100
 21
4391.7564
  0
LINE
  8
_0-2_躯体
  6
CONTINUOUS
 62
    3
 10
1300
 20
4437.2571
 11
2100
 21
4437.2571
  0
LINE
  8
_0-2_躯体
  6
CONTINUOUS
 62
    3
 10
1300
 20
4456.7569
 11
2100
 21
4456.7569
  0
LINE
  8
_0-2_躯体
  6
CONTINUOUS
 62
    3
 10
1300
 20
4515.2571
 11
2100
 21
4515.2571
  0
LINE
  8
_0-2_躯体
  6
CONTINUOUS
 62
    3
 10
1300
 20
4534.7563
 11
2100
 21
4534.7563
  0
LINE
  8
_0-2_躯体
  6
CONTINUOUS
 62
    3
 10
1464.9998
 20
4056.7565
 11
1464.9998
 21
4126.7565
  0
LINE
  8
_0-2_躯体
  6
CONTINUOUS
 62
    3
 10
1464.9998
 20
4056.7565
 11
2735.0001
 21
4056.7565
  0
LINE
  8
_0-2_躯体
  6
CONTINUOUS
 62
    3
 10
2735.0001
 20
4056.7565
 11
2735.0001
 21
4126.7565
  0
LINE
  8
_0-2_躯体
  6
CONTINUOUS
 62
    3
 10
1464.9998
 20
4126.7565
 11
2735.0001
 21
4126.7565
  0
LINE
  8
_0-8_寸法
  6
CONTINUOUS
 62
    7
 10
1013.2748
 20
4056.7565
 11
1013.2748
 21
4956.7565
  0
LINE
  8
_0-8_寸法
  6
CONTINUOUS
 62
    7
 10
1313.897
 20
4056.7565
 11
1013.2748
 21
4056.7565
  0
LINE
  8
_0-2_躯体
  6
CONTINUOUS
 62
    3
 10
1625.1471
 20
4204.15
 11
1625.1471
 21
4126.7565
  0
LINE
  8
_0-8_寸法
  6
CONTINUOUS
 62
    7
 10
1464.9998
 20
3791.1499
 11
2735.0001
 21
3791.1499
  0
LINE
  8
_0-8_寸法
  6
CONTINUOUS
 62
    7
 10
1464.9998
 20
3985.3986
 11
1464.9998
 21
3791.1499
  0
LINE
  8
_0-8_寸法
  6
CONTINUOUS
 62
    7
 10
2735.0001
 20
3985.3986
 11
2735.0001
 21
3791.1499
  0
LINE
  8
_0-2_躯体
  6
CONTINUOUS
 62
    3
 10
1464.9998
 20
4126.7565
 11
1601.5488
 21
4204.15
  0
LINE
  8
_0-2_躯体
  6
CONTINUOUS
 62
    3
 10
1601.5488
 20
4204.15
 11
1625.1467
 21
4204.15
  0
LINE
  8
_0-2_躯体
  6
CONTINUOUS
 62
    3
 10
1625.1467
 20
4204.15
 11
1625.1467
 21
4126.7565
  0
LINE
  8
_0-3_軸組
  6
CONTINUOUS
 62
    3
 10
2137.3404
 20
4460.9643
 11
2147.1672
 21
4467.0043
  0
LINE
  8
_0-3_軸組
  6
CONTINUOUS
 62
    3
 10
2147.1672
 20
4467.0043
 11
2156.947
 21
4473.1636
  0
LINE
  8
_0-3_軸組
  6
CONTINUOUS
 62
    3
 10
2156.947
 20
4473.1636
 11
2166.635
 21
4479.5535
  0
LINE
  8
_0-3_軸組
  6
CONTINUOUS
 62
    3
 10
2166.635
 20
4479.5535
 11
2176.1221
 21
4486.2992
  0
LINE
  8
_0-3_軸組
  6
CONTINUOUS
 62
    3
 10
2176.1221
 20
4486.2992
 11
2185.2363
 21
4493.5353
  0
LINE
  8
_0-3_軸組
  6
CONTINUOUS
 62
    3
 10
2185.2363
 20
4493.5353
 11
2193.7853
 21
4501.3817
  0
LINE
  8
_0-3_軸組
  6
CONTINUOUS
 62
    3
 10
2193.7853
 20
4501.3817
 11
2201.5841
 21
4509.9762
  0
LINE
  8
_0-3_軸組
  6
CONTINUOUS
 62
    3
 10
2201.5841
 20
4509.9762
 11
2208.4427
 21
4519.4418
  0
LINE
  8
_0-3_軸組
  6
CONTINUOUS
 62
    3
 10
2208.4427
 20
4519.4418
 11
2214.4255
 21
4529.6804
  0
LINE
  8
_0-3_軸組
  6
CONTINUOUS
 62
    3
 10
2214.4255
 20
4529.6804
 11
2220.0778
 21
4540.1352
  0
LINE
  8
_0-3_軸組
  6
CONTINUOUS
 62
    3
 10
2220.0778
 20
4540.1352
 11
2225.9753
 21
4550.2169
  0
LINE
  8
_0-3_軸組
  6
CONTINUOUS
 62
    3
 10
2225.9753
 20
4550.2169
 11
2232.7222
 21
4559.3345
  0
LINE
  8
_0-3_軸組
  6
CONTINUOUS
 62
    3
 10
2232.7222
 20
4559.3345
 11
2240.8885
 21
4566.8948
  0
LINE
  8
_0-3_軸組
  6
CONTINUOUS
 62
    3
 10
2240.8885
 20
4566.8948
 11
2250.6552
 21
4572.7393
  0
LINE
  8
_0-3_軸組
  6
CONTINUOUS
 62
    3
 10
2250.6552
 20
4572.7393
 11
2261.427
 21
4577.5154
  0
LINE
  8
_0-3_軸組
  6
CONTINUOUS
 62
    3
 10
2261.427
 20
4577.5154
 11
2266.5267
 21
4579.5523
  0
LINE
  8
_0-3_軸組
  6
CONTINUOUS
 62
    3
 10
2261.427
 20
4577.5154
 11
2268.5206
 21
4578.6428
  0
LINE
  8
_0-3_軸組
  6
CONTINUOUS
 62
    3
 10
2268.5206
 20
4578.6428
 11
2275.6775
 21
4579.6236
  0
LINE
  8
_0-3_軸組
  6
CONTINUOUS
 62
    3
 10
2275.6775
 20
4579.6236
 11
2282.9535
 21
4580.3253
  0
LINE
  8
_0-3_軸組
  6
CONTINUOUS
 62
    3
 10
2282.9535
 20
4580.3253
 11
2290.4071
 21
4580.5916
  0
LINE
  8
_0-3_軸組
  6
CONTINUOUS
 62
    3
 10
2290.4071
 20
4580.5916
 11
2298.0881
 21
4580.2897
  0
LINE
  8
_0-3_軸組
  6
CONTINUOUS
 62
    3
 10
2298.0881
 20
4580.2897
 11
2305.7739
 21
4579.1703
  0
LINE
  8
_0-3_軸組
  6
CONTINUOUS
 62
    3
 10
2305.7739
 20
4579.1703
 11
2312.9439
 21
4576.925
  0
LINE
  8
_0-3_軸組
  6
CONTINUOUS
 62
    3
 10
2312.9439
 20
4576.925
 11
2319.0547
 21
4573.2025
  0
LINE
  8
_0-3_軸組
  6
CONTINUOUS
 62
    3
 10
2319.0547
 20
4573.2025
 11
2323.6675
 21
4567.7628
  0
LINE
  8
_0-3_軸組
  6
CONTINUOUS
 62
    3
 10
2323.6675
 20
4567.7628
 11
2327.2635
 21
4561.2319
  0
LINE
  8
_0-3_軸組
  6
CONTINUOUS
 62
    3
 10
2133.4825
 20
4433.9721
 11
2144.9979
 21
4435.6819
  0
LINE
  8
_0-3_軸組
  6
CONTINUOUS
 62
    3
 10
2144.9979
 20
4435.6819
 11
2156.443
 21
4437.6164
  0
LINE
  8
_0-3_軸組
  6
CONTINUOUS
 62
    3
 10
2156.443
 20
4437.6164
 11
2167.7611
 21
4439.9805
  0
LINE
  8
_0-3_軸組
  6
CONTINUOUS
 62
    3
 10
2167.7611
 20
4439.9805
 11
2178.8766
 21
4443.0057
  0
LINE
  8
_0-3_軸組
  6
CONTINUOUS
 62
    3
 10
2178.8766
 20
4443.0057
 11
2189.731
 21
4446.8999
  0
LINE
  8
_0-3_軸組
  6
CONTINUOUS
 62
    3
 10
2189.731
 20
4446.8999
 11
2200.2636
 21
4451.7165
  0
LINE
  8
_0-3_軸組
  6
CONTINUOUS
 62
    3
 10
2200.2636
 20
4451.7165
 11
2210.4296
 21
4457.3626
  0
LINE
  8
_0-3_軸組
  6
CONTINUOUS
 62
    3
 10
2210.4296
 20
4457.3626
 11
2220.1726
 21
4463.7738
  0
LINE
  8
_0-3_軸組
  6
CONTINUOUS
 62
    3
 10
2220.1726
 20
4463.7738
 11
2229.4471
 21
4470.8337
  0
LINE
  8
_0-3_軸組
  6
CONTINUOUS
 62
    3
 10
2229.4471
 20
4470.8337
 11
2238.2087
 21
4478.4766
  0
LINE
  8
_0-3_軸組
  6
CONTINUOUS
 62
    3
 10
2238.2087
 20
4478.4766
 11
2246.5244
 21
4486.563
  0
LINE
  8
_0-3_軸組
  6
CONTINUOUS
 62
    3
 10
2246.5244
 20
4486.563
 11
2254.5615
 21
4494.9091
  0
LINE
  8
_0-3_軸組
  6
CONTINUOUS
 62
    3
 10
2254.5615
 20
4494.9091
 11
2262.4962
 21
4503.331
  0
LINE
  8
_0-3_軸組
  6
CONTINUOUS
 62
    3
 10
2262.4962
 20
4503.331
 11
2270.4981
 21
4511.642
  0
LINE
  8
_0-3_軸組
  6
CONTINUOUS
 62
    3
 10
2270.4981
 20
4511.642
 11
2278.749
 21
4519.6605
  0
LINE
  8
_0-3_軸組
  6
CONTINUOUS
 62
    3
 10
2278.749
 20
4519.6605
 11
2287.4059
 21
4527.2272
  0
LINE
  8
_0-3_軸組
  6
CONTINUOUS
 62
    3
 10
2287.4059
 20
4527.2272
 11
2296.4588
 21
4534.3362
  0
LINE
  8
_0-3_軸組
  6
CONTINUOUS
 62
    3
 10
2296.4588
 20
4534.3362
 11
2305.834
 21
4541.0972
  0
LINE
  8
_0-3_軸組
  6
CONTINUOUS
 62
    3
 10
2305.834
 20
4541.0972
 11
2315.4322
 21
4547.594
  0
LINE
  8
_0-3_軸組
  6
CONTINUOUS
 62
    3
 10
2315.4322
 20
4547.594
 11
2325.1826
 21
4553.9295
  0
LINE
  8
_0-3_軸組
  6
CONTINUOUS
 62
    3
 10
2325.1826
 20
4553.9295
 11
2332.0846
 21
4558.3408
  0
LINE
  8
_0-3_軸組
  6
CONTINUOUS
 62
    3
 10
2332.0846
 20
4558.3408
 11
2342.8557
 21
4562.8081
  0
LINE
  8
_0-3_軸組
  6
CONTINUOUS
 62
    3
 10
2342.8557
 20
4562.8081
 11
2353.6876
 21
4566.9794
  0
LINE
  8
_0-3_軸組
  6
CONTINUOUS
 62
    3
 10
2353.6876
 20
4566.9794
 11
2364.6487
 21
4570.5594
  0
LINE
  8
_0-3_軸組
  6
CONTINUOUS
 62
    3
 10
2364.6487
 20
4570.5594
 11
2375.8006
 21
4573.2575
  0
LINE
  8
_0-3_軸組
  6
CONTINUOUS
 62
    3
 10
2375.8006
 20
4573.2575
 11
2387.1714
 21
4574.9109
  0
LINE
  8
_0-3_軸組
  6
CONTINUOUS
 62
    3
 10
2387.1714
 20
4574.9109
 11
2398.7056
 21
4575.6369
  0
LINE
  8
_0-3_軸組
  6
CONTINUOUS
 62
    3
 10
2398.7056
 20
4575.6369
 11
2410.3372
 21
4575.5943
  0
LINE
  8
_0-3_軸組
  6
CONTINUOUS
 62
    3
 10
2410.3372
 20
4575.5943
 11
2422.0028
 21
4574.9396
  0
LINE
  8
_0-3_軸組
  6
CONTINUOUS
 62
    3
 10
2422.0028
 20
4574.9396
 11
2433.6473
 21
4573.8345
  0
LINE
  8
_0-3_軸組
  6
CONTINUOUS
 62
    3
 10
2433.6473
 20
4573.8345
 11
2445.203
 21
4572.4132
  0
LINE
  8
_0-3_軸組
  6
CONTINUOUS
 62
    3
 10
2445.203
 20
4572.4132
 11
2456.6562
 21
4570.6465
  0
LINE
  8
_0-3_軸組
  6
CONTINUOUS
 62
    3
 10
2456.6562
 20
4570.6465
 11
2468.0122
 21
4568.4948
  0
LINE
  8
_0-3_軸組
  6
CONTINUOUS
 62
    3
 10
2468.0122
 20
4568.4948
 11
2479.2539
 21
4565.8848
  0
LINE
  8
_0-3_軸組
  6
CONTINUOUS
 62
    3
 10
2479.2539
 20
4565.8848
 11
2490.388
 21
4562.772
  0
LINE
  8
_0-3_軸組
  6
CONTINUOUS
 62
    3
 10
2490.388
 20
4562.772
 11
2501.4094
 21
4559.0866
  0
LINE
  8
_0-3_軸組
  6
CONTINUOUS
 62
    3
 10
2501.4094
 20
4559.0866
 11
2512.274
 21
4554.7762
  0
LINE
  8
_0-3_軸組
  6
CONTINUOUS
 62
    3
 10
2512.274
 20
4554.7762
 11
2522.8808
 21
4549.7928
  0
LINE
  8
_0-3_軸組
  6
CONTINUOUS
 62
    3
 10
2522.8808
 20
4549.7928
 11
2533.0746
 21
4544.1056
  0
LINE
  8
_0-3_軸組
  6
CONTINUOUS
 62
    3
 10
2533.0746
 20
4544.1056
 11
2542.7237
 21
4537.6628
  0
LINE
  8
_0-3_軸組
  6
CONTINUOUS
 62
    3
 10
2542.7237
 20
4537.6628
 11
2551.6872
 21
4530.4153
  0
LINE
  8
_0-3_軸組
  6
CONTINUOUS
 62
    3
 10
2551.6872
 20
4530.4153
 11
2559.8416
 21
4522.3428
  0
LINE
  8
_0-3_軸組
  6
CONTINUOUS
 62
    3
 10
2559.8416
 20
4522.3428
 11
2567.2908
 21
4513.5631
  0
LINE
  8
_0-3_軸組
  6
CONTINUOUS
 62
    3
 10
2567.2908
 20
4513.5631
 11
2574.2226
 21
4504.2722
  0
LINE
  8
_0-3_軸組
  6
CONTINUOUS
 62
    3
 10
2574.2226
 20
4504.2722
 11
2580.8314
 21
4494.6647
  0
LINE
  8
_0-3_軸組
  6
CONTINUOUS
 62
    3
 10
2580.8314
 20
4494.6647
 11
2584.6717
 21
4488.928
  0
LINE
  8
_0-3_軸組
  6
CONTINUOUS
 62
    3
 10
2580.8314
 20
4494.6647
 11
2585.9982
 21
4483.9649
  0
LINE
  8
_0-3_軸組
  6
CONTINUOUS
 62
    3
 10
2585.9982
 20
4483.9649
 11
2590.8906
 21
4473.2171
  0
LINE
  8
_0-3_軸組
  6
CONTINUOUS
 62
    3
 10
2590.8906
 20
4473.2171
 11
2595.2436
 21
4462.3936
  0
LINE
  8
_0-3_軸組
  6
CONTINUOUS
 62
    3
 10
2595.2436
 20
4462.3936
 11
2598.7785
 21
4451.4354
  0
LINE
  8
_0-3_軸組
  6
CONTINUOUS
 62
    3
 10
2598.7785
 20
4451.4354
 11
2601.2277
 21
4440.3125
  0
LINE
  8
_0-3_軸組
  6
CONTINUOUS
 62
    3
 10
2601.2277
 20
4440.3125
 11
2602.329
 21
4428.9818
  0
LINE
  8
_0-3_軸組
  6
CONTINUOUS
 62
    3
 10
2602.329
 20
4428.9818
 11
2602.0135
 21
4417.4887
  0
LINE
  8
_0-3_軸組
  6
CONTINUOUS
 62
    3
 10
2602.0135
 20
4417.4887
 11
2600.4725
 21
4405.9436
  0
LINE
  8
_0-3_軸組
  6
CONTINUOUS
 62
    3
 10
2600.4725
 20
4405.9436
 11
2597.9055
 21
4394.4822
  0
LINE
  8
_0-3_軸組
  6
CONTINUOUS
 62
    3
 10
2597.9055
 20
4394.4822
 11
2594.4886
 21
4383.2346
  0
LINE
  8
_0-3_軸組
  6
CONTINUOUS
 62
    3
 10
2594.4886
 20
4383.2346
 11
2590.2782
 21
4372.3571
  0
LINE
  8
_0-3_軸組
  6
CONTINUOUS
 62
    3
 10
2590.2782
 20
4372.3571
 11
2585.1614
 21
4362.0023
  0
LINE
  8
_0-3_軸組
  6
CONTINUOUS
 62
    3
 10
2585.1614
 20
4362.0023
 11
2579.015
 21
4352.3298
  0
LINE
  8
_0-3_軸組
  6
CONTINUOUS
 62
    3
 10
2579.015
 20
4352.3298
 11
2571.8524
 21
4343.3992
  0
LINE
  8
_0-3_軸組
  6
CONTINUOUS
 62
    3
 10
2571.8524
 20
4343.3992
 11
2563.8887
 21
4335.0442
  0
LINE
  8
_0-3_軸組
  6
CONTINUOUS
 62
    3
 10
2563.8887
 20
4335.0442
 11
2555.3781
 21
4327.089
  0
LINE
  8
_0-3_軸組
  6
CONTINUOUS
 62
    3
 10
2555.3781
 20
4327.089
 11
2546.5563
 21
4319.3669
  0
LINE
  8
_0-3_軸組
  6
CONTINUOUS
 62
    3
 10
2546.5563
 20
4319.3669
 11
2544.1774
 21
4317.3235
  0
LINE
  8
_0-3_軸組
  6
CONTINUOUS
 62
    3
 10
2546.5563
 20
4319.3669
 11
2536.4318
 21
4313.6901
  0
LINE
  8
_0-3_軸組
  6
CONTINUOUS
 62
    3
 10
2536.4318
 20
4313.6901
 11
2526.268
 21
4308.1193
  0
LINE
  8
_0-3_軸組
  6
CONTINUOUS
 62
    3
 10
2526.268
 20
4308.1193
 11
2516.0205
 21
4302.7508
  0
LINE
  8
_0-3_軸組
  6
CONTINUOUS
 62
    3
 10
2516.0205
 20
4302.7508
 11
2505.6323
 21
4297.6867
  0
LINE
  8
_0-3_軸組
  6
CONTINUOUS
 62
    3
 10
2505.6323
 20
4297.6867
 11
2495.0787
 21
4293.0264
  0
LINE
  8
_0-3_軸組
  6
CONTINUOUS
 62
    3
 10
2495.0787
 20
4293.0264
 11
2484.2982
 21
4288.8714
  0
LINE
  8
_0-3_軸組
  6
CONTINUOUS
 62
    3
 10
2484.2982
 20
4288.8714
 11
2473.2911
 21
4285.2806
  0
LINE
  8
_0-3_軸組
  6
CONTINUOUS
 62
    3
 10
2473.2911
 20
4285.2806
 11
2462.1019
 21
4282.2668
  0
LINE
  8
_0-3_軸組
  6
CONTINUOUS
 62
    3
 10
2462.1019
 20
4282.2668
 11
2450.7734
 21
4279.8245
  0
LINE
  8
_0-3_軸組
  6
CONTINUOUS
 62
    3
 10
2450.7734
 20
4279.8245
 11
2439.3402
 21
4277.9574
  0
LINE
  8
_0-3_軸組
  6
CONTINUOUS
 62
    3
 10
2439.3402
 20
4277.9574
 11
2427.858
 21
4276.6499
  0
LINE
  8
_0-3_軸組
  6
CONTINUOUS
 62
    3
 10
2427.858
 20
4276.6499
 11
2416.3372
 21
4275.8051
  0
LINE
  8
_0-3_軸組
  6
CONTINUOUS
 62
    3
 10
2416.3372
 20
4275.8051
 11
2404.7867
 21
4275.3112
  0
LINE
  8
_0-3_軸組
  6
CONTINUOUS
 62
    3
 10
2404.7867
 20
4275.3112
 11
2393.2104
 21
4275.044
  0
LINE
  8
_0-3_軸組
  6
CONTINUOUS
 62
    3
 10
2393.2104
 20
4275.044
 11
2383.1758
 21
4274.9025
  0
LINE
  8
_0-3_軸組
  6
CONTINUOUS
 62
    3
 10
2253.8293
 20
4273.8395
 11
2264.6568
 21
4269.4573
  0
LINE
  8
_0-3_軸組
  6
CONTINUOUS
 62
    3
 10
2264.6568
 20
4269.4573
 11
2275.5459
 21
4265.1251
  0
LINE
  8
_0-3_軸組
  6
CONTINUOUS
 62
    3
 10
2275.5459
 20
4265.1251
 11
2286.5382
 21
4261.1334
  0
LINE
  8
_0-3_軸組
  6
CONTINUOUS
 62
    3
 10
2286.5382
 20
4261.1334
 11
2297.6358
 21
4257.8049
  0
LINE
  8
_0-3_軸組
  6
CONTINUOUS
 62
    3
 10
2297.6358
 20
4257.8049
 11
2308.8686
 21
4255.4572
  0
LINE
  8
_0-3_軸組
  6
CONTINUOUS
 62
    3
 10
2308.8686
 20
4255.4572
 11
2320.2617
 21
4254.4065
  0
LINE
  8
_0-3_軸組
  6
CONTINUOUS
 62
    3
 10
2320.2617
 20
4254.4065
 11
2331.7877
 21
4254.5703
  0
LINE
  8
_0-3_軸組
  6
CONTINUOUS
 62
    3
 10
2331.7877
 20
4254.5703
 11
2343.3971
 21
4255.427
  0
LINE
  8
_0-3_軸組
  6
CONTINUOUS
 62
    3
 10
2343.3971
 20
4255.427
 11
2345.5785
 21
4255.6195
  0
LINE
  8
_0-3_軸組
  6
CONTINUOUS
 62
    3
 10
2343.3971
 20
4255.427
 11
2352.8904
 21
4257.5446
  0
LINE
  8
_0-3_軸組
  6
CONTINUOUS
 62
    3
 10
2352.8904
 20
4257.5446
 11
2362.0019
 21
4260.4733
  0
LINE
  8
_0-3_軸組
  6
CONTINUOUS
 62
    3
 10
2362.0019
 20
4260.4733
 11
2370.3624
 21
4265.0351
  0
LINE
  8
_0-3_軸組
  6
CONTINUOUS
 62
    3
 10
2370.3624
 20
4265.0351
 11
2377.4889
 21
4271.5788
  0
LINE
  8
_0-3_軸組
  6
CONTINUOUS
 62
    3
 10
2377.4889
 20
4271.5788
 11
2382.7732
 21
4279.783
  0
LINE
  8
_0-3_軸組
  6
CONTINUOUS
 62
    3
 10
2382.7732
 20
4279.783
 11
2385.6519
 21
4289.1624
  0
LINE
  8
_0-3_軸組
  6
CONTINUOUS
 62
    3
 10
2385.6519
 20
4289.1624
 11
2385.8642
 21
4298.864
  0
LINE
  8
_0-3_軸組
  6
CONTINUOUS
 62
    3
 10
2385.8642
 20
4298.864
 11
2383.2965
 21
4307.9525
  0
LINE
  8
_0-3_軸組
  6
CONTINUOUS
 62
    3
 10
2383.2965
 20
4307.9525
 11
2378.4992
 21
4316.221
  0
LINE
  8
_0-3_軸組
  6
CONTINUOUS
 62
    3
 10
2378.4992
 20
4316.221
 11
2372.5732
 21
4324.0702
  0
LINE
  8
_0-3_軸組
  6
CONTINUOUS
 62
    3
 10
2150.1409
 20
4419.0089
 11
2161.8084
 21
4417.022
  0
LINE
  8
_0-3_軸組
  6
CONTINUOUS
 62
    3
 10
2161.8084
 20
4417.022
 11
2173.4369
 21
4415.3711
  0
LINE
  8
_0-3_軸組
  6
CONTINUOUS
 62
    3
 10
2173.4369
 20
4415.3711
 11
2184.9809
 21
4414.3912
  0
LINE
  8
_0-3_軸組
  6
CONTINUOUS
 62
    3
 10
2184.9809
 20
4414.3912
 11
2196.3998
 21
4414.4085
  0
LINE
  8
_0-3_軸組
  6
CONTINUOUS
 62
    3
 10
2196.3998
 20
4414.4085
 11
2207.6519
 21
4415.7521
  0
LINE
  8
_0-3_軸組
  6
CONTINUOUS
 62
    3
 10
2207.6519
 20
4415.7521
 11
2218.7384
 21
4418.4809
  0
LINE
  8
_0-3_軸組
  6
CONTINUOUS
 62
    3
 10
2218.7384
 20
4418.4809
 11
2229.6832
 21
4422.2266
  0
LINE
  8
_0-3_軸組
  6
CONTINUOUS
 62
    3
 10
2229.6832
 20
4422.2266
 11
2240.5396
 21
4426.6192
  0
LINE
  8
_0-3_軸組
  6
CONTINUOUS
 62
    3
 10
2240.5396
 20
4426.6192
 11
2251.3285
 21
4431.2612
  0
LINE
  8
_0-3_軸組
  6
CONTINUOUS
 62
    3
 10
2251.3285
 20
4431.2612
 11
2262.1054
 21
4435.8195
  0
LINE
  8
_0-3_軸組
  6
CONTINUOUS
 62
    3
 10
2262.1054
 20
4435.8195
 11
2272.8713
 21
4440.2066
  0
LINE
  8
_0-3_軸組
  6
CONTINUOUS
 62
    3
 10
2272.8713
 20
4440.2066
 11
2283.6364
 21
4444.4626
  0
LINE
  8
_0-3_軸組
  6
CONTINUOUS
 62
    3
 10
2283.6364
 20
4444.4626
 11
2294.3892
 21
4448.6121
  0
LINE
  8
_0-3_軸組
  6
CONTINUOUS
 62
    3
 10
2294.3892
 20
4448.6121
 11
2305.1424
 21
4452.685
  0
LINE
  8
_0-3_軸組
  6
CONTINUOUS
 62
    3
 10
2305.1424
 20
4452.685
 11
2315.8986
 21
4456.7217
  0
LINE
  8
_0-3_軸組
  6
CONTINUOUS
 62
    3
 10
2315.8986
 20
4456.7217
 11
2315.7484
 21
4446.8157
  0
LINE
  8
_0-3_軸組
  6
CONTINUOUS
 62
    3
 10
2315.7484
 20
4446.8157
 11
2315.6059
 21
4436.9216
  0
LINE
  8
_0-3_軸組
  6
CONTINUOUS
 62
    3
 10
2315.6059
 20
4436.9216
 11
2315.4634
 21
4427.0141
  0
LINE
  8
_0-3_軸組
  6
CONTINUOUS
 62
    3
 10
2315.4634
 20
4427.0141
 11
2315.3142
 21
4417.118
  0
LINE
  8
_0-3_軸組
  6
CONTINUOUS
 62
    3
 10
2315.3142
 20
4417.118
 11
2315.1731
 21
4407.2229
  0
LINE
  8
_0-3_軸組
  6
CONTINUOUS
 62
    3
 10
2315.1731
 20
4407.2229
 11
2315.0291
 21
4397.3159
  0
LINE
  8
_0-3_軸組
  6
CONTINUOUS
 62
    3
 10
2315.0291
 20
4397.3159
 11
2314.8802
 21
4387.4208
  0
LINE
  8
_0-3_軸組
  6
CONTINUOUS
 62
    3
 10
2314.8802
 20
4387.4208
 11
2314.7381
 21
4377.5153
  0
LINE
  8
_0-3_軸組
  6
CONTINUOUS
 62
    3
 10
2314.7381
 20
4377.5153
 11
2314.5904
 21
4367.6172
  0
LINE
  8
_0-3_軸組
  6
CONTINUOUS
 62
    3
 10
2314.5904
 20
4367.6172
 11
2314.4466
 21
4357.7146
  0
LINE
  8
_0-3_軸組
  6
CONTINUOUS
 62
    3
 10
2372.5732
 20
4324.0702
 11
2370.2065
 21
4326.1557
  0
LINE
  8
_0-3_軸組
  6
CONTINUOUS
 62
    3
 10
2370.2065
 20
4326.1557
 11
2366.8039
 21
4328.68
  0
LINE
  8
_0-3_軸組
  6
CONTINUOUS
 62
    3
 10
2366.8039
 20
4328.68
 11
2362.5019
 21
4331.5662
  0
LINE
  8
_0-3_軸組
  6
CONTINUOUS
 62
    3
 10
2362.5019
 20
4331.5662
 11
2357.4163
 21
4334.7468
  0
LINE
  8
_0-3_軸組
  6
CONTINUOUS
 62
    3
 10
2357.4163
 20
4334.7468
 11
2351.6173
 21
4338.1575
  0
LINE
  8
_0-3_軸組
  6
CONTINUOUS
 62
    3
 10
2351.6173
 20
4338.1575
 11
2345.2096
 21
4341.7548
  0
LINE
  8
_0-3_軸組
  6
CONTINUOUS
 62
    3
 10
2345.2096
 20
4341.7548
 11
2338.2555
 21
4345.4931
  0
LINE
  8
_0-3_軸組
  6
CONTINUOUS
 62
    3
 10
2338.2555
 20
4345.4931
 11
2330.8064
 21
4349.3324
  0
LINE
  8
_0-3_軸組
  6
CONTINUOUS
 62
    3
 10
2330.8064
 20
4349.3324
 11
2322.9291
 21
4353.2439
  0
LINE
  8
_0-3_軸組
  6
CONTINUOUS
 62
    3
 10
2322.9291
 20
4353.2439
 11
2314.6676
 21
4357.198
  0
LINE
  8
_0-3_軸組
  6
CONTINUOUS
 62
    3
 10
2314.6676
 20
4357.198
 11
2306.0515
 21
4361.1684
  0
LINE
  8
_0-3_軸組
  6
CONTINUOUS
 62
    3
 10
2306.0515
 20
4361.1684
 11
2297.1355
 21
4365.1438
  0
LINE
  8
_0-3_軸組
  6
CONTINUOUS
 62
    3
 10
2297.1355
 20
4365.1438
 11
2287.9441
 21
4369.0988
  0
LINE
  8
_0-3_軸組
  6
CONTINUOUS
 62
    3
 10
2287.9441
 20
4369.0988
 11
2278.5236
 21
4373.0222
  0
LINE
  8
_0-3_軸組
  6
CONTINUOUS
 62
    3
 10
2278.5236
 20
4373.0222
 11
2268.8992
 21
4376.9051
  0
LINE
  8
_0-3_軸組
  6
CONTINUOUS
 62
    3
 10
2268.8992
 20
4376.9051
 11
2259.1087
 21
4380.7275
  0
LINE
  8
_0-3_軸組
  6
CONTINUOUS
 62
    3
 10
2259.1087
 20
4380.7275
 11
2249.1879
 21
4384.4881
  0
LINE
  8
_0-3_軸組
  6
CONTINUOUS
 62
    3
 10
2249.1879
 20
4384.4881
 11
2239.1767
 21
4388.1765
  0
LINE
  8
_0-3_軸組
  6
CONTINUOUS
 62
    3
 10
2239.1767
 20
4388.1765
 11
2229.1183
 21
4391.7911
  0
LINE
  8
_0-3_軸組
  6
CONTINUOUS
 62
    3
 10
2229.1183
 20
4391.7911
 11
2219.0494
 21
4395.3077
  0
LINE
  8
_0-3_軸組
  6
CONTINUOUS
 62
    3
 10
2219.0494
 20
4395.3077
 11
2209.0096
 21
4398.7307
  0
LINE
  8
_0-3_軸組
  6
CONTINUOUS
 62
    3
 10
2209.0096
 20
4398.7307
 11
2199.0501
 21
4402.0568
  0
LINE
  8
_0-3_軸組
  6
CONTINUOUS
 62
    3
 10
2199.0501
 20
4402.0568
 11
2189.2245
 21
4405.2651
  0
LINE
  8
_0-3_軸組
  6
CONTINUOUS
 62
    3
 10
2189.2245
 20
4405.2651
 11
2179.5699
 21
4408.3562
  0
LINE
  8
_0-3_軸組
  6
CONTINUOUS
 62
    3
 10
2179.5699
 20
4408.3562
 11
2170.1491
 21
4411.3175
  0
LINE
  8
_0-3_軸組
  6
CONTINUOUS
 62
    3
 10
2170.1491
 20
4411.3175
 11
2161.0112
 21
4414.1334
  0
LINE
  8
_0-3_軸組
  6
CONTINUOUS
 62
    3
 10
2161.0112
 20
4414.1334
 11
2152.208
 21
4416.7968
  0
LINE
  8
_0-3_軸組
  6
CONTINUOUS
 62
    3
 10
2152.208
 20
4416.7968
 11
2143.7849
 21
4419.2955
  0
LINE
  8
_0-3_軸組
  6
CONTINUOUS
 62
    3
 10
2143.7849
 20
4419.2955
 11
2135.7976
 21
4421.612
  0
LINE
  8
_0-3_軸組
  6
CONTINUOUS
 62
    3
 10
2315.8986
 20
4456.7217
 11
2316.0352
 21
4456.7692
  0
LINE
  8
_0-3_軸組
  6
CONTINUOUS
 62
    3
 10
2185.6146
 20
4222.5209
 11
2185.6146
 21
4189.2378
  0
LINE
  8
_0-3_軸組
  6
CONTINUOUS
 62
    3
 10
2185.6146
 20
4189.2378
 11
2286.7549
 21
4189.2378
  0
LINE
  8
_0-3_軸組
  6
CONTINUOUS
 62
    3
 10
2286.7549
 20
4222.5209
 11
2286.7549
 21
4189.2378
  0
LINE
  8
_0-3_軸組
  6
CONTINUOUS
 62
    3
 10
2185.6146
 20
4222.5209
 11
2286.7549
 21
4222.5209
  0
LINE
  8
_0-3_軸組
  6
CONTINUOUS
 62
    3
 10
2126.4698
 20
4483.3284
 11
2126.4698
 21
4408.7427
  0
LINE
  8
_0-3_軸組
  6
CONTINUOUS
 62
    3
 10
2137.3404
 20
4460.9643
 11
2136.2118
 21
4460.3269
  0
LINE
  8
_0-3_軸組
  6
CONTINUOUS
 62
    3
 10
2136.2118
 20
4460.3269
 11
2135.057
 21
4459.6574
  0
LINE
  8
_0-3_軸組
  6
CONTINUOUS
 62
    3
 10
2135.057
 20
4459.6574
 11
2133.8878
 21
4458.9541
  0
LINE
  8
_0-3_軸組
  6
CONTINUOUS
 62
    3
 10
2133.8878
 20
4458.9541
 11
2132.6934
 21
4458.2183
  0
LINE
  8
_0-3_軸組
  6
CONTINUOUS
 62
    3
 10
2132.6934
 20
4458.2183
 11
2131.4758
 21
4457.4586
  0
LINE
  8
_0-3_軸組
  6
CONTINUOUS
 62
    3
 10
2131.4758
 20
4457.4586
 11
2130.2364
 21
4456.6604
  0
LINE
  8
_0-3_軸組
  6
CONTINUOUS
 62
    3
 10
2130.2364
 20
4456.6604
 11
2128.9771
 21
4455.8349
  0
LINE
  8
_0-3_軸組
  6
CONTINUOUS
 62
    3
 10
2128.9771
 20
4455.8349
 11
2127.6929
 21
4454.9723
  0
LINE
  8
_0-3_軸組
  6
CONTINUOUS
 62
    3
 10
2127.6929
 20
4454.9723
 11
2126.3904
 21
4454.0855
  0
LINE
  8
_0-3_軸組
  6
CONTINUOUS
 62
    3
 10
2133.4825
 20
4433.9721
 11
2132.6457
 21
4433.8113
  0
LINE
  8
_0-3_軸組
  6
CONTINUOUS
 62
    3
 10
2132.6457
 20
4433.8113
 11
2131.8202
 21
4433.6623
  0
LINE
  8
_0-3_軸組
  6
CONTINUOUS
 62
    3
 10
2131.8202
 20
4433.6623
 11
2131.0103
 21
4433.5144
  0
LINE
  8
_0-3_軸組
  6
CONTINUOUS
 62
    3
 10
2131.0103
 20
4433.5144
 11
2130.2079
 21
4433.3703
  0
LINE
  8
_0-3_軸組
  6
CONTINUOUS
 62
    3
 10
2130.2079
 20
4433.3703
 11
2129.4225
 21
4433.2333
  0
LINE
  8
_0-3_軸組
  6
CONTINUOUS
 62
    3
 10
2129.4225
 20
4433.2333
 11
2128.6446
 21
4433.1046
  0
LINE
  8
_0-3_軸組
  6
CONTINUOUS
 62
    3
 10
2128.6446
 20
4433.1046
 11
2127.8815
 21
4432.9838
  0
LINE
  8
_0-3_軸組
  6
CONTINUOUS
 62
    3
 10
2127.8815
 20
4432.9838
 11
2127.1275
 21
4432.8651
  0
LINE
  8
_0-3_軸組
  6
CONTINUOUS
 62
    3
 10
2127.1275
 20
4432.8651
 11
2126.3904
 21
4432.7512
  0
LINE
  8
_0-3_軸組
  6
CONTINUOUS
 62
    3
 10
2150.1409
 20
4419.0089
 11
2146.9601
 21
4419.6825
  0
LINE
  8
_0-3_軸組
  6
CONTINUOUS
 62
    3
 10
2146.9601
 20
4419.6825
 11
2143.9091
 21
4420.3337
  0
LINE
  8
_0-3_軸組
  6
CONTINUOUS
 62
    3
 10
2143.9091
 20
4420.3337
 11
2140.997
 21
4420.9662
  0
LINE
  8
_0-3_軸組
  6
CONTINUOUS
 62
    3
 10
2140.997
 20
4420.9662
 11
2138.222
 21
4421.5764
  0
LINE
  8
_0-3_軸組
  6
CONTINUOUS
 62
    3
 10
2138.222
 20
4421.5764
 11
2135.5815
 21
4422.1648
  0
LINE
  8
_0-3_軸組
  6
CONTINUOUS
 62
    3
 10
2135.5815
 20
4422.1648
 11
2133.0802
 21
4422.7369
  0
LINE
  8
_0-3_軸組
  6
CONTINUOUS
 62
    3
 10
2133.0802
 20
4422.7369
 11
2130.7129
 21
4423.2837
  0
LINE
  8
_0-3_軸組
  6
CONTINUOUS
 62
    3
 10
2130.7129
 20
4423.2837
 11
2128.4835
 21
4423.8122
  0
LINE
  8
_0-3_軸組
  6
CONTINUOUS
 62
    3
 10
2128.4835
 20
4423.8122
 11
2126.3904
 21
4424.3165
  0
LINE
  8
_0-3_軸組
  6
CONTINUOUS
 62
    3
 10
2135.7976
 20
4421.612
 11
2134.5529
 21
4421.9515
  0
LINE
  8
_0-3_軸組
  6
CONTINUOUS
 62
    3
 10
2134.5529
 20
4421.9515
 11
2133.359
 21
4422.2771
  0
LINE
  8
_0-3_軸組
  6
CONTINUOUS
 62
    3
 10
2133.359
 20
4422.2771
 11
2132.2174
 21
4422.5993
  0
LINE
  8
_0-3_軸組
  6
CONTINUOUS
 62
    3
 10
2132.2174
 20
4422.5993
 11
2131.1284
 21
4422.9096
  0
LINE
  8
_0-3_軸組
  6
CONTINUOUS
 62
    3
 10
2131.1284
 20
4422.9096
 11
2130.0943
 21
4423.2065
  0
LINE
  8
_0-3_軸組
  6
CONTINUOUS
 62
    3
 10
2130.0943
 20
4423.2065
 11
2129.1078
 21
4423.4901
  0
LINE
  8
_0-3_軸組
  6
CONTINUOUS
 62
    3
 10
2129.1078
 20
4423.4901
 11
2128.1747
 21
4423.7682
  0
LINE
  8
_0-3_軸組
  6
CONTINUOUS
 62
    3
 10
2128.1747
 20
4423.7682
 11
2127.2965
 21
4424.0374
  0
LINE
  8
_0-3_軸組
  6
CONTINUOUS
 62
    3
 10
2127.2965
 20
4424.0374
 11
2126.4698
 21
4424.3002
  0
LINE
  8
_0-3_軸組
  6
CONTINUOUS
 62
    3
 10
2116.2805
 20
4493.522
 11
2100.0022
 21
4493.522
  0
LINE
  8
_0-3_軸組
  6
CONTINUOUS
 62
    3
 10
2116.2805
 20
4336.9188
 11
2100.0022
 21
4336.9188
  0
LINE
  8
_0-3_軸組
  6
CONTINUOUS
 62
    3
 10
2108.5054
 20
4390.0164
 11
2114.4091
 21
4383.3519
  0
LINE
  8
_0-3_軸組
  6
CONTINUOUS
 62
    3
 10
2114.4091
 20
4383.3519
 11
2120.8985
 21
4376.428
  0
LINE
  8
_0-3_軸組
  6
CONTINUOUS
 62
    3
 10
2120.8985
 20
4376.428
 11
2127.8778
 21
4369.3265
  0
LINE
  8
_0-3_軸組
  6
CONTINUOUS
 62
    3
 10
2127.8778
 20
4369.3265
 11
2135.2579
 21
4362.12
  0
LINE
  8
_0-3_軸組
  6
CONTINUOUS
 62
    3
 10
2135.2579
 20
4362.12
 11
2142.955
 21
4354.878
  0
LINE
  8
_0-3_軸組
  6
CONTINUOUS
 62
    3
 10
2142.955
 20
4354.878
 11
2150.8899
 21
4347.6636
  0
LINE
  8
_0-3_軸組
  6
CONTINUOUS
 62
    3
 10
2150.8899
 20
4347.6636
 11
2158.9906
 21
4340.5344
  0
LINE
  8
_0-3_軸組
  6
CONTINUOUS
 62
    3
 10
2158.9906
 20
4340.5344
 11
2167.1878
 21
4333.5427
  0
LINE
  8
_0-3_軸組
  6
CONTINUOUS
 62
    3
 10
2167.1878
 20
4333.5427
 11
2175.4196
 21
4326.7352
  0
LINE
  8
_0-3_軸組
  6
CONTINUOUS
 62
    3
 10
2175.4196
 20
4326.7352
 11
2183.6292
 21
4320.1543
  0
LINE
  8
_0-3_軸組
  6
CONTINUOUS
 62
    3
 10
2183.6292
 20
4320.1543
 11
2191.7647
 21
4313.8371
  0
LINE
  8
_0-3_軸組
  6
CONTINUOUS
 62
    3
 10
2191.7647
 20
4313.8371
 11
2199.781
 21
4307.8125
  0
LINE
  8
_0-3_軸組
  6
CONTINUOUS
 62
    3
 10
2199.781
 20
4307.8125
 11
2207.6363
 21
4302.1085
  0
LINE
  8
_0-3_軸組
  6
CONTINUOUS
 62
    3
 10
2207.6363
 20
4302.1085
 11
2215.2963
 21
4296.7425
  0
LINE
  8
_0-3_軸組
  6
CONTINUOUS
 62
    3
 10
2215.2963
 20
4296.7425
 11
2222.7299
 21
4291.7303
  0
LINE
  8
_0-3_軸組
  6
CONTINUOUS
 62
    3
 10
2222.7299
 20
4291.7303
 11
2229.9133
 21
4287.0819
  0
LINE
  8
_0-3_軸組
  6
CONTINUOUS
 62
    3
 10
2229.9133
 20
4287.0819
 11
2236.8277
 21
4282.7997
  0
LINE
  8
_0-3_軸組
  6
CONTINUOUS
 62
    3
 10
2236.8277
 20
4282.7997
 11
2243.4591
 21
4278.8848
  0
LINE
  8
_0-3_軸組
  6
CONTINUOUS
 62
    3
 10
2243.4591
 20
4278.8848
 11
2249.7993
 21
4275.3276
  0
LINE
  8
_0-3_軸組
  6
CONTINUOUS
 62
    3
 10
2249.7993
 20
4275.3276
 11
2250.2657
 21
4275.1237
  0
LINE
  8
_0-3_軸組
  6
CONTINUOUS
 62
    3
 10
2250.2657
 20
4275.1237
 11
2250.7272
 21
4274.9297
  0
LINE
  8
_0-3_軸組
  6
CONTINUOUS
 62
    3
 10
2250.7272
 20
4274.9297
 11
2251.1857
 21
4274.7451
  0
LINE
  8
_0-3_軸組
  6
CONTINUOUS
 62
    3
 10
2251.1857
 20
4274.7451
 11
2251.638
 21
4274.5699
  0
LINE
  8
_0-3_軸組
  6
CONTINUOUS
 62
    3
 10
2251.638
 20
4274.5699
 11
2252.0859
 21
4274.4046
  0
LINE
  8
_0-3_軸組
  6
CONTINUOUS
 62
    3
 10
2252.0859
 20
4274.4046
 11
2252.5283
 21
4274.2487
  0
LINE
  8
_0-3_軸組
  6
CONTINUOUS
 62
    3
 10
2252.5283
 20
4274.2487
 11
2252.9675
 21
4274.1027
  0
LINE
  8
_0-3_軸組
  6
CONTINUOUS
 62
    3
 10
2252.9675
 20
4274.1027
 11
2253.401
 21
4273.9666
  0
LINE
  8
_0-3_軸組
  6
CONTINUOUS
 62
    3
 10
2253.401
 20
4273.9666
 11
2253.8293
 21
4273.8395
  0
LINE
  8
_0-3_軸組
  6
CONTINUOUS
 62
    3
 10
2108.5054
 20
4390.0164
 11
2111.9958
 21
4391.7495
  0
LINE
  8
_0-3_軸組
  6
CONTINUOUS
 62
    3
 10
2111.9958
 20
4391.7495
 11
2115.1121
 21
4393.5706
  0
LINE
  8
_0-3_軸組
  6
CONTINUOUS
 62
    3
 10
2115.1121
 20
4393.5706
 11
2117.855
 21
4395.4774
  0
LINE
  8
_0-3_軸組
  6
CONTINUOUS
 62
    3
 10
2117.855
 20
4395.4774
 11
2120.2247
 21
4397.4713
  0
LINE
  8
_0-3_軸組
  6
CONTINUOUS
 62
    3
 10
2120.2247
 20
4397.4713
 11
2122.2213
 21
4399.5522
  0
LINE
  8
_0-3_軸組
  6
CONTINUOUS
 62
    3
 10
2122.2213
 20
4399.5522
 11
2123.8433
 21
4401.7188
  0
LINE
  8
_0-3_軸組
  6
CONTINUOUS
 62
    3
 10
2123.8433
 20
4401.7188
 11
2125.0926
 21
4403.974
  0
LINE
  8
_0-3_軸組
  6
CONTINUOUS
 62
    3
 10
2125.0926
 20
4403.974
 11
2125.9678
 21
4406.3143
  0
LINE
  8
_0-3_軸組
  6
CONTINUOUS
 62
    3
 10
2125.9678
 20
4406.3143
 11
2126.4698
 21
4408.7427
  0
LINE
  8
_0-3_軸組
  6
CONTINUOUS
 62
    3
 10
2126.4725
 20
4347.1133
 11
2126.4725
 21
4370.7567
  0
LINE
  8
_0-3_軸組
  6
CONTINUOUS
 62
    3
 10
2258.8437
 20
4435.0881
 11
2238.7729
 21
4479.3244
  0
LINE
  8
_0-3_軸組
  6
CONTINUOUS
 62
    3
 10
2219.4258
 20
4143.143
 11
2100.0022
 21
4143.143
  0
LINE
  8
_0-3_軸組
  6
CONTINUOUS
 62
    3
 10
2239.3882
 20
4163.1062
 11
2239.3882
 21
4189.2378
  0
LINE
  8
_0-3_軸組
  6
CONTINUOUS
 62
    3
 10
2209.4446
 20
4125.1937
 11
2100.0022
 21
4125.1937
  0
LINE
  8
_0-3_軸組
  6
CONTINUOUS
 62
    3
 10
2219.4258
 20
4135.1749
 11
2219.4258
 21
4143.143
  0
LINE
  8
_0-3_軸組
  6
CONTINUOUS
 62
    3
 10
2194.9837
 20
4311.4176
 11
2100.0022
 21
4311.4176
  0
LINE
  8
_0-3_軸組
  6
CONTINUOUS
 62
    3
 10
2239.3882
 20
4222.5209
 11
2239.3882
 21
4281.2884
  0
LINE
  8
_0-2_躯体
  6
CONTINUOUS
 62
    3
 10
2234.7465
 20
4561.2091
 11
2100.015
 21
4561.2091
  0
LINE
  8
_0-2_躯体
  6
CONTINUOUS
 62
    3
 10
2632.5154
 20
4561.2091
 11
2493.7834
 21
4561.2091
  0
LINE
  8
_0-2_躯体
  6
CONTINUOUS
 62
    3
 10
1567.5
 20
4244.7569
 11
2100
 21
4244.7569
  0
LINE
  8
_0-2_躯体
  6
CONTINUOUS
 62
    3
 10
1567.5
 20
4225.2566
 11
2100
 21
4225.2566
  0
LINE
  8
_0-2_躯体
  6
CONTINUOUS
 62
    3
 10
2239.3882
 20
4244.7569
 11
2632.4999
 21
4244.7569
  0
LINE
  8
_0-2_躯体
  6
CONTINUOUS
 62
    3
 10
2239.3882
 20
4225.2566
 11
2632.4999
 21
4225.2566
  0
LINE
  8
_0-2_躯体
  6
CONTINUOUS
 62
    3
 10
1567.5
 20
4225.2566
 11
1567.5
 21
4184.8517
  0
LINE
  8
_0-2_躯体
  6
CONTINUOUS
 62
    3
 10
2632.4999
 20
4561.2091
 11
2632.4999
 21
4244.7569
  0
LINE
  8
_0-2_躯体
  6
CONTINUOUS
 62
    3
 10
2632.4999
 20
4225.2566
 11
2632.4999
 21
4184.8517
  0
LINE
  8
_0-2_躯体
  6
CONTINUOUS
 62
    3
 10
2632.4999
 20
4225.2566
 11
2632.4999
 21
4126.7565
  0
LINE
  8
_0-2_躯体
  6
CONTINUOUS
 62
    3
 10
2735.0001
 20
4126.7565
 11
2632.4999
 21
4184.8517
  0
LINE
  8
_0-2_躯体
  6
CONTINUOUS
 62
    3
 10
2100
 20
4956.7565
 11
1271.8743
 21
4765.2525
  0
LINE
  8
_0-2_躯体
  6
CONTINUOUS
 62
    3
 10
2100
 20
4956.7565
 11
2928.1256
 21
4765.2525
  0
LINE
  8
_0-2_躯体
  6
CONTINUOUS
 62
    3
 10
2632.5154
 20
4579.1505
 11
2632.5154
 21
4601.7561
  0
LINE
  8
_0-4_仕上
  6
CONTINUOUS
 62
    3
 10
2632.5149
 20
4833.6127
 11
2100
 21
4833.6127
  0
LINE
  8
_0-2_躯体
  6
CONTINUOUS
 62
    3
 10
2632.5149
 20
4771.7567
 11
2899.9999
 21
4771.7567
  0
LINE
  8
_0-4_仕上
  6
CONTINUOUS
 62
    3
 10
2632.5149
 20
4601.7561
 11
2632.5149
 21
4833.6127
  0
LINE
  8
_0-4_仕上
  6
CONTINUOUS
 62
    4
 10
2632.5149
 20
4826.1123
 11
2100
 21
4826.1123
  0
LINE
  8
_0-4_仕上
  6
CONTINUOUS
 62
    4
 10
2632.5149
 20
4818.6124
 11
2100
 21
4818.6124
  0
LINE
  8
_0-4_仕上
  6
CONTINUOUS
 62
    4
 10
2632.5149
 20
4811.1125
 11
2100
 21
4811.1125
  0
LINE
  8
_0-4_仕上
  6
CONTINUOUS
 62
    4
 10
2632.5149
 20
4803.6126
 11
2100
 21
4803.6126
  0
LINE
  8
_0-4_仕上
  6
CONTINUOUS
 62
    4
 10
2632.5149
 20
4796.1122
 11
2100
 21
4796.1122
  0
LINE
  8
_0-4_仕上
  6
CONTINUOUS
 62
    4
 10
2632.5149
 20
4788.6123
 11
2100
 21
4788.6123
  0
LINE
  8
_0-4_仕上
  6
CONTINUOUS
 62
    4
 10
2625.015
 20
4601.7561
 11
2625.015
 21
4833.6127
  0
LINE
  8
_0-4_仕上
  6
CONTINUOUS
 62
    4
 10
2617.5149
 20
4601.7561
 11
2617.5149
 21
4833.6127
  0
LINE
  8
_0-4_仕上
  6
CONTINUOUS
 62
    4
 10
2610.015
 20
4601.7561
 11
2610.015
 21
4833.6127
  0
LINE
  8
_0-4_仕上
  6
CONTINUOUS
 62
    4
 10
2602.5151
 20
4601.7561
 11
2602.5151
 21
4833.6127
  0
LINE
  8
_0-4_仕上
  6
CONTINUOUS
 62
    4
 10
2595.0152
 20
4601.7561
 11
2595.0152
 21
4833.6127
  0
LINE
  8
_0-4_仕上
  6
CONTINUOUS
 62
    4
 10
2587.515
 20
4601.7561
 11
2587.515
 21
4833.6127
  0
LINE
  8
_0-4_仕上
  6
CONTINUOUS
 62
    4
 10
2632.5149
 20
4781.1124
 11
2100
 21
4781.1124
  0
LINE
  8
_0-4_仕上
  6
CONTINUOUS
 62
    4
 10
2632.5149
 20
4773.6125
 11
2100
 21
4773.6125
  0
LINE
  8
_0-4_仕上
  6
CONTINUOUS
 62
    4
 10
2632.5149
 20
4766.1121
 11
2100
 21
4766.1121
  0
LINE
  8
_0-4_仕上
  6
CONTINUOUS
 62
    4
 10
2632.5149
 20
4758.6122
 11
2100
 21
4758.6122
  0
LINE
  8
_0-4_仕上
  6
CONTINUOUS
 62
    4
 10
2632.5149
 20
4751.1123
 11
2100
 21
4751.1123
  0
LINE
  8
_0-4_仕上
  6
CONTINUOUS
 62
    4
 10
2632.5149
 20
4743.6124
 11
2100
 21
4743.6124
  0
LINE
  8
_0-4_仕上
  6
CONTINUOUS
 62
    4
 10
2632.5149
 20
4736.112
 11
2100
 21
4736.112
  0
LINE
  8
_0-4_仕上
  6
CONTINUOUS
 62
    4
 10
2632.5149
 20
4728.6121
 11
2100
 21
4728.6121
  0
LINE
  8
_0-4_仕上
  6
CONTINUOUS
 62
    4
 10
2632.5149
 20
4721.1122
 11
2100
 21
4721.1122
  0
LINE
  8
_0-4_仕上
  6
CONTINUOUS
 62
    4
 10
2632.5149
 20
4713.6123
 11
2100
 21
4713.6123
  0
LINE
  8
_0-4_仕上
  6
CONTINUOUS
 62
    4
 10
2632.5149
 20
4706.1119
 11
2100
 21
4706.1119
  0
LINE
  8
_0-4_仕上
  6
CONTINUOUS
 62
    4
 10
2632.5149
 20
4698.612
 11
2100
 21
4698.612
  0
LINE
  8
_0-4_仕上
  6
CONTINUOUS
 62
    4
 10
2632.5149
 20
4691.1121
 11
2100
 21
4691.1121
  0
LINE
  8
_0-4_仕上
  6
CONTINUOUS
 62
    4
 10
2632.5149
 20
4683.6122
 11
2100
 21
4683.6122
  0
LINE
  8
_0-4_仕上
  6
CONTINUOUS
 62
    4
 10
2632.5149
 20
4676.1118
 11
2100
 21
4676.1118
  0
LINE
  8
_0-4_仕上
  6
CONTINUOUS
 62
    4
 10
2632.5149
 20
4668.6119
 11
2100
 21
4668.6119
  0
LINE
  8
_0-4_仕上
  6
CONTINUOUS
 62
    4
 10
2632.5149
 20
4661.112
 11
2100
 21
4661.112
  0
LINE
  8
_0-4_仕上
  6
CONTINUOUS
 62
    4
 10
2632.5149
 20
4653.6116
 11
2100
 21
4653.6116
  0
LINE
  8
_0-4_仕上
  6
CONTINUOUS
 62
    4
 10
2632.5149
 20
4646.1117
 11
2100
 21
4646.1117
  0
LINE
  8
_0-4_仕上
  6
CONTINUOUS
 62
    4
 10
2632.5149
 20
4638.6118
 11
2100
 21
4638.6118
  0
LINE
  8
_0-4_仕上
  6
CONTINUOUS
 62
    4
 10
2632.5149
 20
4631.1119
 11
2100
 21
4631.1119
  0
LINE
  8
_0-4_仕上
  6
CONTINUOUS
 62
    4
 10
2632.5149
 20
4623.612
 11
2100
 21
4623.612
  0
LINE
  8
_0-4_仕上
  6
CONTINUOUS
 62
    4
 10
2632.5149
 20
4616.1116
 11
2100
 21
4616.1116
  0
LINE
  8
_0-4_仕上
  6
CONTINUOUS
 62
    4
 10
2632.5149
 20
4608.6117
 11
2100
 21
4608.6117
  0
LINE
  8
_0-4_仕上
  6
CONTINUOUS
 62
    4
 10
2580.0149
 20
4601.7561
 11
2580.0149
 21
4833.6127
  0
LINE
  8
_0-4_仕上
  6
CONTINUOUS
 62
    4
 10
2572.515
 20
4601.7561
 11
2572.515
 21
4833.6127
  0
LINE
  8
_0-4_仕上
  6
CONTINUOUS
 62
    4
 10
2565.0151
 20
4601.7561
 11
2565.0151
 21
4833.6127
  0
LINE
  8
_0-4_仕上
  6
CONTINUOUS
 62
    4
 10
2557.5152
 20
4601.7561
 11
2557.5152
 21
4833.6127
  0
LINE
  8
_0-4_仕上
  6
CONTINUOUS
 62
    4
 10
2550.015
 20
4601.7561
 11
2550.015
 21
4833.6127
  0
LINE
  8
_0-4_仕上
  6
CONTINUOUS
 62
    4
 10
2542.5151
 20
4601.7561
 11
2542.5151
 21
4833.6127
  0
LINE
  8
_0-4_仕上
  6
CONTINUOUS
 62
    4
 10
2535.015
 20
4601.7561
 11
2535.015
 21
4833.6127
  0
LINE
  8
_0-4_仕上
  6
CONTINUOUS
 62
    4
 10
2527.5151
 20
4601.7561
 11
2527.5151
 21
4833.6127
  0
LINE
  8
_0-4_仕上
  6
CONTINUOUS
 62
    4
 10
2520.0149
 20
4601.7561
 11
2520.0149
 21
4833.6127
  0
LINE
  8
_0-4_仕上
  6
CONTINUOUS
 62
    4
 10
2512.5153
 20
4601.7561
 11
2512.5153
 21
4833.6127
  0
LINE
  8
_0-4_仕上
  6
CONTINUOUS
 62
    4
 10
2505.0151
 20
4601.7561
 11
2505.0151
 21
4833.6127
  0
LINE
  8
_0-4_仕上
  6
CONTINUOUS
 62
    4
 10
2497.5152
 20
4601.7561
 11
2497.5152
 21
4833.6127
  0
LINE
  8
_0-4_仕上
  6
CONTINUOUS
 62
    4
 10
2490.0151
 20
4601.7561
 11
2490.0151
 21
4833.6127
  0
LINE
  8
_0-4_仕上
  6
CONTINUOUS
 62
    4
 10
2482.5152
 20
4601.7561
 11
2482.5152
 21
4833.6127
  0
LINE
  8
_0-4_仕上
  6
CONTINUOUS
 62
    4
 10
2475.015
 20
4601.7561
 11
2475.015
 21
4833.6127
  0
LINE
  8
_0-4_仕上
  6
CONTINUOUS
 62
    4
 10
2467.5154
 20
4601.7561
 11
2467.5154
 21
4833.6127
  0
LINE
  8
_0-4_仕上
  6
CONTINUOUS
 62
    4
 10
2460.0152
 20
4601.7561
 11
2460.0152
 21
4833.6127
  0
LINE
  8
_0-4_仕上
  6
CONTINUOUS
 62
    4
 10
2452.5151
 20
4601.7561
 11
2452.5151
 21
4833.6127
  0
LINE
  8
_0-4_仕上
  6
CONTINUOUS
 62
    4
 10
2445.0152
 20
4601.7561
 11
2445.0152
 21
4833.6127
  0
LINE
  8
_0-4_仕上
  6
CONTINUOUS
 62
    4
 10
2437.515
 20
4601.7561
 11
2437.515
 21
4833.6127
  0
LINE
  8
_0-4_仕上
  6
CONTINUOUS
 62
    4
 10
2430.0151
 20
4601.7561
 11
2430.0151
 21
4833.6127
  0
LINE
  8
_0-4_仕上
  6
CONTINUOUS
 62
    4
 10
2422.5152
 20
4601.7561
 11
2422.5152
 21
4833.6127
  0
LINE
  8
_0-4_仕上
  6
CONTINUOUS
 62
    4
 10
2415.0153
 20
4601.7561
 11
2415.0153
 21
4833.6127
  0
LINE
  8
_0-4_仕上
  6
CONTINUOUS
 62
    4
 10
2407.5152
 20
4601.7561
 11
2407.5152
 21
4833.6127
  0
LINE
  8
_0-4_仕上
  6
CONTINUOUS
 62
    4
 10
2400.0153
 20
4601.7561
 11
2400.0153
 21
4833.6127
  0
LINE
  8
_0-4_仕上
  6
CONTINUOUS
 62
    4
 10
2392.5151
 20
4601.7561
 11
2392.5151
 21
4833.6127
  0
LINE
  8
_0-4_仕上
  6
CONTINUOUS
 62
    4
 10
2385.0152
 20
4601.7561
 11
2385.0152
 21
4833.6127
  0
LINE
  8
_0-4_仕上
  6
CONTINUOUS
 62
    4
 10
2377.5153
 20
4601.7561
 11
2377.5153
 21
4833.6127
  0
LINE
  8
_0-4_仕上
  6
CONTINUOUS
 62
    4
 10
2370.0152
 20
4601.7561
 11
2370.0152
 21
4833.6127
  0
LINE
  8
_0-4_仕上
  6
CONTINUOUS
 62
    4
 10
2362.5153
 20
4601.7561
 11
2362.5153
 21
4833.6127
  0
LINE
  8
_0-4_仕上
  6
CONTINUOUS
 62
    4
 10
2355.0151
 20
4601.7561
 11
2355.0151
 21
4833.6127
  0
LINE
  8
_0-4_仕上
  6
CONTINUOUS
 62
    4
 10
2347.5152
 20
4601.7561
 11
2347.5152
 21
4833.6127
  0
LINE
  8
_0-4_仕上
  6
CONTINUOUS
 62
    4
 10
2340.0151
 20
4601.7561
 11
2340.0151
 21
4833.6127
  0
LINE
  8
_0-4_仕上
  6
CONTINUOUS
 62
    4
 10
2332.5154
 20
4601.7561
 11
2332.5154
 21
4833.6127
  0
LINE
  8
_0-4_仕上
  6
CONTINUOUS
 62
    4
 10
2325.0153
 20
4601.7561
 11
2325.0153
 21
4833.6127
  0
LINE
  8
_0-4_仕上
  6
CONTINUOUS
 62
    4
 10
2317.5154
 20
4601.7561
 11
2317.5154
 21
4833.6127
  0
LINE
  8
_0-4_仕上
  6
CONTINUOUS
 62
    4
 10
2310.0152
 20
4601.7561
 11
2310.0152
 21
4833.6127
  0
LINE
  8
_0-4_仕上
  6
CONTINUOUS
 62
    4
 10
2302.5153
 20
4601.7561
 11
2302.5153
 21
4833.6127
  0
LINE
  8
_0-4_仕上
  6
CONTINUOUS
 62
    4
 10
2295.0152
 20
4601.7561
 11
2295.0152
 21
4833.6127
  0
LINE
  8
_0-4_仕上
  6
CONTINUOUS
 62
    4
 10
2287.5153
 20
4601.7561
 11
2287.5153
 21
4833.6127
  0
LINE
  8
_0-4_仕上
  6
CONTINUOUS
 62
    4
 10
2280.0154
 20
4601.7561
 11
2280.0154
 21
4833.6127
  0
LINE
  8
_0-4_仕上
  6
CONTINUOUS
 62
    4
 10
2272.5152
 20
4601.7561
 11
2272.5152
 21
4833.6127
  0
LINE
  8
_0-4_仕上
  6
CONTINUOUS
 62
    4
 10
2265.0153
 20
4601.7561
 11
2265.0153
 21
4833.6127
  0
LINE
  8
_0-4_仕上
  6
CONTINUOUS
 62
    4
 10
2257.5152
 20
4601.7561
 11
2257.5152
 21
4833.6127
  0
LINE
  8
_0-4_仕上
  6
CONTINUOUS
 62
    4
 10
2250.0153
 20
4601.7561
 11
2250.0153
 21
4833.6127
  0
LINE
  8
_0-4_仕上
  6
CONTINUOUS
 62
    4
 10
2242.5154
 20
4601.7561
 11
2242.5154
 21
4833.6127
  0
LINE
  8
_0-4_仕上
  6
CONTINUOUS
 62
    4
 10
2235.0155
 20
4601.7561
 11
2235.0155
 21
4833.6127
  0
LINE
  8
_0-4_仕上
  6
CONTINUOUS
 62
    4
 10
2227.5153
 20
4601.7561
 11
2227.5153
 21
4833.6127
  0
LINE
  8
_0-4_仕上
  6
CONTINUOUS
 62
    4
 10
2220.0154
 20
4601.7561
 11
2220.0154
 21
4833.6127
  0
LINE
  8
_0-4_仕上
  6
CONTINUOUS
 62
    4
 10
2212.5153
 20
4601.7561
 11
2212.5153
 21
4833.6127
  0
LINE
  8
_0-4_仕上
  6
CONTINUOUS
 62
    4
 10
2205.0154
 20
4601.7561
 11
2205.0154
 21
4833.6127
  0
LINE
  8
_0-4_仕上
  6
CONTINUOUS
 62
    4
 10
2197.5155
 20
4601.7561
 11
2197.5155
 21
4833.6127
  0
LINE
  8
_0-4_仕上
  6
CONTINUOUS
 62
    4
 10
2190.0153
 20
4601.7561
 11
2190.0153
 21
4833.6127
  0
LINE
  8
_0-4_仕上
  6
CONTINUOUS
 62
    4
 10
2182.5154
 20
4601.7561
 11
2182.5154
 21
4833.6127
  0
LINE
  8
_0-4_仕上
  6
CONTINUOUS
 62
    4
 10
2175.0153
 20
4601.7561
 11
2175.0153
 21
4833.6127
  0
LINE
  8
_0-4_仕上
  6
CONTINUOUS
 62
    4
 10
2167.5154
 20
4601.7561
 11
2167.5154
 21
4833.6127
  0
LINE
  8
_0-4_仕上
  6
CONTINUOUS
 62
    4
 10
2160.0152
 20
4601.7561
 11
2160.0152
 21
4833.6127
  0
LINE
  8
_0-4_仕上
  6
CONTINUOUS
 62
    4
 10
2152.5156
 20
4601.7561
 11
2152.5156
 21
4833.6127
  0
LINE
  8
_0-4_仕上
  6
CONTINUOUS
 62
    4
 10
2145.0154
 20
4601.7561
 11
2145.0154
 21
4833.6127
  0
LINE
  8
_0-4_仕上
  6
CONTINUOUS
 62
    4
 10
2137.5155
 20
4601.7561
 11
2137.5155
 21
4833.6127
  0
LINE
  8
_0-4_仕上
  6
CONTINUOUS
 62
    4
 10
2130.0154
 20
4601.7561
 11
2130.0154
 21
4833.6127
  0
LINE
  8
_0-4_仕上
  6
CONTINUOUS
 62
    4
 10
2122.5155
 20
4601.7561
 11
2122.5155
 21
4833.6127
  0
LINE
  8
_0-4_仕上
  6
CONTINUOUS
 62
    4
 10
2115.0153
 20
4601.7561
 11
2115.0153
 21
4833.6127
  0
LINE
  8
_0-4_仕上
  6
CONTINUOUS
 62
    4
 10
2107.5154
 20
4601.7561
 11
2107.5154
 21
4833.6127
  0
LINE
  8
_0-2_躯体
  6
CONTINUOUS
 62
    3
 10
2438.53
 20
4878.4715
 11
2360.8327
 21
4833.6127
  0
LINE
  8
_0-2_躯体
  6
CONTINUOUS
 62
    3
 10
2438.53
 20
4878.4715
 11
2100
 21
4878.4715
  0
LINE
  8
_0-1_基準線
  6
CENTER2
 62
    7
 10
2100
 20
4056.7565
 11
2100
 21
4956.7565
  0
LINE
  8
_0-2_躯体
  6
CONTINUOUS
 62
    3
 10
2899.9999
 20
4515.2568
 11
2899.9999
 21
4515.2568
  0
LINE
  8
_0-2_躯体
  6
CONTINUOUS
 62
    3
 10
2899.9999
 20
4515.2568
 11
2901.6133
 21
4515.4049
  0
LINE
  8
_0-2_躯体
  6
CONTINUOUS
 62
    3
 10
2901.6133
 20
4515.4049
 11
2903.1778
 21
4515.8448
  0
LINE
  8
_0-2_躯体
  6
CONTINUOUS
 62
    3
 10
2903.1778
 20
4515.8448
 11
2904.6457
 21
4516.5631
  0
LINE
  8
_0-2_躯体
  6
CONTINUOUS
 62
    3
 10
2904.6457
 20
4516.5631
 11
2905.9724
 21
4517.5379
  0
LINE
  8
_0-2_躯体
  6
CONTINUOUS
 62
    3
 10
2905.9724
 20
4517.5379
 11
2907.1177
 21
4518.7396
  0
LINE
  8
_0-2_躯体
  6
CONTINUOUS
 62
    3
 10
2907.1177
 20
4518.7396
 11
2908.0467
 21
4520.1318
  0
LINE
  8
_0-2_躯体
  6
CONTINUOUS
 62
    3
 10
2908.0467
 20
4520.1318
 11
2908.7312
 21
4521.6721
  0
LINE
  8
_0-2_躯体
  6
CONTINUOUS
 62
    3
 10
2908.7312
 20
4521.6721
 11
2909.1504
 21
4523.3137
  0
LINE
  8
_0-2_躯体
  6
CONTINUOUS
 62
    3
 10
2909.1504
 20
4523.3137
 11
2909.2915
 21
4525.0067
  0
LINE
  8
_0-2_躯体
  6
CONTINUOUS
 62
    3
 10
2909.2915
 20
4525.0067
 11
2909.1504
 21
4526.6998
  0
LINE
  8
_0-2_躯体
  6
CONTINUOUS
 62
    3
 10
2909.1504
 20
4526.6998
 11
2908.7312
 21
4528.3414
  0
LINE
  8
_0-2_躯体
  6
CONTINUOUS
 62
    3
 10
2908.7312
 20
4528.3414
 11
2908.0467
 21
4529.8817
  0
LINE
  8
_0-2_躯体
  6
CONTINUOUS
 62
    3
 10
2908.0467
 20
4529.8817
 11
2907.1177
 21
4531.2738
  0
LINE
  8
_0-2_躯体
  6
CONTINUOUS
 62
    3
 10
2907.1177
 20
4531.2738
 11
2905.9724
 21
4532.4756
  0
LINE
  8
_0-2_躯体
  6
CONTINUOUS
 62
    3
 10
2905.9724
 20
4532.4756
 11
2904.6457
 21
4533.4504
  0
LINE
  8
_0-2_躯体
  6
CONTINUOUS
 62
    3
 10
2904.6457
 20
4533.4504
 11
2903.1778
 21
4534.1686
  0
LINE
  8
_0-2_躯体
  6
CONTINUOUS
 62
    3
 10
2903.1778
 20
4534.1686
 11
2901.6133
 21
4534.6085
  0
LINE
  8
_0-2_躯体
  6
CONTINUOUS
 62
    3
 10
2901.6133
 20
4534.6085
 11
2899.9999
 21
4534.7566
  0
LINE
  8
_0-2_躯体
  6
CONTINUOUS
 62
    3
 10
2899.9999
 20
4534.7566
 11
2899.9999
 21
4534.7566
  0
LINE
  8
_0-2_躯体
  6
CONTINUOUS
 62
    3
 10
2899.9999
 20
4437.2569
 11
2899.9999
 21
4437.2569
  0
LINE
  8
_0-2_躯体
  6
CONTINUOUS
 62
    3
 10
2899.9999
 20
4437.2569
 11
2901.6133
 21
4437.405
  0
LINE
  8
_0-2_躯体
  6
CONTINUOUS
 62
    3
 10
2901.6133
 20
4437.405
 11
2903.1778
 21
4437.8448
  0
LINE
  8
_0-2_躯体
  6
CONTINUOUS
 62
    3
 10
2903.1778
 20
4437.8448
 11
2904.6457
 21
4438.5631
  0
LINE
  8
_0-2_躯体
  6
CONTINUOUS
 62
    3
 10
2904.6457
 20
4438.5631
 11
2905.9724
 21
4439.5379
  0
LINE
  8
_0-2_躯体
  6
CONTINUOUS
 62
    3
 10
2905.9724
 20
4439.5379
 11
2907.1177
 21
4440.7396
  0
LINE
  8
_0-2_躯体
  6
CONTINUOUS
 62
    3
 10
2907.1177
 20
4440.7396
 11
2908.0467
 21
4442.1318
  0
LINE
  8
_0-2_躯体
  6
CONTINUOUS
 62
    3
 10
2908.0467
 20
4442.1318
 11
2908.7312
 21
4443.6721
  0
LINE
  8
_0-2_躯体
  6
CONTINUOUS
 62
    3
 10
2908.7312
 20
4443.6721
 11
2909.1504
 21
4445.3137
  0
LINE
  8
_0-2_躯体
  6
CONTINUOUS
 62
    3
 10
2909.1504
 20
4445.3137
 11
2909.2915
 21
4447.0068
  0
LINE
  8
_0-2_躯体
  6
CONTINUOUS
 62
    3
 10
2909.2915
 20
4447.0068
 11
2909.1504
 21
4448.6998
  0
LINE
  8
_0-2_躯体
  6
CONTINUOUS
 62
    3
 10
2909.1504
 20
4448.6998
 11
2908.7312
 21
4450.3414
  0
LINE
  8
_0-2_躯体
  6
CONTINUOUS
 62
    3
 10
2908.7312
 20
4450.3414
 11
2908.0467
 21
4451.8817
  0
LINE
  8
_0-2_躯体
  6
CONTINUOUS
 62
    3
 10
2908.0467
 20
4451.8817
 11
2907.1177
 21
4453.2739
  0
LINE
  8
_0-2_躯体
  6
CONTINUOUS
 62
    3
 10
2907.1177
 20
4453.2739
 11
2905.9724
 21
4454.4756
  0
LINE
  8
_0-2_躯体
  6
CONTINUOUS
 62
    3
 10
2905.9724
 20
4454.4756
 11
2904.6457
 21
4455.4504
  0
LINE
  8
_0-2_躯体
  6
CONTINUOUS
 62
    3
 10
2904.6457
 20
4455.4504
 11
2903.1778
 21
4456.1687
  0
LINE
  8
_0-2_躯体
  6
CONTINUOUS
 62
    3
 10
2903.1778
 20
4456.1687
 11
2901.6133
 21
4456.6085
  0
LINE
  8
_0-2_躯体
  6
CONTINUOUS
 62
    3
 10
2901.6133
 20
4456.6085
 11
2899.9999
 21
4456.7567
  0
LINE
  8
_0-2_躯体
  6
CONTINUOUS
 62
    3
 10
2899.9999
 20
4456.7567
 11
2899.9999
 21
4456.7567
  0
LINE
  8
_0-2_躯体
  6
CONTINUOUS
 62
    3
 10
1300
 20
4534.7566
 11
1300
 21
4534.7566
  0
LINE
  8
_0-2_躯体
  6
CONTINUOUS
 62
    3
 10
1300
 20
4534.7566
 11
1298.3866
 21
4534.6085
  0
LINE
  8
_0-2_躯体
  6
CONTINUOUS
 62
    3
 10
1298.3866
 20
4534.6085
 11
1296.8221
 21
4534.1686
  0
LINE
  8
_0-2_躯体
  6
CONTINUOUS
 62
    3
 10
1296.8221
 20
4534.1686
 11
1295.3542
 21
4533.4504
  0
LINE
  8
_0-2_躯体
  6
CONTINUOUS
 62
    3
 10
1295.3542
 20
4533.4504
 11
1294.0275
 21
4532.4756
  0
LINE
  8
_0-2_躯体
  6
CONTINUOUS
 62
    3
 10
1294.0275
 20
4532.4756
 11
1292.8822
 21
4531.2738
  0
LINE
  8
_0-2_躯体
  6
CONTINUOUS
 62
    3
 10
1292.8822
 20
4531.2738
 11
1291.9532
 21
4529.8817
  0
LINE
  8
_0-2_躯体
  6
CONTINUOUS
 62
    3
 10
1291.9532
 20
4529.8817
 11
1291.2687
 21
4528.3414
  0
LINE
  8
_0-2_躯体
  6
CONTINUOUS
 62
    3
 10
1291.2687
 20
4528.3414
 11
1290.8495
 21
4526.6998
  0
LINE
  8
_0-2_躯体
  6
CONTINUOUS
 62
    3
 10
1290.8495
 20
4526.6998
 11
1290.7084
 21
4525.0067
  0
LINE
  8
_0-2_躯体
  6
CONTINUOUS
 62
    3
 10
1290.7084
 20
4525.0067
 11
1290.8495
 21
4523.3137
  0
LINE
  8
_0-2_躯体
  6
CONTINUOUS
 62
    3
 10
1290.8495
 20
4523.3137
 11
1291.2687
 21
4521.6721
  0
LINE
  8
_0-2_躯体
  6
CONTINUOUS
 62
    3
 10
1291.2687
 20
4521.6721
 11
1291.9532
 21
4520.1318
  0
LINE
  8
_0-2_躯体
  6
CONTINUOUS
 62
    3
 10
1291.9532
 20
4520.1318
 11
1292.8822
 21
4518.7396
  0
LINE
  8
_0-2_躯体
  6
CONTINUOUS
 62
    3
 10
1292.8822
 20
4518.7396
 11
1294.0275
 21
4517.5379
  0
LINE
  8
_0-2_躯体
  6
CONTINUOUS
 62
    3
 10
1294.0275
 20
4517.5379
 11
1295.3542
 21
4516.5631
  0
LINE
  8
_0-2_躯体
  6
CONTINUOUS
 62
    3
 10
1295.3542
 20
4516.5631
 11
1296.8221
 21
4515.8448
  0
LINE
  8
_0-2_躯体
  6
CONTINUOUS
 62
    3
 10
1296.8221
 20
4515.8448
 11
1298.3866
 21
4515.4049
  0
LINE
  8
_0-2_躯体
  6
CONTINUOUS
 62
    3
 10
1298.3866
 20
4515.4049
 11
1300
 21
4515.2568
  0
LINE
  8
_0-2_躯体
  6
CONTINUOUS
 62
    3
 10
1300
 20
4515.2568
 11
1300
 21
4515.2568
  0
LINE
  8
_0-2_躯体
  6
CONTINUOUS
 62
    3
 10
1300
 20
4456.7567
 11
1300
 21
4456.7567
  0
LINE
  8
_0-2_躯体
  6
CONTINUOUS
 62
    3
 10
1300
 20
4456.7567
 11
1298.3866
 21
4456.6085
  0
LINE
  8
_0-2_躯体
  6
CONTINUOUS
 62
    3
 10
1298.3866
 20
4456.6085
 11
1296.8221
 21
4456.1687
  0
LINE
  8
_0-2_躯体
  6
CONTINUOUS
 62
    3
 10
1296.8221
 20
4456.1687
 11
1295.3542
 21
4455.4504
  0
LINE
  8
_0-2_躯体
  6
CONTINUOUS
 62
    3
 10
1295.3542
 20
4455.4504
 11
1294.0275
 21
4454.4756
  0
LINE
  8
_0-2_躯体
  6
CONTINUOUS
 62
    3
 10
1294.0275
 20
4454.4756
 11
1292.8822
 21
4453.2739
  0
LINE
  8
_0-2_躯体
  6
CONTINUOUS
 62
    3
 10
1292.8822
 20
4453.2739
 11
1291.9532
 21
4451.8817
  0
LINE
  8
_0-2_躯体
  6
CONTINUOUS
 62
    3
 10
1291.9532
 20
4451.8817
 11
1291.2687
 21
4450.3414
  0
LINE
  8
_0-2_躯体
  6
CONTINUOUS
 62
    3
 10
1291.2687
 20
4450.3414
 11
1290.8495
 21
4448.6998
  0
LINE
  8
_0-2_躯体
  6
CONTINUOUS
 62
    3
 10
1290.8495
 20
4448.6998
 11
1290.7084
 21
4447.0068
  0
LINE
  8
_0-2_躯体
  6
CONTINUOUS
 62
    3
 10
1290.7084
 20
4447.0068
 11
1290.8495
 21
4445.3137
  0
LINE
  8
_0-2_躯体
  6
CONTINUOUS
 62
    3
 10
1290.8495
 20
4445.3137
 11
1291.2687
 21
4443.6721
  0
LINE
  8
_0-2_躯体
  6
CONTINUOUS
 62
    3
 10
1291.2687
 20
4443.6721
 11
1291.9532
 21
4442.1318
  0
LINE
  8
_0-2_躯体
  6
CONTINUOUS
 62
    3
 10
1291.9532
 20
4442.1318
 11
1292.8822
 21
4440.7396
  0
LINE
  8
_0-2_躯体
  6
CONTINUOUS
 62
    3
 10
1292.8822
 20
4440.7396
 11
1294.0275
 21
4439.5379
  0
LINE
  8
_0-2_躯体
  6
CONTINUOUS
 62
    3
 10
1294.0275
 20
4439.5379
 11
1295.3542
 21
4438.5631
  0
LINE
  8
_0-2_躯体
  6
CONTINUOUS
 62
    3
 10
1295.3542
 20
4438.5631
 11
1296.8221
 21
4437.8448
  0
LINE
  8
_0-2_躯体
  6
CONTINUOUS
 62
    3
 10
1296.8221
 20
4437.8448
 11
1298.3866
 21
4437.405
  0
LINE
  8
_0-2_躯体
  6
CONTINUOUS
 62
    3
 10
1298.3866
 20
4437.405
 11
1300
 21
4437.2569
  0
LINE
  8
_0-2_躯体
  6
CONTINUOUS
 62
    3
 10
1300
 20
4437.2569
 11
1300
 21
4437.2569
  0
LINE
  8
_0-2_躯体
  6
CONTINUOUS
 62
    3
 10
2632.4999
 20
4225.2564
 11
2632.4999
 21
4225.2564
  0
LINE
  8
_0-2_躯体
  6
CONTINUOUS
 62
    3
 10
2632.4999
 20
4225.2564
 11
2634.1133
 21
4225.4045
  0
LINE
  8
_0-2_躯体
  6
CONTINUOUS
 62
    3
 10
2634.1133
 20
4225.4045
 11
2635.6778
 21
4225.8443
  0
LINE
  8
_0-2_躯体
  6
CONTINUOUS
 62
    3
 10
2635.6778
 20
4225.8443
 11
2637.1457
 21
4226.5626
  0
LINE
  8
_0-2_躯体
  6
CONTINUOUS
 62
    3
 10
2637.1457
 20
4226.5626
 11
2638.4724
 21
4227.5374
  0
LINE
  8
_0-2_躯体
  6
CONTINUOUS
 62
    3
 10
2638.4724
 20
4227.5374
 11
2639.6177
 21
4228.7391
  0
LINE
  8
_0-2_躯体
  6
CONTINUOUS
 62
    3
 10
2639.6177
 20
4228.7391
 11
2640.5467
 21
4230.1313
  0
LINE
  8
_0-2_躯体
  6
CONTINUOUS
 62
    3
 10
2640.5467
 20
4230.1313
 11
2641.2312
 21
4231.6716
  0
LINE
  8
_0-2_躯体
  6
CONTINUOUS
 62
    3
 10
2641.2312
 20
4231.6716
 11
2641.6503
 21
4233.3132
  0
LINE
  8
_0-2_躯体
  6
CONTINUOUS
 62
    3
 10
2641.6503
 20
4233.3132
 11
2641.7915
 21
4235.0063
  0
LINE
  8
_0-2_躯体
  6
CONTINUOUS
 62
    3
 10
2641.7915
 20
4235.0063
 11
2641.6503
 21
4236.6993
  0
LINE
  8
_0-2_躯体
  6
CONTINUOUS
 62
    3
 10
2641.6503
 20
4236.6993
 11
2641.2312
 21
4238.3409
  0
LINE
  8
_0-2_躯体
  6
CONTINUOUS
 62
    3
 10
2641.2312
 20
4238.3409
 11
2640.5467
 21
4239.8812
  0
LINE
  8
_0-2_躯体
  6
CONTINUOUS
 62
    3
 10
2640.5467
 20
4239.8812
 11
2639.6177
 21
4241.2734
  0
LINE
  8
_0-2_躯体
  6
CONTINUOUS
 62
    3
 10
2639.6177
 20
4241.2734
 11
2638.4724
 21
4242.4751
  0
LINE
  8
_0-2_躯体
  6
CONTINUOUS
 62
    3
 10
2638.4724
 20
4242.4751
 11
2637.1457
 21
4243.4499
  0
LINE
  8
_0-2_躯体
  6
CONTINUOUS
 62
    3
 10
2637.1457
 20
4243.4499
 11
2635.6778
 21
4244.1682
  0
LINE
  8
_0-2_躯体
  6
CONTINUOUS
 62
    3
 10
2635.6778
 20
4244.1682
 11
2634.1133
 21
4244.608
  0
LINE
  8
_0-2_躯体
  6
CONTINUOUS
 62
    3
 10
2634.1133
 20
4244.608
 11
2632.4999
 21
4244.7562
  0
LINE
  8
_0-2_躯体
  6
CONTINUOUS
 62
    3
 10
2632.4999
 20
4244.7562
 11
2632.4999
 21
4244.7562
  0
ARC
  8
_0-2_躯体
  6
CONTINUOUS
 62
    3
 10
2632.5154
 20
4570.1798
 40
8.9706137
 50
270
 51
90
  0
LINE
  8
_0-2_躯体
  6
CONTINUOUS
 62
    3
 10
2632.4999
 20
4225.2564
 11
2632.4999
 21
4225.2564
  0
LINE
  8
_0-2_躯体
  6
CONTINUOUS
 62
    3
 10
2632.4999
 20
4225.2564
 11
2634.1133
 21
4225.4045
  0
LINE
  8
_0-2_躯体
  6
CONTINUOUS
 62
    3
 10
2634.1133
 20
4225.4045
 11
2635.6778
 21
4225.8443
  0
LINE
  8
_0-2_躯体
  6
CONTINUOUS
 62
    3
 10
2635.6778
 20
4225.8443
 11
2637.1457
 21
4226.5626
  0
LINE
  8
_0-2_躯体
  6
CONTINUOUS
 62
    3
 10
2637.1457
 20
4226.5626
 11
2638.4724
 21
4227.5374
  0
LINE
  8
_0-2_躯体
  6
CONTINUOUS
 62
    3
 10
2638.4724
 20
4227.5374
 11
2639.6177
 21
4228.7391
  0
LINE
  8
_0-2_躯体
  6
CONTINUOUS
 62
    3
 10
2639.6177
 20
4228.7391
 11
2640.5467
 21
4230.1313
  0
LINE
  8
_0-2_躯体
  6
CONTINUOUS
 62
    3
 10
2640.5467
 20
4230.1313
 11
2641.2312
 21
4231.6716
  0
LINE
  8
_0-2_躯体
  6
CONTINUOUS
 62
    3
 10
2641.2312
 20
4231.6716
 11
2641.6503
 21
4233.3132
  0
LINE
  8
_0-2_躯体
  6
CONTINUOUS
 62
    3
 10
2641.6503
 20
4233.3132
 11
2641.7915
 21
4235.0063
  0
LINE
  8
_0-2_躯体
  6
CONTINUOUS
 62
    3
 10
2641.7915
 20
4235.0063
 11
2641.6503
 21
4236.6993
  0
LINE
  8
_0-2_躯体
  6
CONTINUOUS
 62
    3
 10
2641.6503
 20
4236.6993
 11
2641.2312
 21
4238.3409
  0
LINE
  8
_0-2_躯体
  6
CONTINUOUS
 62
    3
 10
2641.2312
 20
4238.3409
 11
2640.5467
 21
4239.8812
  0
LINE
  8
_0-2_躯体
  6
CONTINUOUS
 62
    3
 10
2640.5467
 20
4239.8812
 11
2639.6177
 21
4241.2734
  0
LINE
  8
_0-2_躯体
  6
CONTINUOUS
 62
    3
 10
2639.6177
 20
4241.2734
 11
2638.4724
 21
4242.4751
  0
LINE
  8
_0-2_躯体
  6
CONTINUOUS
 62
    3
 10
2638.4724
 20
4242.4751
 11
2637.1457
 21
4243.4499
  0
LINE
  8
_0-2_躯体
  6
CONTINUOUS
 62
    3
 10
2637.1457
 20
4243.4499
 11
2635.6778
 21
4244.1682
  0
LINE
  8
_0-2_躯体
  6
CONTINUOUS
 62
    3
 10
2635.6778
 20
4244.1682
 11
2634.1133
 21
4244.608
  0
LINE
  8
_0-2_躯体
  6
CONTINUOUS
 62
    3
 10
2634.1133
 20
4244.608
 11
2632.4999
 21
4244.7562
  0
LINE
  8
_0-2_躯体
  6
CONTINUOUS
 62
    3
 10
2632.4999
 20
4244.7562
 11
2632.4999
 21
4244.7562
  0
LINE
  8
_0-2_躯体
  6
CONTINUOUS
 62
    3
 10
1567.5
 20
4244.7562
 11
1567.5
 21
4244.7562
  0
LINE
  8
_0-2_躯体
  6
CONTINUOUS
 62
    3
 10
1567.5
 20
4244.7562
 11
1565.8866
 21
4244.608
  0
LINE
  8
_0-2_躯体
  6
CONTINUOUS
 62
    3
 10
1565.8866
 20
4244.608
 11
1564.3221
 21
4244.1682
  0
LINE
  8
_0-2_躯体
  6
CONTINUOUS
 62
    3
 10
1564.3221
 20
4244.1682
 11
1562.8542
 21
4243.4499
  0
LINE
  8
_0-2_躯体
  6
CONTINUOUS
 62
    3
 10
1562.8542
 20
4243.4499
 11
1561.5275
 21
4242.4751
  0
LINE
  8
_0-2_躯体
  6
CONTINUOUS
 62
    3
 10
1561.5275
 20
4242.4751
 11
1560.3822
 21
4241.2734
  0
LINE
  8
_0-2_躯体
  6
CONTINUOUS
 62
    3
 10
1560.3822
 20
4241.2734
 11
1559.4532
 21
4239.8812
  0
LINE
  8
_0-2_躯体
  6
CONTINUOUS
 62
    3
 10
1559.4532
 20
4239.8812
 11
1558.7687
 21
4238.3409
  0
LINE
  8
_0-2_躯体
  6
CONTINUOUS
 62
    3
 10
1558.7687
 20
4238.3409
 11
1558.3496
 21
4236.6993
  0
LINE
  8
_0-2_躯体
  6
CONTINUOUS
 62
    3
 10
1558.3496
 20
4236.6993
 11
1558.2084
 21
4235.0063
  0
LINE
  8
_0-2_躯体
  6
CONTINUOUS
 62
    3
 10
1558.2084
 20
4235.0063
 11
1558.3496
 21
4233.3132
  0
LINE
  8
_0-2_躯体
  6
CONTINUOUS
 62
    3
 10
1558.3496
 20
4233.3132
 11
1558.7687
 21
4231.6716
  0
LINE
  8
_0-2_躯体
  6
CONTINUOUS
 62
    3
 10
1558.7687
 20
4231.6716
 11
1559.4532
 21
4230.1313
  0
LINE
  8
_0-2_躯体
  6
CONTINUOUS
 62
    3
 10
1559.4532
 20
4230.1313
 11
1560.3822
 21
4228.7391
  0
LINE
  8
_0-2_躯体
  6
CONTINUOUS
 62
    3
 10
1560.3822
 20
4228.7391
 11
1561.5275
 21
4227.5374
  0
LINE
  8
_0-2_躯体
  6
CONTINUOUS
 62
    3
 10
1561.5275
 20
4227.5374
 11
1562.8542
 21
4226.5626
  0
LINE
  8
_0-2_躯体
  6
CONTINUOUS
 62
    3
 10
1562.8542
 20
4226.5626
 11
1564.3221
 21
4225.8443
  0
LINE
  8
_0-2_躯体
  6
CONTINUOUS
 62
    3
 10
1564.3221
 20
4225.8443
 11
1565.8866
 21
4225.4045
  0
LINE
  8
_0-2_躯体
  6
CONTINUOUS
 62
    3
 10
1565.8866
 20
4225.4045
 11
1567.5
 21
4225.2564
  0
LINE
  8
_0-2_躯体
  6
CONTINUOUS
 62
    3
 10
1567.5
 20
4225.2564
 11
1567.5
 21
4225.2564
  0
LINE
  8
_0-2_躯体
  6
CONTINUOUS
 62
    3
 10
1567.5
 20
4244.7562
 11
1567.5
 21
4244.7562
  0
LINE
  8
_0-2_躯体
  6
CONTINUOUS
 62
    3
 10
1567.5
 20
4244.7562
 11
1565.8866
 21
4244.608
  0
LINE
  8
_0-2_躯体
  6
CONTINUOUS
 62
    3
 10
1565.8866
 20
4244.608
 11
1564.3221
 21
4244.1682
  0
LINE
  8
_0-2_躯体
  6
CONTINUOUS
 62
    3
 10
1564.3221
 20
4244.1682
 11
1562.8542
 21
4243.4499
  0
LINE
  8
_0-2_躯体
  6
CONTINUOUS
 62
    3
 10
1562.8542
 20
4243.4499
 11
1561.5275
 21
4242.4751
  0
LINE
  8
_0-2_躯体
  6
CONTINUOUS
 62
    3
 10
1561.5275
 20
4242.4751
 11
1560.3822
 21
4241.2734
  0
LINE
  8
_0-2_躯体
  6
CONTINUOUS
 62
    3
 10
1560.3822
 20
4241.2734
 11
1559.4532
 21
4239.8812
  0
LINE
  8
_0-2_躯体
  6
CONTINUOUS
 62
    3
 10
1559.4532
 20
4239.8812
 11
1558.7687
 21
4238.3409
  0
LINE
  8
_0-2_躯体
  6
CONTINUOUS
 62
    3
 10
1558.7687
 20
4238.3409
 11
1558.3496
 21
4236.6993
  0
LINE
  8
_0-2_躯体
  6
CONTINUOUS
 62
    3
 10
1558.3496
 20
4236.6993
 11
1558.2084
 21
4235.0063
  0
LINE
  8
_0-2_躯体
  6
CONTINUOUS
 62
    3
 10
1558.2084
 20
4235.0063
 11
1558.3496
 21
4233.3132
  0
LINE
  8
_0-2_躯体
  6
CONTINUOUS
 62
    3
 10
1558.3496
 20
4233.3132
 11
1558.7687
 21
4231.6716
  0
LINE
  8
_0-2_躯体
  6
CONTINUOUS
 62
    3
 10
1558.7687
 20
4231.6716
 11
1559.4532
 21
4230.1313
  0
LINE
  8
_0-2_躯体
  6
CONTINUOUS
 62
    3
 10
1559.4532
 20
4230.1313
 11
1560.3822
 21
4228.7391
  0
LINE
  8
_0-2_躯体
  6
CONTINUOUS
 62
    3
 10
1560.3822
 20
4228.7391
 11
1561.5275
 21
4227.5374
  0
LINE
  8
_0-2_躯体
  6
CONTINUOUS
 62
    3
 10
1561.5275
 20
4227.5374
 11
1562.8542
 21
4226.5626
  0
LINE
  8
_0-2_躯体
  6
CONTINUOUS
 62
    3
 10
1562.8542
 20
4226.5626
 11
1564.3221
 21
4225.8443
  0
LINE
  8
_0-2_躯体
  6
CONTINUOUS
 62
    3
 10
1564.3221
 20
4225.8443
 11
1565.8866
 21
4225.4045
  0
LINE
  8
_0-2_躯体
  6
CONTINUOUS
 62
    3
 10
1565.8866
 20
4225.4045
 11
1567.5
 21
4225.2564
  0
LINE
  8
_0-2_躯体
  6
CONTINUOUS
 62
    3
 10
1567.5
 20
4225.2564
 11
1567.5
 21
4225.2564
  0
ARC
  8
_0-3_軸組
  6
CONTINUOUS
 62
    3
 10
2116.2805
 20
4347.1133
 40
10.192053
 50
270
 51
0
  0
ARC
  8
_0-3_軸組
  6
CONTINUOUS
 62
    3
 10
2116.2805
 20
4483.3284
 40
10.192053
 50
0
 51
90
  0
ARC
  8
_0-3_軸組
  6
CONTINUOUS
 62
    3
 10
2219.4258
 20
4163.1062
 40
19.96293
 50
270
 51
0
  0
ARC
  8
_0-3_軸組
  6
CONTINUOUS
 62
    3
 10
2209.4446
 20
4135.1749
 40
9.9814653
 50
270
 51
0
  0
TEXT
  8
_0-d_文字
 62
    7
 10
509.99969
 20
310.13513
 40
50
 41
1
 50
0
  1
図
  0
TEXT
  8
_0-d_文字
 62
    7
 10
509.99969
 20
190.1352
 40
50
 41
1
 50
0
  1
番
  0
TEXT
  8
_0-d_文字
 62
    7
 10
1309.9997
 20
310.13513
 40
50
 41
1
 50
0
  1
承
  0
TEXT
  8
_0-d_文字
 62
    7
 10
1309.9997
 20
190.1352
 40
50
 41
1
 50
0
  1
認
  0
TEXT
  8
_0-d_文字
 62
    7
 10
2039.9996
 20
470.13522
 40
50
 41
1
 50
0
  1
尺
  0
TEXT
  8
_0-d_文字
 62
    7
 10
2039.9996
 20
390.13527
 40
50
 41
1
 50
-0.0001417
  1
度
  0
TEXT
  8
_0-d_文字
 62
    7
 10
1709.9997
 20
310.13513
 40
50
 41
1
 50
0
  1
製
  0
TEXT
  8
_0-d_文字
 62
    7
 10
1709.9997
 20
190.1352
 40
50
 41
1
 50
0
  1
図
  0
TEXT
  8
_0-d_文字
 62
    7
 10
3109.9998
 20
470.13522
 40
50
 41
1
 50
0
  1
日
  0
TEXT
  8
_0-d_文字
 62
    7
 10
3109.9998
 20
390.13527
 40
50
 41
1
 50
-0.0001417
  1
付
  0
TEXT
  8
_0-d_文字
 62
    7
 10
2222.8519
 20
322.09974
 40
40
 41
1
 50
0
  1
株式
  0
TEXT
  8
_0-d_文字
 62
    7
 10
2222.8519
 20
278.83888
 40
40
 41
1
 50
0.0000196
  1
会社
  0
TEXT
  8
_0-d_文字
 62
    3
 10
2348.4483
 20
281.62988
 40
80
 41
1
 50
-0.0000039
  1
スズキベンチレーター
  0
TEXT
  8
_0-d_文字
 62
    7
 10
2475.8353
 20
183.18396
 40
40
 41
1
 50
0
  1
TEL(054)296-7000  FAX(054)296-7001
  0
TEXT
  8
_0-d_文字
 62
    3
 10
2168.6976
 20
415.33665
 40
80
 41
1
 50
0
  1
１／２０
  0
TEXT
  8
_0-8_寸法
 62
    3
 10
998.27517
 20
4377.3816
 40
60
 41
1
 50
90
  1
900
  0
TEXT
  8
_0-8_寸法
 62
    3
 10
2045.6251
 20
5110.9972
 40
60
 41
1
 50
0
  1
1,600
  0
TEXT
  8
_0-8_寸法
 62
    3
 10
1925.0998
 20
3800.7167
 40
60
 41
1
 50
-0.0000746
  1
1,270x1,270
  0
TEXT
  8
_0-d_文字
 62
    7
 10
2471.3581
 20
232.42737
 40
40
 41
1
 50
-0.0000034
  1
〒421-2114　静岡市葵区安倍口新田１５２番地
  0
TEXT
  8
_0-d_文字
 62
    3
 10
509.99995
 20
5545.4025
 40
100
 41
1
 50
0
  1
ＳＴ－１０５Ｌ　架台型（低騒音）網付　断面
  0
TEXT
  8
_0-d_文字
 62
    7
 10
562.32177
 20
415.2802
 40
50
 41
1
 50
0
  1
ＳＴ－１０５Ｌ　架台型（低騒音）網付　断面
  0
TEXT
  8
_0-d_文字
 62
    3
 10
596.67529
 20
287.90674
 40
60
 41
1
 50
0
  1
105L-04b
  0
POINT
  8
_0-8_寸法
 62
    2
 10
1013.2748
 20
4056.7565
  0
POINT
  8
_0-8_寸法
 62
    2
 10
1013.2748
 20
4956.7565
  0
POINT
  8
_0-8_寸法
 62
    2
 10
1300
 20
5095.9969
  0
POINT
  8
_0-8_寸法
 62
    2
 10
2899.9999
 20
5095.9969
  0
POINT
  8
_0-8_寸法
 62
    2
 10
1464.9998
 20
3791.1499
  0
POINT
  8
_0-8_寸法
 62
    2
 10
2735.0001
 20
3791.1499
  0
ENDSEC
  0
EOF
