  0
SECTION
  2
HEADER
  9
$ACADVER
  1
AC1009
  9
$INSBASE
 10
0
 20
0
 30
0
  9
$EXTMIN
 10
0
 20
0
  9
$EXTMAX
 10
8400
 20
5940
  9
$LIMMIN
 10
0
 20
0
  9
$LIMMAX
 10
8400
 20
5940
  9
$LTSCALE
 40
20
  0
ENDSEC
  0
SECTION
  2
TABLES
  0
TABLE
  2
LTYPE
 70
     9
  0
LTYPE
  2
CONTINUOUS
 70
    64
  3
実線
 72
    65
 73
     0
 40
0.0
  0
LTYPE
  2
DASHED1
 70
    64
  3
--  --  --  --  --  --  --  --  
 72
    65
 73
     2
 40
2.5
 49
1.25
 49
-1.25
  0
LTYPE
  2
DASHED2
 70
    64
  3
----    ----    ----    ----    
 72
    65
 73
     2
 40
5.0
 49
2.5
 49
-2.5
  0
LTYPE
  2
DASHED3
 70
    64
  3
------  ------  ------  ------  
 72
    65
 73
     2
 40
5.0
 49
3.75
 49
-1.25
  0
LTYPE
  2
CENTER1
 70
    64
  3
----- - ----- - ----- - ----- - 
 72
    65
 73
     4
 40
10.0
 49
6.25
 49
-1.25
 49
1.25
 49
-1.25
  0
LTYPE
  2
CENTER2
 70
    64
  3
----------  --  ----------  --  
 72
    65
 73
     4
 40
20.0
 49
12.5
 49
-2.5
 49
2.5
 49
-2.5
  0
LTYPE
  2
PHANTOM1
 70
    64
  3
--- - - --- - - --- - - --- - - 
 72
    65
 73
     6
 40
10.0
 49
3.25
 49
-1.25
 49
1.25
 49
-1.25
 49
1.25
 49
-1.25
  0
LTYPE
  2
PHANTOM2
 70
    64
  3
--------  -  -  --------  -  -  
 72
    65
 73
     6
 40
20.0
 49
10.0
 49
-2.5
 49
1.25
 49
-2.5
 49
1.25
 49
-2.5
  0
LTYPE
  2
DOT
 70
    64
  3
-   -   -   -   -   -   -   -   
 72
    65
 73
     2
 40
2.5
 49
0.625
 49
-1.875
  0
LTYPE
  2
DUMMY
 70
    64
  3
ダミー
 72
    65
 73
     0
 40
0.0
  0
LTYPE
  2
RAND1
 70
    64
  3
----- - ----- - ----- - ----- - 
 72
    65
 73
     4
 40
10.0
 49
6.25
 49
-1.25
 49
1.25
 49
-1.25
  0
LTYPE
  2
RAND2
 70
    64
  3
----------  --  ----------  --  
 72
    65
 73
     4
 40
20.0
 49
12.5
 49
-2.5
 49
2.5
 49
-2.5
  0
LTYPE
  2
RAND3
 70
    64
  3
--- - - --- - - --- - - --- - - 
 72
    65
 73
     6
 40
10.0
 49
3.25
 49
-1.25
 49
1.25
 49
-1.25
 49
1.25
 49
-1.25
  0
LTYPE
  2
RAND4
 70
    64
  3
--------  -  -  --------  -  -  
 72
    65
 73
     6
 40
20.0
 49
10.0
 49
-2.5
 49
1.25
 49
-2.5
 49
1.25
 49
-2.5
  0
LTYPE
  2
RAND5
 70
    64
  3
----- - ----- - ----- - ----- - 
 72
    65
 73
     4
 40
10.0
 49
6.25
 49
-1.25
 49
1.25
 49
-1.25
  0
LTYPE
  2
LONG1
 70
    64
  3
----------  --  ----------  --  
 72
    65
 73
     4
 40
20.0
 49
12.5
 49
-2.5
 49
2.5
 49
-2.5
  0
LTYPE
  2
LONG2
 70
    64
  3
--- - - --- - - --- - - --- - - 
 72
    65
 73
     6
 40
10.0
 49
3.25
 49
-1.25
 49
1.25
 49
-1.25
 49
1.25
 49
-1.25
  0
LTYPE
  2
LONG3
 70
    64
  3
--------  -  -  --------  -  -  
 72
    65
 73
     6
 40
20.0
 49
10.0
 49
-2.5
 49
1.25
 49
-2.5
 49
1.25
 49
-2.5
  0
LTYPE
  2
LONG4
 70
    64
  3
----- - ----- - ----- - ----- - 
 72
    65
 73
     4
 40
10.0
 49
6.25
 49
-1.25
 49
1.25
 49
-1.25
  0
LTYPE
  2
LONG5
 70
    64
  3
----------  --  ----------  --  
 72
    65
 73
     4
 40
20.0
 49
12.5
 49
-2.5
 49
2.5
 49
-2.5
  0
ENDTAB
  0
TABLE
  2
STYLE
  5
3
100
AcDbSymbolTable
 70
     1
  0
STYLE
  5
10
100
AcDbSymbolTableRecord
100
AcDbTextStyleTableRecord
  2
STANDARD
 70
     0
 40
0.0
 41
1.0
 50
0.0
 71
     0
 42
0.2
  3
txt
  4
bigfont.shx
  0
STYLE
  5
26
100
AcDbSymbolTableRecord
100
AcDbTextStyleTableRecord
  2
TATEGAKI
 70
    68
 40
0.0
 41
1.0
 50
0.0
 71
     0
 42
1.0
  3
txt
  4
bigfont.shx
  0
ENDTAB
  0
TABLE
  2
LAYER
 70
    7
  0
LAYER
  2
_0-1_基準線
 70
   64
 62
    7
  6
CONTINUOUS
  0
LAYER
  2
_0-2_躯体
 70
   64
 62
    7
  6
CONTINUOUS
  0
LAYER
  2
_0-3_軸組
 70
   64
 62
    7
  6
CONTINUOUS
  0
LAYER
  2
_0-4_仕上
 70
   64
 62
    7
  6
CONTINUOUS
  0
LAYER
  2
_0-8_寸法
 70
   64
 62
    7
  6
CONTINUOUS
  0
LAYER
  2
_0-d_文字
 70
   64
 62
    7
  6
CONTINUOUS
  0
LAYER
  2
ADD_LINE
 70
   64
 62
    7
  6
CONTINUOUS
  0
ENDTAB
  0
ENDSEC
  0
SECTION
  2
BLOCKS
  0
ENDSEC
  0
SECTION
  2
ENTITIES
  0
LINE
  8
_0-d_文字
  6
CONTINUOUS
 62
    7
 10
500.00004
 20
5515.4024
 11
3700
 21
5515.4024
  0
LINE
  8
_0-d_文字
  6
CONTINUOUS
 62
    7
 10
500.00004
 20
5535.4025
 11
3700
 21
5535.4025
  0
LINE
  8
_0-d_文字
  6
CONTINUOUS
 62
    7
 10
499.99979
 20
375.13522
 11
3699.9998
 21
375.13522
  0
LINE
  8
_0-d_文字
  6
CONTINUOUS
 62
    7
 10
499.99979
 20
175.13518
 11
499.99979
 21
535.13513
  0
LINE
  8
_0-d_文字
  6
CONTINUOUS
 62
    7
 10
499.99979
 20
175.13518
 11
3699.9998
 21
175.13518
  0
LINE
  8
_0-d_文字
  6
CONTINUOUS
 62
    7
 10
2100
 20
535.13513
 11
2100
 21
175.13518
  0
LINE
  8
_0-d_文字
  6
CONTINUOUS
 62
    7
 10
1299.9999
 20
175.13518
 11
1299.9999
 21
375.13522
  0
LINE
  8
_0-d_文字
  6
CONTINUOUS
 62
    7
 10
2100
 20
375.13522
 11
2100
 21
535.13513
  0
LINE
  8
_0-d_文字
  6
CONTINUOUS
 62
    7
 10
1699.9999
 20
175.13518
 11
1699.9999
 21
375.13522
  0
LINE
  8
_0-d_文字
  6
CONTINUOUS
 62
    7
 10
569.99965
 20
175.13518
 11
569.99965
 21
375.13522
  0
LINE
  8
_0-d_文字
  6
CONTINUOUS
 62
    7
 10
1369.9995
 20
175.13518
 11
1369.9995
 21
375.13522
  0
LINE
  8
_0-d_文字
  6
CONTINUOUS
 62
    7
 10
1769.9995
 20
175.13518
 11
1769.9995
 21
375.13522
  0
LINE
  8
_0-d_文字
  6
CONTINUOUS
 62
    7
 10
2029.9998
 20
375.13522
 11
2029.9998
 21
535.13513
  0
LINE
  8
_0-d_文字
  6
CONTINUOUS
 62
    7
 10
3099.9998
 20
375.13522
 11
3099.9998
 21
535.13513
  0
LINE
  8
_0-d_文字
  6
CONTINUOUS
 62
    7
 10
3169.9995
 20
375.13522
 11
3169.9995
 21
535.13513
  0
LINE
  8
_0-d_文字
  6
CONTINUOUS
 62
    7
 10
499.99979
 20
535.13513
 11
3699.9998
 21
535.13513
  0
LINE
  8
_0-d_文字
  6
CONTINUOUS
 62
    7
 10
3699.9998
 20
535.13513
 11
3699.9998
 21
175.13518
  0
LINE
  8
_0-8_寸法
  6
CONTINUOUS
 62
    7
 10
1300
 20
5095.9969
 11
2899.9999
 21
5095.9969
  0
LINE
  8
_0-2_躯体
  6
CONTINUOUS
 62
    3
 10
1300
 20
4771.7567
 11
1300
 21
4534.7563
  0
LINE
  8
_0-2_躯体
  6
CONTINUOUS
 62
    3
 10
2899.9999
 20
4771.7567
 11
2899.9999
 21
4534.7563
  0
LINE
  8
_0-8_寸法
  6
CONTINUOUS
 62
    7
 10
1567.4997
 20
4015.3987
 11
1567.4997
 21
3899.9398
  0
LINE
  8
_0-8_寸法
  6
CONTINUOUS
 62
    7
 10
2632.4999
 20
4015.3987
 11
2632.4999
 21
3899.9398
  0
LINE
  8
_0-8_寸法
  6
CONTINUOUS
 62
    7
 10
1300
 20
4852.3048
 11
1300
 21
5095.9969
  0
LINE
  8
_0-8_寸法
  6
CONTINUOUS
 62
    7
 10
1604.554
 20
4956.7565
 11
1013.2747
 21
4956.7565
  0
LINE
  8
_0-8_寸法
  6
CONTINUOUS
 62
    7
 10
2899.9999
 20
4852.3048
 11
2899.9999
 21
5095.9969
  0
LINE
  8
_0-2_躯体
  6
CONTINUOUS
 62
    3
 10
1300
 20
4515.2571
 11
1300
 21
4456.7564
  0
LINE
  8
_0-2_躯体
  6
CONTINUOUS
 62
    3
 10
1300
 20
4437.2571
 11
1300
 21
4391.7559
  0
LINE
  8
_0-2_躯体
  6
CONTINUOUS
 62
    3
 10
2899.9999
 20
4515.2571
 11
2899.9999
 21
4456.7564
  0
LINE
  8
_0-2_躯体
  6
CONTINUOUS
 62
    3
 10
2899.9976
 20
4437.2571
 11
2899.9976
 21
4391.7559
  0
LINE
  8
_0-3_軸組
  6
CONTINUOUS
 62
    3
 10
2137.3401
 20
4480.9644
 11
2147.1669
 21
4487.0039
  0
LINE
  8
_0-3_軸組
  6
CONTINUOUS
 62
    3
 10
2147.1669
 20
4487.0039
 11
2156.947
 21
4493.1637
  0
LINE
  8
_0-3_軸組
  6
CONTINUOUS
 62
    3
 10
2156.947
 20
4493.1637
 11
2166.635
 21
4499.5536
  0
LINE
  8
_0-3_軸組
  6
CONTINUOUS
 62
    3
 10
2166.635
 20
4499.5536
 11
2176.1223
 21
4506.2988
  0
LINE
  8
_0-3_軸組
  6
CONTINUOUS
 62
    3
 10
2176.1223
 20
4506.2988
 11
2185.236
 21
4513.5354
  0
LINE
  8
_0-3_軸組
  6
CONTINUOUS
 62
    3
 10
2185.236
 20
4513.5354
 11
2193.7853
 21
4521.3817
  0
LINE
  8
_0-3_軸組
  6
CONTINUOUS
 62
    3
 10
2193.7853
 20
4521.3817
 11
2201.5839
 21
4529.9763
  0
LINE
  8
_0-3_軸組
  6
CONTINUOUS
 62
    3
 10
2201.5839
 20
4529.9763
 11
2208.4424
 21
4539.4414
  0
LINE
  8
_0-3_軸組
  6
CONTINUOUS
 62
    3
 10
2208.4424
 20
4539.4414
 11
2214.425
 21
4549.6799
  0
LINE
  8
_0-3_軸組
  6
CONTINUOUS
 62
    3
 10
2214.425
 20
4549.6799
 11
2220.0775
 21
4560.1348
  0
LINE
  8
_0-3_軸組
  6
CONTINUOUS
 62
    3
 10
2220.0775
 20
4560.1348
 11
2225.9753
 21
4570.2169
  0
LINE
  8
_0-3_軸組
  6
CONTINUOUS
 62
    3
 10
2225.9753
 20
4570.2169
 11
2232.7217
 21
4579.3346
  0
LINE
  8
_0-3_軸組
  6
CONTINUOUS
 62
    3
 10
2232.7217
 20
4579.3346
 11
2240.8882
 21
4586.8949
  0
LINE
  8
_0-3_軸組
  6
CONTINUOUS
 62
    3
 10
2240.8882
 20
4586.8949
 11
2250.6547
 21
4592.7394
  0
LINE
  8
_0-3_軸組
  6
CONTINUOUS
 62
    3
 10
2250.6547
 20
4592.7394
 11
2261.427
 21
4597.5155
  0
LINE
  8
_0-3_軸組
  6
CONTINUOUS
 62
    3
 10
2261.427
 20
4597.5155
 11
2266.5265
 21
4599.5524
  0
LINE
  8
_0-3_軸組
  6
CONTINUOUS
 62
    3
 10
2261.427
 20
4597.5155
 11
2268.5206
 21
4598.6428
  0
LINE
  8
_0-3_軸組
  6
CONTINUOUS
 62
    3
 10
2268.5206
 20
4598.6428
 11
2275.6778
 21
4599.6232
  0
LINE
  8
_0-3_軸組
  6
CONTINUOUS
 62
    3
 10
2275.6778
 20
4599.6232
 11
2282.953
 21
4600.3254
  0
LINE
  8
_0-3_軸組
  6
CONTINUOUS
 62
    3
 10
2282.953
 20
4600.3254
 11
2290.4071
 21
4600.5912
  0
LINE
  8
_0-3_軸組
  6
CONTINUOUS
 62
    3
 10
2290.4071
 20
4600.5912
 11
2298.0879
 21
4600.2898
  0
LINE
  8
_0-3_軸組
  6
CONTINUOUS
 62
    3
 10
2298.0879
 20
4600.2898
 11
2305.7739
 21
4599.1704
  0
LINE
  8
_0-3_軸組
  6
CONTINUOUS
 62
    3
 10
2305.7739
 20
4599.1704
 11
2312.9437
 21
4596.9251
  0
LINE
  8
_0-3_軸組
  6
CONTINUOUS
 62
    3
 10
2312.9437
 20
4596.9251
 11
2319.0547
 21
4593.2021
  0
LINE
  8
_0-3_軸組
  6
CONTINUOUS
 62
    3
 10
2319.0547
 20
4593.2021
 11
2323.6675
 21
4587.7624
  0
LINE
  8
_0-3_軸組
  6
CONTINUOUS
 62
    3
 10
2323.6675
 20
4587.7624
 11
2327.2633
 21
4581.2315
  0
LINE
  8
_0-3_軸組
  6
CONTINUOUS
 62
    3
 10
2133.4823
 20
4453.9722
 11
2144.9974
 21
4455.6815
  0
LINE
  8
_0-3_軸組
  6
CONTINUOUS
 62
    3
 10
2144.9974
 20
4455.6815
 11
2156.4425
 21
4457.616
  0
LINE
  8
_0-3_軸組
  6
CONTINUOUS
 62
    3
 10
2156.4425
 20
4457.616
 11
2167.7611
 21
4459.9805
  0
LINE
  8
_0-3_軸組
  6
CONTINUOUS
 62
    3
 10
2167.7611
 20
4459.9805
 11
2178.8763
 21
4463.0052
  0
LINE
  8
_0-3_軸組
  6
CONTINUOUS
 62
    3
 10
2178.8763
 20
4463.0052
 11
2189.7308
 21
4466.8999
  0
LINE
  8
_0-3_軸組
  6
CONTINUOUS
 62
    3
 10
2189.7308
 20
4466.8999
 11
2200.2636
 21
4471.7166
  0
LINE
  8
_0-3_軸組
  6
CONTINUOUS
 62
    3
 10
2200.2636
 20
4471.7166
 11
2210.4296
 21
4477.3627
  0
LINE
  8
_0-3_軸組
  6
CONTINUOUS
 62
    3
 10
2210.4296
 20
4477.3627
 11
2220.1726
 21
4483.7733
  0
LINE
  8
_0-3_軸組
  6
CONTINUOUS
 62
    3
 10
2220.1726
 20
4483.7733
 11
2229.4471
 21
4490.8333
  0
LINE
  8
_0-3_軸組
  6
CONTINUOUS
 62
    3
 10
2229.4471
 20
4490.8333
 11
2238.2087
 21
4498.4762
  0
LINE
  8
_0-3_軸組
  6
CONTINUOUS
 62
    3
 10
2238.2087
 20
4498.4762
 11
2246.5242
 21
4506.5625
  0
LINE
  8
_0-3_軸組
  6
CONTINUOUS
 62
    3
 10
2246.5242
 20
4506.5625
 11
2254.5613
 21
4514.9092
  0
LINE
  8
_0-3_軸組
  6
CONTINUOUS
 62
    3
 10
2254.5613
 20
4514.9092
 11
2262.4962
 21
4523.3306
  0
LINE
  8
_0-3_軸組
  6
CONTINUOUS
 62
    3
 10
2262.4962
 20
4523.3306
 11
2270.4981
 21
4531.6416
  0
LINE
  8
_0-3_軸組
  6
CONTINUOUS
 62
    3
 10
2270.4981
 20
4531.6416
 11
2278.7485
 21
4539.6606
  0
LINE
  8
_0-3_軸組
  6
CONTINUOUS
 62
    3
 10
2278.7485
 20
4539.6606
 11
2287.4059
 21
4547.2268
  0
LINE
  8
_0-3_軸組
  6
CONTINUOUS
 62
    3
 10
2287.4059
 20
4547.2268
 11
2296.4585
 21
4554.3363
  0
LINE
  8
_0-3_軸組
  6
CONTINUOUS
 62
    3
 10
2296.4585
 20
4554.3363
 11
2305.8338
 21
4561.0973
  0
LINE
  8
_0-3_軸組
  6
CONTINUOUS
 62
    3
 10
2305.8338
 20
4561.0973
 11
2315.4322
 21
4567.5941
  0
LINE
  8
_0-3_軸組
  6
CONTINUOUS
 62
    3
 10
2315.4322
 20
4567.5941
 11
2325.1826
 21
4573.9295
  0
LINE
  8
_0-3_軸組
  6
CONTINUOUS
 62
    3
 10
2325.1826
 20
4573.9295
 11
2332.0846
 21
4578.3409
  0
LINE
  8
_0-3_軸組
  6
CONTINUOUS
 62
    3
 10
2332.0846
 20
4578.3409
 11
2342.8552
 21
4582.8077
  0
LINE
  8
_0-3_軸組
  6
CONTINUOUS
 62
    3
 10
2342.8552
 20
4582.8077
 11
2353.6876
 21
4586.9795
  0
LINE
  8
_0-3_軸組
  6
CONTINUOUS
 62
    3
 10
2353.6876
 20
4586.9795
 11
2364.6482
 21
4590.5595
  0
LINE
  8
_0-3_軸組
  6
CONTINUOUS
 62
    3
 10
2364.6482
 20
4590.5595
 11
2375.8006
 21
4593.2575
  0
LINE
  8
_0-3_軸組
  6
CONTINUOUS
 62
    3
 10
2375.8006
 20
4593.2575
 11
2387.1714
 21
4594.9104
  0
LINE
  8
_0-3_軸組
  6
CONTINUOUS
 62
    3
 10
2387.1714
 20
4594.9104
 11
2398.7056
 21
4595.6369
  0
LINE
  8
_0-3_軸組
  6
CONTINUOUS
 62
    3
 10
2398.7056
 20
4595.6369
 11
2410.337
 21
4595.5944
  0
LINE
  8
_0-3_軸組
  6
CONTINUOUS
 62
    3
 10
2410.337
 20
4595.5944
 11
2422.0025
 21
4594.9391
  0
LINE
  8
_0-3_軸組
  6
CONTINUOUS
 62
    3
 10
2422.0025
 20
4594.9391
 11
2433.6468
 21
4593.8346
  0
LINE
  8
_0-3_軸組
  6
CONTINUOUS
 62
    3
 10
2433.6468
 20
4593.8346
 11
2445.203
 21
4592.4133
  0
LINE
  8
_0-3_軸組
  6
CONTINUOUS
 62
    3
 10
2445.203
 20
4592.4133
 11
2456.6562
 21
4590.6466
  0
LINE
  8
_0-3_軸組
  6
CONTINUOUS
 62
    3
 10
2456.6562
 20
4590.6466
 11
2468.0122
 21
4588.4948
  0
LINE
  8
_0-3_軸組
  6
CONTINUOUS
 62
    3
 10
2468.0122
 20
4588.4948
 11
2479.2539
 21
4585.8848
  0
LINE
  8
_0-3_軸組
  6
CONTINUOUS
 62
    3
 10
2479.2539
 20
4585.8848
 11
2490.3877
 21
4582.772
  0
LINE
  8
_0-3_軸組
  6
CONTINUOUS
 62
    3
 10
2490.3877
 20
4582.772
 11
2501.4092
 21
4579.0862
  0
LINE
  8
_0-3_軸組
  6
CONTINUOUS
 62
    3
 10
2501.4092
 20
4579.0862
 11
2512.2738
 21
4574.7758
  0
LINE
  8
_0-3_軸組
  6
CONTINUOUS
 62
    3
 10
2512.2738
 20
4574.7758
 11
2522.8808
 21
4569.7923
  0
LINE
  8
_0-3_軸組
  6
CONTINUOUS
 62
    3
 10
2522.8808
 20
4569.7923
 11
2533.0743
 21
4564.1057
  0
LINE
  8
_0-3_軸組
  6
CONTINUOUS
 62
    3
 10
2533.0743
 20
4564.1057
 11
2542.7237
 21
4557.6628
  0
LINE
  8
_0-3_軸組
  6
CONTINUOUS
 62
    3
 10
2542.7237
 20
4557.6628
 11
2551.6872
 21
4550.4153
  0
LINE
  8
_0-3_軸組
  6
CONTINUOUS
 62
    3
 10
2551.6872
 20
4550.4153
 11
2559.8416
 21
4542.3423
  0
LINE
  8
_0-3_軸組
  6
CONTINUOUS
 62
    3
 10
2559.8416
 20
4542.3423
 11
2567.2908
 21
4533.5627
  0
LINE
  8
_0-3_軸組
  6
CONTINUOUS
 62
    3
 10
2567.2908
 20
4533.5627
 11
2574.2226
 21
4524.2718
  0
LINE
  8
_0-3_軸組
  6
CONTINUOUS
 62
    3
 10
2574.2226
 20
4524.2718
 11
2580.831
 21
4514.6647
  0
LINE
  8
_0-3_軸組
  6
CONTINUOUS
 62
    3
 10
2580.831
 20
4514.6647
 11
2584.6715
 21
4508.9276
  0
LINE
  8
_0-3_軸組
  6
CONTINUOUS
 62
    3
 10
2580.831
 20
4514.6647
 11
2585.998
 21
4503.9644
  0
LINE
  8
_0-3_軸組
  6
CONTINUOUS
 62
    3
 10
2585.998
 20
4503.9644
 11
2590.8906
 21
4493.2171
  0
LINE
  8
_0-3_軸組
  6
CONTINUOUS
 62
    3
 10
2590.8906
 20
4493.2171
 11
2595.2433
 21
4482.3931
  0
LINE
  8
_0-3_軸組
  6
CONTINUOUS
 62
    3
 10
2595.2433
 20
4482.3931
 11
2598.7785
 21
4471.435
  0
LINE
  8
_0-3_軸組
  6
CONTINUOUS
 62
    3
 10
2598.7785
 20
4471.435
 11
2601.2274
 21
4460.3121
  0
LINE
  8
_0-3_軸組
  6
CONTINUOUS
 62
    3
 10
2601.2274
 20
4460.3121
 11
2602.329
 21
4448.9818
  0
LINE
  8
_0-3_軸組
  6
CONTINUOUS
 62
    3
 10
2602.329
 20
4448.9818
 11
2602.0133
 21
4437.4882
  0
LINE
  8
_0-3_軸組
  6
CONTINUOUS
 62
    3
 10
2602.0133
 20
4437.4882
 11
2600.4725
 21
4425.9437
  0
LINE
  8
_0-3_軸組
  6
CONTINUOUS
 62
    3
 10
2600.4725
 20
4425.9437
 11
2597.9055
 21
4414.4823
  0
LINE
  8
_0-3_軸組
  6
CONTINUOUS
 62
    3
 10
2597.9055
 20
4414.4823
 11
2594.4881
 21
4403.2346
  0
LINE
  8
_0-3_軸組
  6
CONTINUOUS
 62
    3
 10
2594.4881
 20
4403.2346
 11
2590.2782
 21
4392.3572
  0
LINE
  8
_0-3_軸組
  6
CONTINUOUS
 62
    3
 10
2590.2782
 20
4392.3572
 11
2585.1614
 21
4382.0018
  0
LINE
  8
_0-3_軸組
  6
CONTINUOUS
 62
    3
 10
2585.1614
 20
4382.0018
 11
2579.0147
 21
4372.3294
  0
LINE
  8
_0-3_軸組
  6
CONTINUOUS
 62
    3
 10
2579.0147
 20
4372.3294
 11
2571.8519
 21
4363.3988
  0
LINE
  8
_0-3_軸組
  6
CONTINUOUS
 62
    3
 10
2571.8519
 20
4363.3988
 11
2563.8887
 21
4355.0438
  0
LINE
  8
_0-3_軸組
  6
CONTINUOUS
 62
    3
 10
2563.8887
 20
4355.0438
 11
2555.3781
 21
4347.0891
  0
LINE
  8
_0-3_軸組
  6
CONTINUOUS
 62
    3
 10
2555.3781
 20
4347.0891
 11
2546.5563
 21
4339.367
  0
LINE
  8
_0-3_軸組
  6
CONTINUOUS
 62
    3
 10
2546.5563
 20
4339.367
 11
2544.1772
 21
4337.3231
  0
LINE
  8
_0-3_軸組
  6
CONTINUOUS
 62
    3
 10
2546.5563
 20
4339.367
 11
2536.4313
 21
4333.6902
  0
LINE
  8
_0-3_軸組
  6
CONTINUOUS
 62
    3
 10
2536.4313
 20
4333.6902
 11
2526.268
 21
4328.1193
  0
LINE
  8
_0-3_軸組
  6
CONTINUOUS
 62
    3
 10
2526.268
 20
4328.1193
 11
2516.0203
 21
4322.7509
  0
LINE
  8
_0-3_軸組
  6
CONTINUOUS
 62
    3
 10
2516.0203
 20
4322.7509
 11
2505.6323
 21
4317.6868
  0
LINE
  8
_0-3_軸組
  6
CONTINUOUS
 62
    3
 10
2505.6323
 20
4317.6868
 11
2495.0782
 21
4313.0265
  0
LINE
  8
_0-3_軸組
  6
CONTINUOUS
 62
    3
 10
2495.0782
 20
4313.0265
 11
2484.2982
 21
4308.871
  0
LINE
  8
_0-3_軸組
  6
CONTINUOUS
 62
    3
 10
2484.2982
 20
4308.871
 11
2473.2909
 21
4305.2806
  0
LINE
  8
_0-3_軸組
  6
CONTINUOUS
 62
    3
 10
2473.2909
 20
4305.2806
 11
2462.1019
 21
4302.2663
  0
LINE
  8
_0-3_軸組
  6
CONTINUOUS
 62
    3
 10
2462.1019
 20
4302.2663
 11
2450.7734
 21
4299.8246
  0
LINE
  8
_0-3_軸組
  6
CONTINUOUS
 62
    3
 10
2450.7734
 20
4299.8246
 11
2439.3402
 21
4297.9574
  0
LINE
  8
_0-3_軸組
  6
CONTINUOUS
 62
    3
 10
2439.3402
 20
4297.9574
 11
2427.858
 21
4296.6494
  0
LINE
  8
_0-3_軸組
  6
CONTINUOUS
 62
    3
 10
2427.858
 20
4296.6494
 11
2416.3372
 21
4295.8052
  0
LINE
  8
_0-3_軸組
  6
CONTINUOUS
 62
    3
 10
2416.3372
 20
4295.8052
 11
2404.7864
 21
4295.3113
  0
LINE
  8
_0-3_軸組
  6
CONTINUOUS
 62
    3
 10
2404.7864
 20
4295.3113
 11
2393.2102
 21
4295.0436
  0
LINE
  8
_0-3_軸組
  6
CONTINUOUS
 62
    3
 10
2393.2102
 20
4295.0436
 11
2383.176
 21
4294.9025
  0
LINE
  8
_0-3_軸組
  6
CONTINUOUS
 62
    3
 10
2253.8293
 20
4293.8395
 11
2264.6563
 21
4289.4569
  0
LINE
  8
_0-3_軸組
  6
CONTINUOUS
 62
    3
 10
2264.6563
 20
4289.4569
 11
2275.5459
 21
4285.1252
  0
LINE
  8
_0-3_軸組
  6
CONTINUOUS
 62
    3
 10
2275.5459
 20
4285.1252
 11
2286.5382
 21
4281.1335
  0
LINE
  8
_0-3_軸組
  6
CONTINUOUS
 62
    3
 10
2286.5382
 20
4281.1335
 11
2297.6356
 21
4277.8049
  0
LINE
  8
_0-3_軸組
  6
CONTINUOUS
 62
    3
 10
2297.6356
 20
4277.8049
 11
2308.8686
 21
4275.4572
  0
LINE
  8
_0-3_軸組
  6
CONTINUOUS
 62
    3
 10
2308.8686
 20
4275.4572
 11
2320.2615
 21
4274.4066
  0
LINE
  8
_0-3_軸組
  6
CONTINUOUS
 62
    3
 10
2320.2615
 20
4274.4066
 11
2331.7872
 21
4274.5704
  0
LINE
  8
_0-3_軸組
  6
CONTINUOUS
 62
    3
 10
2331.7872
 20
4274.5704
 11
2343.3969
 21
4275.427
  0
LINE
  8
_0-3_軸組
  6
CONTINUOUS
 62
    3
 10
2343.3969
 20
4275.427
 11
2345.578
 21
4275.6195
  0
LINE
  8
_0-3_軸組
  6
CONTINUOUS
 62
    3
 10
2343.3969
 20
4275.427
 11
2352.8899
 21
4277.5441
  0
LINE
  8
_0-3_軸組
  6
CONTINUOUS
 62
    3
 10
2352.8899
 20
4277.5441
 11
2362.0021
 21
4280.4728
  0
LINE
  8
_0-3_軸組
  6
CONTINUOUS
 62
    3
 10
2362.0021
 20
4280.4728
 11
2370.3621
 21
4285.0351
  0
LINE
  8
_0-3_軸組
  6
CONTINUOUS
 62
    3
 10
2370.3621
 20
4285.0351
 11
2377.4886
 21
4291.5784
  0
LINE
  8
_0-3_軸組
  6
CONTINUOUS
 62
    3
 10
2377.4886
 20
4291.5784
 11
2382.7732
 21
4299.7825
  0
LINE
  8
_0-3_軸組
  6
CONTINUOUS
 62
    3
 10
2382.7732
 20
4299.7825
 11
2385.6519
 21
4309.162
  0
LINE
  8
_0-3_軸組
  6
CONTINUOUS
 62
    3
 10
2385.6519
 20
4309.162
 11
2385.8637
 21
4318.8641
  0
LINE
  8
_0-3_軸組
  6
CONTINUOUS
 62
    3
 10
2385.8637
 20
4318.8641
 11
2383.2965
 21
4327.9526
  0
LINE
  8
_0-3_軸組
  6
CONTINUOUS
 62
    3
 10
2383.2965
 20
4327.9526
 11
2378.4989
 21
4336.221
  0
LINE
  8
_0-3_軸組
  6
CONTINUOUS
 62
    3
 10
2378.4989
 20
4336.221
 11
2372.573
 21
4344.0703
  0
LINE
  8
_0-3_軸組
  6
CONTINUOUS
 62
    3
 10
2150.1407
 20
4439.0085
 11
2161.8084
 21
4437.0221
  0
LINE
  8
_0-3_軸組
  6
CONTINUOUS
 62
    3
 10
2161.8084
 20
4437.0221
 11
2173.4369
 21
4435.3711
  0
LINE
  8
_0-3_軸組
  6
CONTINUOUS
 62
    3
 10
2173.4369
 20
4435.3711
 11
2184.9812
 21
4434.3913
  0
LINE
  8
_0-3_軸組
  6
CONTINUOUS
 62
    3
 10
2184.9812
 20
4434.3913
 11
2196.3998
 21
4434.4081
  0
LINE
  8
_0-3_軸組
  6
CONTINUOUS
 62
    3
 10
2196.3998
 20
4434.4081
 11
2207.6519
 21
4435.7517
  0
LINE
  8
_0-3_軸組
  6
CONTINUOUS
 62
    3
 10
2207.6519
 20
4435.7517
 11
2218.7379
 21
4438.4805
  0
LINE
  8
_0-3_軸組
  6
CONTINUOUS
 62
    3
 10
2218.7379
 20
4438.4805
 11
2229.6832
 21
4442.2262
  0
LINE
  8
_0-3_軸組
  6
CONTINUOUS
 62
    3
 10
2229.6832
 20
4442.2262
 11
2240.5393
 21
4446.6188
  0
LINE
  8
_0-3_軸組
  6
CONTINUOUS
 62
    3
 10
2240.5393
 20
4446.6188
 11
2251.3285
 21
4451.2612
  0
LINE
  8
_0-3_軸組
  6
CONTINUOUS
 62
    3
 10
2251.3285
 20
4451.2612
 11
2262.1054
 21
4455.8196
  0
LINE
  8
_0-3_軸組
  6
CONTINUOUS
 62
    3
 10
2262.1054
 20
4455.8196
 11
2272.8713
 21
4460.2062
  0
LINE
  8
_0-3_軸組
  6
CONTINUOUS
 62
    3
 10
2272.8713
 20
4460.2062
 11
2283.6364
 21
4464.4626
  0
LINE
  8
_0-3_軸組
  6
CONTINUOUS
 62
    3
 10
2283.6364
 20
4464.4626
 11
2294.3889
 21
4468.6122
  0
LINE
  8
_0-3_軸組
  6
CONTINUOUS
 62
    3
 10
2294.3889
 20
4468.6122
 11
2305.1422
 21
4472.6851
  0
LINE
  8
_0-3_軸組
  6
CONTINUOUS
 62
    3
 10
2305.1422
 20
4472.6851
 11
2315.8984
 21
4476.7213
  0
LINE
  8
_0-3_軸組
  6
CONTINUOUS
 62
    3
 10
2315.8984
 20
4476.7213
 11
2315.7484
 21
4466.8158
  0
LINE
  8
_0-3_軸組
  6
CONTINUOUS
 62
    3
 10
2315.7484
 20
4466.8158
 11
2315.6059
 21
4456.9212
  0
LINE
  8
_0-3_軸組
  6
CONTINUOUS
 62
    3
 10
2315.6059
 20
4456.9212
 11
2315.4634
 21
4447.0142
  0
LINE
  8
_0-3_軸組
  6
CONTINUOUS
 62
    3
 10
2315.4634
 20
4447.0142
 11
2315.3137
 21
4437.1181
  0
LINE
  8
_0-3_軸組
  6
CONTINUOUS
 62
    3
 10
2315.3137
 20
4437.1181
 11
2315.1731
 21
4427.2225
  0
LINE
  8
_0-3_軸組
  6
CONTINUOUS
 62
    3
 10
2315.1731
 20
4427.2225
 11
2315.0291
 21
4417.3155
  0
LINE
  8
_0-3_軸組
  6
CONTINUOUS
 62
    3
 10
2315.0291
 20
4417.3155
 11
2314.8799
 21
4407.4208
  0
LINE
  8
_0-3_軸組
  6
CONTINUOUS
 62
    3
 10
2314.8799
 20
4407.4208
 11
2314.7381
 21
4397.5153
  0
LINE
  8
_0-3_軸組
  6
CONTINUOUS
 62
    3
 10
2314.7381
 20
4397.5153
 11
2314.5904
 21
4387.6167
  0
LINE
  8
_0-3_軸組
  6
CONTINUOUS
 62
    3
 10
2314.5904
 20
4387.6167
 11
2314.4464
 21
4377.7142
  0
LINE
  8
_0-3_軸組
  6
CONTINUOUS
 62
    3
 10
2372.573
 20
4344.0703
 11
2370.2065
 21
4346.1557
  0
LINE
  8
_0-3_軸組
  6
CONTINUOUS
 62
    3
 10
2370.2065
 20
4346.1557
 11
2366.8039
 21
4348.6801
  0
LINE
  8
_0-3_軸組
  6
CONTINUOUS
 62
    3
 10
2366.8039
 20
4348.6801
 11
2362.5019
 21
4351.5662
  0
LINE
  8
_0-3_軸組
  6
CONTINUOUS
 62
    3
 10
2362.5019
 20
4351.5662
 11
2357.4161
 21
4354.7463
  0
LINE
  8
_0-3_軸組
  6
CONTINUOUS
 62
    3
 10
2357.4161
 20
4354.7463
 11
2351.6173
 21
4358.1571
  0
LINE
  8
_0-3_軸組
  6
CONTINUOUS
 62
    3
 10
2351.6173
 20
4358.1571
 11
2345.2096
 21
4361.7543
  0
LINE
  8
_0-3_軸組
  6
CONTINUOUS
 62
    3
 10
2345.2096
 20
4361.7543
 11
2338.2555
 21
4365.4931
  0
LINE
  8
_0-3_軸組
  6
CONTINUOUS
 62
    3
 10
2338.2555
 20
4365.4931
 11
2330.8059
 21
4369.3324
  0
LINE
  8
_0-3_軸組
  6
CONTINUOUS
 62
    3
 10
2330.8059
 20
4369.3324
 11
2322.9289
 21
4373.2435
  0
LINE
  8
_0-3_軸組
  6
CONTINUOUS
 62
    3
 10
2322.9289
 20
4373.2435
 11
2314.6674
 21
4377.1975
  0
LINE
  8
_0-3_軸組
  6
CONTINUOUS
 62
    3
 10
2314.6674
 20
4377.1975
 11
2306.0515
 21
4381.1685
  0
LINE
  8
_0-3_軸組
  6
CONTINUOUS
 62
    3
 10
2306.0515
 20
4381.1685
 11
2297.1355
 21
4385.1438
  0
LINE
  8
_0-3_軸組
  6
CONTINUOUS
 62
    3
 10
2297.1355
 20
4385.1438
 11
2287.9441
 21
4389.0989
  0
LINE
  8
_0-3_軸組
  6
CONTINUOUS
 62
    3
 10
2287.9441
 20
4389.0989
 11
2278.5233
 21
4393.0218
  0
LINE
  8
_0-3_軸組
  6
CONTINUOUS
 62
    3
 10
2278.5233
 20
4393.0218
 11
2268.8989
 21
4396.9046
  0
LINE
  8
_0-3_軸組
  6
CONTINUOUS
 62
    3
 10
2268.8989
 20
4396.9046
 11
2259.1087
 21
4400.7271
  0
LINE
  8
_0-3_軸組
  6
CONTINUOUS
 62
    3
 10
2259.1087
 20
4400.7271
 11
2249.1879
 21
4404.4877
  0
LINE
  8
_0-3_軸組
  6
CONTINUOUS
 62
    3
 10
2249.1879
 20
4404.4877
 11
2239.1767
 21
4408.176
  0
LINE
  8
_0-3_軸組
  6
CONTINUOUS
 62
    3
 10
2239.1767
 20
4408.176
 11
2229.1183
 21
4411.7906
  0
LINE
  8
_0-3_軸組
  6
CONTINUOUS
 62
    3
 10
2229.1183
 20
4411.7906
 11
2219.0492
 21
4415.3077
  0
LINE
  8
_0-3_軸組
  6
CONTINUOUS
 62
    3
 10
2219.0492
 20
4415.3077
 11
2209.0096
 21
4418.7303
  0
LINE
  8
_0-3_軸組
  6
CONTINUOUS
 62
    3
 10
2209.0096
 20
4418.7303
 11
2199.0499
 21
4422.0569
  0
LINE
  8
_0-3_軸組
  6
CONTINUOUS
 62
    3
 10
2199.0499
 20
4422.0569
 11
2189.2245
 21
4425.2652
  0
LINE
  8
_0-3_軸組
  6
CONTINUOUS
 62
    3
 10
2189.2245
 20
4425.2652
 11
2179.5697
 21
4428.3562
  0
LINE
  8
_0-3_軸組
  6
CONTINUOUS
 62
    3
 10
2179.5697
 20
4428.3562
 11
2170.1491
 21
4431.3171
  0
LINE
  8
_0-3_軸組
  6
CONTINUOUS
 62
    3
 10
2170.1491
 20
4431.3171
 11
2161.0112
 21
4434.1334
  0
LINE
  8
_0-3_軸組
  6
CONTINUOUS
 62
    3
 10
2161.0112
 20
4434.1334
 11
2152.2078
 21
4436.7964
  0
LINE
  8
_0-3_軸組
  6
CONTINUOUS
 62
    3
 10
2152.2078
 20
4436.7964
 11
2143.7844
 21
4439.2955
  0
LINE
  8
_0-3_軸組
  6
CONTINUOUS
 62
    3
 10
2143.7844
 20
4439.2955
 11
2135.7976
 21
4441.6116
  0
LINE
  8
_0-3_軸組
  6
CONTINUOUS
 62
    3
 10
2315.8984
 20
4476.7213
 11
2316.035
 21
4476.7688
  0
LINE
  8
_0-3_軸組
  6
CONTINUOUS
 62
    3
 10
2185.6146
 20
4242.521
 11
2185.6146
 21
4209.2374
  0
LINE
  8
_0-3_軸組
  6
CONTINUOUS
 62
    3
 10
2185.6146
 20
4209.2374
 11
2286.7549
 21
4209.2374
  0
LINE
  8
_0-3_軸組
  6
CONTINUOUS
 62
    3
 10
2286.7549
 20
4242.521
 11
2286.7549
 21
4209.2374
  0
LINE
  8
_0-3_軸組
  6
CONTINUOUS
 62
    3
 10
2185.6146
 20
4242.521
 11
2286.7549
 21
4242.521
  0
LINE
  8
_0-3_軸組
  6
CONTINUOUS
 62
    3
 10
2126.4696
 20
4503.328
 11
2126.4696
 21
4428.7422
  0
LINE
  8
_0-3_軸組
  6
CONTINUOUS
 62
    3
 10
2137.3401
 20
4480.9644
 11
2136.2118
 21
4480.3265
  0
LINE
  8
_0-3_軸組
  6
CONTINUOUS
 62
    3
 10
2136.2118
 20
4480.3265
 11
2135.0567
 21
4479.6569
  0
LINE
  8
_0-3_軸組
  6
CONTINUOUS
 62
    3
 10
2135.0567
 20
4479.6569
 11
2133.8876
 21
4478.9542
  0
LINE
  8
_0-3_軸組
  6
CONTINUOUS
 62
    3
 10
2133.8876
 20
4478.9542
 11
2132.6932
 21
4478.2178
  0
LINE
  8
_0-3_軸組
  6
CONTINUOUS
 62
    3
 10
2132.6932
 20
4478.2178
 11
2131.4753
 21
4477.4587
  0
LINE
  8
_0-3_軸組
  6
CONTINUOUS
 62
    3
 10
2131.4753
 20
4477.4587
 11
2130.2361
 21
4476.6604
  0
LINE
  8
_0-3_軸組
  6
CONTINUOUS
 62
    3
 10
2130.2361
 20
4476.6604
 11
2128.9766
 21
4475.835
  0
LINE
  8
_0-3_軸組
  6
CONTINUOUS
 62
    3
 10
2128.9766
 20
4475.835
 11
2127.6924
 21
4474.9724
  0
LINE
  8
_0-3_軸組
  6
CONTINUOUS
 62
    3
 10
2127.6924
 20
4474.9724
 11
2126.3901
 21
4474.0856
  0
LINE
  8
_0-3_軸組
  6
CONTINUOUS
 62
    3
 10
2133.4823
 20
4453.9722
 11
2132.6457
 21
4453.8109
  0
LINE
  8
_0-3_軸組
  6
CONTINUOUS
 62
    3
 10
2132.6457
 20
4453.8109
 11
2131.8202
 21
4453.6619
  0
LINE
  8
_0-3_軸組
  6
CONTINUOUS
 62
    3
 10
2131.8202
 20
4453.6619
 11
2131.0101
 21
4453.5144
  0
LINE
  8
_0-3_軸組
  6
CONTINUOUS
 62
    3
 10
2131.0101
 20
4453.5144
 11
2130.2079
 21
4453.3699
  0
LINE
  8
_0-3_軸組
  6
CONTINUOUS
 62
    3
 10
2130.2079
 20
4453.3699
 11
2129.4225
 21
4453.2333
  0
LINE
  8
_0-3_軸組
  6
CONTINUOUS
 62
    3
 10
2129.4225
 20
4453.2333
 11
2128.6446
 21
4453.1042
  0
LINE
  8
_0-3_軸組
  6
CONTINUOUS
 62
    3
 10
2128.6446
 20
4453.1042
 11
2127.8815
 21
4452.9839
  0
LINE
  8
_0-3_軸組
  6
CONTINUOUS
 62
    3
 10
2127.8815
 20
4452.9839
 11
2127.1273
 21
4452.8651
  0
LINE
  8
_0-3_軸組
  6
CONTINUOUS
 62
    3
 10
2127.1273
 20
4452.8651
 11
2126.3901
 21
4452.7508
  0
LINE
  8
_0-3_軸組
  6
CONTINUOUS
 62
    3
 10
2150.1407
 20
4439.0085
 11
2146.9601
 21
4439.6825
  0
LINE
  8
_0-3_軸組
  6
CONTINUOUS
 62
    3
 10
2146.9601
 20
4439.6825
 11
2143.9089
 21
4440.3333
  0
LINE
  8
_0-3_軸組
  6
CONTINUOUS
 62
    3
 10
2143.9089
 20
4440.3333
 11
2140.9968
 21
4440.9658
  0
LINE
  8
_0-3_軸組
  6
CONTINUOUS
 62
    3
 10
2140.9968
 20
4440.9658
 11
2138.222
 21
4441.5764
  0
LINE
  8
_0-3_軸組
  6
CONTINUOUS
 62
    3
 10
2138.222
 20
4441.5764
 11
2135.5813
 21
4442.1649
  0
LINE
  8
_0-3_軸組
  6
CONTINUOUS
 62
    3
 10
2135.5813
 20
4442.1649
 11
2133.0799
 21
4442.7369
  0
LINE
  8
_0-3_軸組
  6
CONTINUOUS
 62
    3
 10
2133.0799
 20
4442.7369
 11
2130.7127
 21
4443.2833
  0
LINE
  8
_0-3_軸組
  6
CONTINUOUS
 62
    3
 10
2130.7127
 20
4443.2833
 11
2128.4835
 21
4443.8118
  0
LINE
  8
_0-3_軸組
  6
CONTINUOUS
 62
    3
 10
2128.4835
 20
4443.8118
 11
2126.3901
 21
4444.3166
  0
LINE
  8
_0-3_軸組
  6
CONTINUOUS
 62
    3
 10
2135.7976
 20
4441.6116
 11
2134.5529
 21
4441.9511
  0
LINE
  8
_0-3_軸組
  6
CONTINUOUS
 62
    3
 10
2134.5529
 20
4441.9511
 11
2133.3588
 21
4442.2767
  0
LINE
  8
_0-3_軸組
  6
CONTINUOUS
 62
    3
 10
2133.3588
 20
4442.2767
 11
2132.2171
 21
4442.5994
  0
LINE
  8
_0-3_軸組
  6
CONTINUOUS
 62
    3
 10
2132.2171
 20
4442.5994
 11
2131.1279
 21
4442.9091
  0
LINE
  8
_0-3_軸組
  6
CONTINUOUS
 62
    3
 10
2131.1279
 20
4442.9091
 11
2130.0943
 21
4443.2061
  0
LINE
  8
_0-3_軸組
  6
CONTINUOUS
 62
    3
 10
2130.0943
 20
4443.2061
 11
2129.1078
 21
4443.4901
  0
LINE
  8
_0-3_軸組
  6
CONTINUOUS
 62
    3
 10
2129.1078
 20
4443.4901
 11
2128.1747
 21
4443.7683
  0
LINE
  8
_0-3_軸組
  6
CONTINUOUS
 62
    3
 10
2128.1747
 20
4443.7683
 11
2127.296
 21
4444.0375
  0
LINE
  8
_0-3_軸組
  6
CONTINUOUS
 62
    3
 10
2127.296
 20
4444.0375
 11
2126.4696
 21
4444.3003
  0
LINE
  8
_0-3_軸組
  6
CONTINUOUS
 62
    3
 10
2116.2805
 20
4513.5215
 11
2100.0022
 21
4513.5215
  0
LINE
  8
_0-3_軸組
  6
CONTINUOUS
 62
    3
 10
2116.2805
 20
4356.9189
 11
2100.0022
 21
4356.9189
  0
LINE
  8
_0-3_軸組
  6
CONTINUOUS
 62
    3
 10
2108.5054
 20
4410.0165
 11
2114.4091
 21
4403.3519
  0
LINE
  8
_0-3_軸組
  6
CONTINUOUS
 62
    3
 10
2114.4091
 20
4403.3519
 11
2120.8985
 21
4396.4276
  0
LINE
  8
_0-3_軸組
  6
CONTINUOUS
 62
    3
 10
2120.8985
 20
4396.4276
 11
2127.8778
 21
4389.3266
  0
LINE
  8
_0-3_軸組
  6
CONTINUOUS
 62
    3
 10
2127.8778
 20
4389.3266
 11
2135.2579
 21
4382.1201
  0
LINE
  8
_0-3_軸組
  6
CONTINUOUS
 62
    3
 10
2135.2579
 20
4382.1201
 11
2142.955
 21
4374.878
  0
LINE
  8
_0-3_軸組
  6
CONTINUOUS
 62
    3
 10
2142.955
 20
4374.878
 11
2150.8897
 21
4367.6637
  0
LINE
  8
_0-3_軸組
  6
CONTINUOUS
 62
    3
 10
2150.8897
 20
4367.6637
 11
2158.9901
 21
4360.5345
  0
LINE
  8
_0-3_軸組
  6
CONTINUOUS
 62
    3
 10
2158.9901
 20
4360.5345
 11
2167.1873
 21
4353.5423
  0
LINE
  8
_0-3_軸組
  6
CONTINUOUS
 62
    3
 10
2167.1873
 20
4353.5423
 11
2175.4191
 21
4346.7352
  0
LINE
  8
_0-3_軸組
  6
CONTINUOUS
 62
    3
 10
2175.4191
 20
4346.7352
 11
2183.6289
 21
4340.1543
  0
LINE
  8
_0-3_軸組
  6
CONTINUOUS
 62
    3
 10
2183.6289
 20
4340.1543
 11
2191.7645
 21
4333.8367
  0
LINE
  8
_0-3_軸組
  6
CONTINUOUS
 62
    3
 10
2191.7645
 20
4333.8367
 11
2199.7806
 21
4327.812
  0
LINE
  8
_0-3_軸組
  6
CONTINUOUS
 62
    3
 10
2199.7806
 20
4327.812
 11
2207.6363
 21
4322.108
  0
LINE
  8
_0-3_軸組
  6
CONTINUOUS
 62
    3
 10
2207.6363
 20
4322.108
 11
2215.296
 21
4316.7426
  0
LINE
  8
_0-3_軸組
  6
CONTINUOUS
 62
    3
 10
2215.296
 20
4316.7426
 11
2222.7299
 21
4311.7304
  0
LINE
  8
_0-3_軸組
  6
CONTINUOUS
 62
    3
 10
2222.7299
 20
4311.7304
 11
2229.9133
 21
4307.082
  0
LINE
  8
_0-3_軸組
  6
CONTINUOUS
 62
    3
 10
2229.9133
 20
4307.082
 11
2236.8272
 21
4302.7998
  0
LINE
  8
_0-3_軸組
  6
CONTINUOUS
 62
    3
 10
2236.8272
 20
4302.7998
 11
2243.4586
 21
4298.8843
  0
LINE
  8
_0-3_軸組
  6
CONTINUOUS
 62
    3
 10
2243.4586
 20
4298.8843
 11
2249.7993
 21
4295.3276
  0
LINE
  8
_0-3_軸組
  6
CONTINUOUS
 62
    3
 10
2249.7993
 20
4295.3276
 11
2250.2655
 21
4295.1232
  0
LINE
  8
_0-3_軸組
  6
CONTINUOUS
 62
    3
 10
2250.2655
 20
4295.1232
 11
2250.7272
 21
4294.9292
  0
LINE
  8
_0-3_軸組
  6
CONTINUOUS
 62
    3
 10
2250.7272
 20
4294.9292
 11
2251.1852
 21
4294.7447
  0
LINE
  8
_0-3_軸組
  6
CONTINUOUS
 62
    3
 10
2251.1852
 20
4294.7447
 11
2251.6375
 21
4294.57
  0
LINE
  8
_0-3_軸組
  6
CONTINUOUS
 62
    3
 10
2251.6375
 20
4294.57
 11
2252.0856
 21
4294.4047
  0
LINE
  8
_0-3_軸組
  6
CONTINUOUS
 62
    3
 10
2252.0856
 20
4294.4047
 11
2252.5283
 21
4294.2488
  0
LINE
  8
_0-3_軸組
  6
CONTINUOUS
 62
    3
 10
2252.5283
 20
4294.2488
 11
2252.9672
 21
4294.1023
  0
LINE
  8
_0-3_軸組
  6
CONTINUOUS
 62
    3
 10
2252.9672
 20
4294.1023
 11
2253.4008
 21
4293.9667
  0
LINE
  8
_0-3_軸組
  6
CONTINUOUS
 62
    3
 10
2253.4008
 20
4293.9667
 11
2253.8293
 21
4293.8395
  0
LINE
  8
_0-3_軸組
  6
CONTINUOUS
 62
    3
 10
2108.5054
 20
4410.0165
 11
2111.9953
 21
4411.7495
  0
LINE
  8
_0-3_軸組
  6
CONTINUOUS
 62
    3
 10
2111.9953
 20
4411.7495
 11
2115.1116
 21
4413.5707
  0
LINE
  8
_0-3_軸組
  6
CONTINUOUS
 62
    3
 10
2115.1116
 20
4413.5707
 11
2117.855
 21
4415.477
  0
LINE
  8
_0-3_軸組
  6
CONTINUOUS
 62
    3
 10
2117.855
 20
4415.477
 11
2120.2244
 21
4417.4713
  0
LINE
  8
_0-3_軸組
  6
CONTINUOUS
 62
    3
 10
2120.2244
 20
4417.4713
 11
2122.221
 21
4419.5523
  0
LINE
  8
_0-3_軸組
  6
CONTINUOUS
 62
    3
 10
2122.221
 20
4419.5523
 11
2123.8433
 21
4421.7189
  0
LINE
  8
_0-3_軸組
  6
CONTINUOUS
 62
    3
 10
2123.8433
 20
4421.7189
 11
2125.0923
 21
4423.9741
  0
LINE
  8
_0-3_軸組
  6
CONTINUOUS
 62
    3
 10
2125.0923
 20
4423.9741
 11
2125.9678
 21
4426.3144
  0
LINE
  8
_0-3_軸組
  6
CONTINUOUS
 62
    3
 10
2125.9678
 20
4426.3144
 11
2126.4696
 21
4428.7422
  0
LINE
  8
_0-3_軸組
  6
CONTINUOUS
 62
    3
 10
2126.4725
 20
4367.1134
 11
2126.4725
 21
4390.7568
  0
LINE
  8
_0-3_軸組
  6
CONTINUOUS
 62
    3
 10
2258.8434
 20
4455.0876
 11
2238.7729
 21
4499.3244
  0
LINE
  8
_0-3_軸組
  6
CONTINUOUS
 62
    3
 10
2219.4253
 20
4163.1428
 11
2100.0022
 21
4163.1428
  0
LINE
  8
_0-3_軸組
  6
CONTINUOUS
 62
    3
 10
2239.3882
 20
4183.1057
 11
2239.3882
 21
4209.2374
  0
LINE
  8
_0-3_軸組
  6
CONTINUOUS
 62
    3
 10
2209.4441
 20
4145.1933
 11
2100.0022
 21
4145.1933
  0
LINE
  8
_0-3_軸組
  6
CONTINUOUS
 62
    3
 10
2219.4253
 20
4155.1747
 11
2219.4253
 21
4163.1428
  0
LINE
  8
_0-2_躯体
  6
CONTINUOUS
 62
    3
 10
2632.5152
 20
4599.1501
 11
2100.0148
 21
4599.1501
  0
LINE
  8
_0-2_躯体
  6
CONTINUOUS
 62
    3
 10
2100.0148
 20
4621.7562
 11
2632.5147
 21
4621.7562
  0
LINE
  8
_0-2_躯体
  6
CONTINUOUS
 62
    3
 10
1300
 20
4771.7567
 11
2100
 21
4771.7567
  0
LINE
  8
_0-2_躯体
  6
CONTINUOUS
 62
    3
 10
2632.4999
 20
4391.7559
 11
2899.9999
 21
4391.7559
  0
LINE
  8
_0-2_躯体
  6
CONTINUOUS
 62
    3
 10
2632.4999
 20
4437.2571
 11
2899.9999
 21
4437.2571
  0
LINE
  8
_0-2_躯体
  6
CONTINUOUS
 62
    3
 10
2632.4999
 20
4456.7564
 11
2899.9999
 21
4456.7564
  0
LINE
  8
_0-2_躯体
  6
CONTINUOUS
 62
    3
 10
2632.4999
 20
4515.2571
 11
2899.9999
 21
4515.2571
  0
LINE
  8
_0-2_躯体
  6
CONTINUOUS
 62
    3
 10
2632.4999
 20
4534.7563
 11
2899.9999
 21
4534.7563
  0
LINE
  8
_0-2_躯体
  6
CONTINUOUS
 62
    3
 10
1300
 20
4391.7559
 11
2100
 21
4391.7559
  0
LINE
  8
_0-2_躯体
  6
CONTINUOUS
 62
    3
 10
1300
 20
4437.2571
 11
2100
 21
4437.2571
  0
LINE
  8
_0-2_躯体
  6
CONTINUOUS
 62
    3
 10
1300
 20
4456.7564
 11
2100
 21
4456.7564
  0
LINE
  8
_0-2_躯体
  6
CONTINUOUS
 62
    3
 10
1300
 20
4515.2571
 11
2100
 21
4515.2571
  0
LINE
  8
_0-2_躯体
  6
CONTINUOUS
 62
    3
 10
1300
 20
4534.7563
 11
2100
 21
4534.7563
  0
LINE
  8
_0-3_軸組
  6
CONTINUOUS
 62
    3
 10
2194.9837
 20
4331.4172
 11
2100.0022
 21
4331.4172
  0
LINE
  8
_0-3_軸組
  6
CONTINUOUS
 62
    3
 10
2239.3882
 20
4242.521
 11
2239.3882
 21
4301.288
  0
LINE
  8
_0-8_寸法
  6
CONTINUOUS
 62
    7
 10
1567.4997
 20
3899.9398
 11
2632.4999
 21
3899.9398
  0
LINE
  8
_0-8_寸法
  6
CONTINUOUS
 62
    7
 10
1013.2747
 20
4081.7561
 11
1013.2747
 21
4956.7565
  0
LINE
  8
_0-8_寸法
  6
CONTINUOUS
 62
    7
 10
1313.8966
 20
4081.7561
 11
1013.2747
 21
4081.7561
  0
LINE
  8
_0-2_躯体
  6
CONTINUOUS
 62
    3
 10
2632.5152
 20
4599.1506
 11
2632.5152
 21
4621.7562
  0
LINE
  8
_0-2_躯体
  6
CONTINUOUS
 62
    3
 10
1567.4997
 20
4081.7561
 11
2632.4999
 21
4081.7561
  0
LINE
  8
_0-2_躯体
  6
CONTINUOUS
 62
    3
 10
2232.7217
 20
4581.2092
 11
2100.0148
 21
4581.2092
  0
LINE
  8
_0-2_躯体
  6
CONTINUOUS
 62
    3
 10
2632.5152
 20
4581.2092
 11
2501.4092
 21
4581.2092
  0
LINE
  8
_0-2_躯体
  6
CONTINUOUS
 62
    3
 10
1567.4997
 20
4199.756
 11
2100
 21
4199.756
  0
LINE
  8
_0-2_躯体
  6
CONTINUOUS
 62
    3
 10
1567.4997
 20
4180.2557
 11
2100
 21
4180.2557
  0
LINE
  8
_0-2_躯体
  6
CONTINUOUS
 62
    3
 10
2239.1841
 20
4180.2557
 11
2632.4999
 21
4180.2557
  0
LINE
  8
_0-2_躯体
  6
CONTINUOUS
 62
    3
 10
1567.4997
 20
4111.7562
 11
2632.4999
 21
4111.7562
  0
LINE
  8
_0-2_躯体
  6
CONTINUOUS
 62
    3
 10
1567.4997
 20
4111.7567
 11
2100
 21
4111.7567
  0
LINE
  8
_0-2_躯体
  6
CONTINUOUS
 62
    3
 10
1567.4997
 20
4131.257
 11
2632.4999
 21
4131.257
  0
LINE
  8
_0-2_躯体
  6
CONTINUOUS
 62
    3
 10
1567.4997
 20
4391.7569
 11
1567.4997
 21
4199.756
  0
LINE
  8
_0-2_躯体
  6
CONTINUOUS
 62
    3
 10
2239.3882
 20
4199.756
 11
2632.4999
 21
4199.756
  0
LINE
  8
_0-2_躯体
  6
CONTINUOUS
 62
    3
 10
1567.4997
 20
4180.2557
 11
1567.4997
 21
4131.257
  0
LINE
  8
_0-2_躯体
  6
CONTINUOUS
 62
    3
 10
1567.4997
 20
4111.7567
 11
1567.4997
 21
4081.7561
  0
LINE
  8
_0-2_躯体
  6
CONTINUOUS
 62
    3
 10
2632.4999
 20
4581.2092
 11
2632.4999
 21
4199.756
  0
LINE
  8
_0-2_躯体
  6
CONTINUOUS
 62
    3
 10
2632.4999
 20
4180.2557
 11
2632.4999
 21
4131.257
  0
LINE
  8
_0-2_躯体
  6
CONTINUOUS
 62
    3
 10
2632.4999
 20
4111.7562
 11
2632.4999
 21
4081.7561
  0
LINE
  8
_0-2_躯体
  6
CONTINUOUS
 62
    3
 10
2100
 20
4956.7565
 11
1271.8743
 21
4765.252
  0
LINE
  8
_0-2_躯体
  6
CONTINUOUS
 62
    3
 10
2100
 20
4956.7565
 11
2928.1256
 21
4765.252
  0
LINE
  8
_0-1_基準線
  6
CENTER2
 62
    7
 10
2100
 20
3983.7838
 11
2100
 21
4956.7565
  0
LINE
  8
_0-2_躯体
  6
CONTINUOUS
 62
    3
 10
2438.5305
 20
4878.471
 11
2100
 21
4878.471
  0
LINE
  8
_0-4_仕上
  6
CONTINUOUS
 62
    3
 10
2632.5152
 20
4833.6127
 11
2100
 21
4833.6127
  0
LINE
  8
_0-4_仕上
  6
CONTINUOUS
 62
    3
 10
2632.5152
 20
4601.7566
 11
2632.5152
 21
4833.6127
  0
LINE
  8
_0-4_仕上
  6
CONTINUOUS
 62
    4
 10
2632.5152
 20
4826.1123
 11
2100
 21
4826.1123
  0
LINE
  8
_0-4_仕上
  6
CONTINUOUS
 62
    4
 10
2632.5152
 20
4818.6124
 11
2100
 21
4818.6124
  0
LINE
  8
_0-4_仕上
  6
CONTINUOUS
 62
    4
 10
2632.5152
 20
4811.1125
 11
2100
 21
4811.1125
  0
LINE
  8
_0-4_仕上
  6
CONTINUOUS
 62
    4
 10
2632.5152
 20
4803.6121
 11
2100
 21
4803.6121
  0
LINE
  8
_0-4_仕上
  6
CONTINUOUS
 62
    4
 10
2632.5152
 20
4796.1122
 11
2100
 21
4796.1122
  0
LINE
  8
_0-4_仕上
  6
CONTINUOUS
 62
    4
 10
2632.5152
 20
4788.6123
 11
2100
 21
4788.6123
  0
LINE
  8
_0-4_仕上
  6
CONTINUOUS
 62
    4
 10
2625.015
 20
4601.7566
 11
2625.015
 21
4833.6127
  0
LINE
  8
_0-4_仕上
  6
CONTINUOUS
 62
    4
 10
2617.5149
 20
4601.7566
 11
2617.5149
 21
4833.6127
  0
LINE
  8
_0-4_仕上
  6
CONTINUOUS
 62
    4
 10
2610.015
 20
4601.7566
 11
2610.015
 21
4833.6127
  0
LINE
  8
_0-4_仕上
  6
CONTINUOUS
 62
    4
 10
2602.5151
 20
4601.7566
 11
2602.5151
 21
4833.6127
  0
LINE
  8
_0-4_仕上
  6
CONTINUOUS
 62
    4
 10
2595.0152
 20
4601.7566
 11
2595.0152
 21
4833.6127
  0
LINE
  8
_0-4_仕上
  6
CONTINUOUS
 62
    4
 10
2587.515
 20
4601.7566
 11
2587.515
 21
4833.6127
  0
LINE
  8
_0-4_仕上
  6
CONTINUOUS
 62
    4
 10
2632.5152
 20
4781.1124
 11
2100
 21
4781.1124
  0
LINE
  8
_0-4_仕上
  6
CONTINUOUS
 62
    4
 10
2632.5152
 20
4773.6125
 11
2100
 21
4773.6125
  0
LINE
  8
_0-4_仕上
  6
CONTINUOUS
 62
    4
 10
2632.5152
 20
4766.1121
 11
2100
 21
4766.1121
  0
LINE
  8
_0-4_仕上
  6
CONTINUOUS
 62
    4
 10
2632.5152
 20
4758.6122
 11
2100
 21
4758.6122
  0
LINE
  8
_0-4_仕上
  6
CONTINUOUS
 62
    4
 10
2632.5152
 20
4751.1123
 11
2100
 21
4751.1123
  0
LINE
  8
_0-4_仕上
  6
CONTINUOUS
 62
    4
 10
2632.5152
 20
4743.6119
 11
2100
 21
4743.6119
  0
LINE
  8
_0-4_仕上
  6
CONTINUOUS
 62
    4
 10
2632.5152
 20
4736.112
 11
2100
 21
4736.112
  0
LINE
  8
_0-4_仕上
  6
CONTINUOUS
 62
    4
 10
2632.5152
 20
4728.6121
 11
2100
 21
4728.6121
  0
LINE
  8
_0-4_仕上
  6
CONTINUOUS
 62
    4
 10
2632.5152
 20
4721.1122
 11
2100
 21
4721.1122
  0
LINE
  8
_0-4_仕上
  6
CONTINUOUS
 62
    4
 10
2632.5152
 20
4713.6123
 11
2100
 21
4713.6123
  0
LINE
  8
_0-4_仕上
  6
CONTINUOUS
 62
    4
 10
2632.5152
 20
4706.1119
 11
2100
 21
4706.1119
  0
LINE
  8
_0-4_仕上
  6
CONTINUOUS
 62
    4
 10
2632.5152
 20
4698.612
 11
2100
 21
4698.612
  0
LINE
  8
_0-4_仕上
  6
CONTINUOUS
 62
    4
 10
2632.5152
 20
4691.1121
 11
2100
 21
4691.1121
  0
LINE
  8
_0-4_仕上
  6
CONTINUOUS
 62
    4
 10
2632.5152
 20
4683.6117
 11
2100
 21
4683.6117
  0
LINE
  8
_0-4_仕上
  6
CONTINUOUS
 62
    4
 10
2632.5152
 20
4676.1118
 11
2100
 21
4676.1118
  0
LINE
  8
_0-4_仕上
  6
CONTINUOUS
 62
    4
 10
2632.5152
 20
4668.6119
 11
2100
 21
4668.6119
  0
LINE
  8
_0-4_仕上
  6
CONTINUOUS
 62
    4
 10
2632.5152
 20
4661.112
 11
2100
 21
4661.112
  0
LINE
  8
_0-4_仕上
  6
CONTINUOUS
 62
    4
 10
2632.5152
 20
4653.6121
 11
2100
 21
4653.6121
  0
LINE
  8
_0-4_仕上
  6
CONTINUOUS
 62
    4
 10
2632.5152
 20
4646.1117
 11
2100
 21
4646.1117
  0
LINE
  8
_0-4_仕上
  6
CONTINUOUS
 62
    4
 10
2632.5152
 20
4638.6118
 11
2100
 21
4638.6118
  0
LINE
  8
_0-4_仕上
  6
CONTINUOUS
 62
    4
 10
2632.5152
 20
4631.1119
 11
2100
 21
4631.1119
  0
LINE
  8
_0-4_仕上
  6
CONTINUOUS
 62
    4
 10
2632.5152
 20
4623.6115
 11
2100
 21
4623.6115
  0
LINE
  8
_0-4_仕上
  6
CONTINUOUS
 62
    4
 10
2632.5152
 20
4616.1116
 11
2100
 21
4616.1116
  0
LINE
  8
_0-4_仕上
  6
CONTINUOUS
 62
    4
 10
2632.5152
 20
4608.6117
 11
2100
 21
4608.6117
  0
LINE
  8
_0-4_仕上
  6
CONTINUOUS
 62
    4
 10
2580.0151
 20
4601.7566
 11
2580.0151
 21
4833.6127
  0
LINE
  8
_0-4_仕上
  6
CONTINUOUS
 62
    4
 10
2572.515
 20
4601.7566
 11
2572.515
 21
4833.6127
  0
LINE
  8
_0-4_仕上
  6
CONTINUOUS
 62
    4
 10
2565.0151
 20
4601.7566
 11
2565.0151
 21
4833.6127
  0
LINE
  8
_0-4_仕上
  6
CONTINUOUS
 62
    4
 10
2557.5152
 20
4601.7566
 11
2557.5152
 21
4833.6127
  0
LINE
  8
_0-4_仕上
  6
CONTINUOUS
 62
    4
 10
2550.0153
 20
4601.7566
 11
2550.0153
 21
4833.6127
  0
LINE
  8
_0-4_仕上
  6
CONTINUOUS
 62
    4
 10
2542.5151
 20
4601.7566
 11
2542.5151
 21
4833.6127
  0
LINE
  8
_0-4_仕上
  6
CONTINUOUS
 62
    4
 10
2535.015
 20
4601.7566
 11
2535.015
 21
4833.6127
  0
LINE
  8
_0-4_仕上
  6
CONTINUOUS
 62
    4
 10
2527.5151
 20
4601.7566
 11
2527.5151
 21
4833.6127
  0
LINE
  8
_0-4_仕上
  6
CONTINUOUS
 62
    4
 10
2520.0152
 20
4601.7566
 11
2520.0152
 21
4833.6127
  0
LINE
  8
_0-4_仕上
  6
CONTINUOUS
 62
    4
 10
2512.5153
 20
4601.7566
 11
2512.5153
 21
4833.6127
  0
LINE
  8
_0-4_仕上
  6
CONTINUOUS
 62
    4
 10
2505.0151
 20
4601.7566
 11
2505.0151
 21
4833.6127
  0
LINE
  8
_0-4_仕上
  6
CONTINUOUS
 62
    4
 10
2497.5152
 20
4601.7566
 11
2497.5152
 21
4833.6127
  0
LINE
  8
_0-4_仕上
  6
CONTINUOUS
 62
    4
 10
2490.0151
 20
4601.7566
 11
2490.0151
 21
4833.6127
  0
LINE
  8
_0-4_仕上
  6
CONTINUOUS
 62
    4
 10
2482.5152
 20
4601.7566
 11
2482.5152
 21
4833.6127
  0
LINE
  8
_0-4_仕上
  6
CONTINUOUS
 62
    4
 10
2475.015
 20
4601.7566
 11
2475.015
 21
4833.6127
  0
LINE
  8
_0-4_仕上
  6
CONTINUOUS
 62
    4
 10
2467.5154
 20
4601.7566
 11
2467.5154
 21
4833.6127
  0
LINE
  8
_0-4_仕上
  6
CONTINUOUS
 62
    4
 10
2460.0152
 20
4601.7566
 11
2460.0152
 21
4833.6127
  0
LINE
  8
_0-4_仕上
  6
CONTINUOUS
 62
    4
 10
2452.5151
 20
4601.7566
 11
2452.5151
 21
4833.6127
  0
LINE
  8
_0-4_仕上
  6
CONTINUOUS
 62
    4
 10
2445.0152
 20
4601.7566
 11
2445.0152
 21
4833.6127
  0
LINE
  8
_0-4_仕上
  6
CONTINUOUS
 62
    4
 10
2437.5153
 20
4601.7566
 11
2437.5153
 21
4833.6127
  0
LINE
  8
_0-4_仕上
  6
CONTINUOUS
 62
    4
 10
2430.0151
 20
4601.7566
 11
2430.0151
 21
4833.6127
  0
LINE
  8
_0-4_仕上
  6
CONTINUOUS
 62
    4
 10
2422.5152
 20
4601.7566
 11
2422.5152
 21
4833.6127
  0
LINE
  8
_0-4_仕上
  6
CONTINUOUS
 62
    4
 10
2415.0153
 20
4601.7566
 11
2415.0153
 21
4833.6127
  0
LINE
  8
_0-4_仕上
  6
CONTINUOUS
 62
    4
 10
2407.5152
 20
4601.7566
 11
2407.5152
 21
4833.6127
  0
LINE
  8
_0-4_仕上
  6
CONTINUOUS
 62
    4
 10
2400.0153
 20
4601.7566
 11
2400.0153
 21
4833.6127
  0
LINE
  8
_0-4_仕上
  6
CONTINUOUS
 62
    4
 10
2392.5151
 20
4601.7566
 11
2392.5151
 21
4833.6127
  0
LINE
  8
_0-4_仕上
  6
CONTINUOUS
 62
    4
 10
2385.0152
 20
4601.7566
 11
2385.0152
 21
4833.6127
  0
LINE
  8
_0-4_仕上
  6
CONTINUOUS
 62
    4
 10
2377.5153
 20
4601.7566
 11
2377.5153
 21
4833.6127
  0
LINE
  8
_0-4_仕上
  6
CONTINUOUS
 62
    4
 10
2370.0152
 20
4601.7566
 11
2370.0152
 21
4833.6127
  0
LINE
  8
_0-4_仕上
  6
CONTINUOUS
 62
    4
 10
2362.5153
 20
4601.7566
 11
2362.5153
 21
4833.6127
  0
LINE
  8
_0-4_仕上
  6
CONTINUOUS
 62
    4
 10
2355.0154
 20
4601.7566
 11
2355.0154
 21
4833.6127
  0
LINE
  8
_0-4_仕上
  6
CONTINUOUS
 62
    4
 10
2347.5152
 20
4601.7566
 11
2347.5152
 21
4833.6127
  0
LINE
  8
_0-4_仕上
  6
CONTINUOUS
 62
    4
 10
2340.0151
 20
4601.7566
 11
2340.0151
 21
4833.6127
  0
LINE
  8
_0-4_仕上
  6
CONTINUOUS
 62
    4
 10
2332.5154
 20
4601.7566
 11
2332.5154
 21
4833.6127
  0
LINE
  8
_0-4_仕上
  6
CONTINUOUS
 62
    4
 10
2325.0153
 20
4601.7566
 11
2325.0153
 21
4833.6127
  0
LINE
  8
_0-4_仕上
  6
CONTINUOUS
 62
    4
 10
2317.5154
 20
4601.7566
 11
2317.5154
 21
4833.6127
  0
LINE
  8
_0-4_仕上
  6
CONTINUOUS
 62
    4
 10
2310.0152
 20
4601.7566
 11
2310.0152
 21
4833.6127
  0
LINE
  8
_0-4_仕上
  6
CONTINUOUS
 62
    4
 10
2302.5153
 20
4601.7566
 11
2302.5153
 21
4833.6127
  0
LINE
  8
_0-4_仕上
  6
CONTINUOUS
 62
    4
 10
2295.0152
 20
4601.7566
 11
2295.0152
 21
4833.6127
  0
LINE
  8
_0-4_仕上
  6
CONTINUOUS
 62
    4
 10
2287.5153
 20
4601.7566
 11
2287.5153
 21
4833.6127
  0
LINE
  8
_0-4_仕上
  6
CONTINUOUS
 62
    4
 10
2280.0154
 20
4601.7566
 11
2280.0154
 21
4833.6127
  0
LINE
  8
_0-4_仕上
  6
CONTINUOUS
 62
    4
 10
2272.5155
 20
4601.7566
 11
2272.5155
 21
4833.6127
  0
LINE
  8
_0-4_仕上
  6
CONTINUOUS
 62
    4
 10
2265.0153
 20
4601.7566
 11
2265.0153
 21
4833.6127
  0
LINE
  8
_0-4_仕上
  6
CONTINUOUS
 62
    4
 10
2257.5152
 20
4601.7566
 11
2257.5152
 21
4833.6127
  0
LINE
  8
_0-4_仕上
  6
CONTINUOUS
 62
    4
 10
2250.0153
 20
4601.7566
 11
2250.0153
 21
4833.6127
  0
LINE
  8
_0-4_仕上
  6
CONTINUOUS
 62
    4
 10
2242.5154
 20
4601.7566
 11
2242.5154
 21
4833.6127
  0
LINE
  8
_0-4_仕上
  6
CONTINUOUS
 62
    4
 10
2235.0155
 20
4601.7566
 11
2235.0155
 21
4833.6127
  0
LINE
  8
_0-4_仕上
  6
CONTINUOUS
 62
    4
 10
2227.5153
 20
4601.7566
 11
2227.5153
 21
4833.6127
  0
LINE
  8
_0-4_仕上
  6
CONTINUOUS
 62
    4
 10
2220.0154
 20
4601.7566
 11
2220.0154
 21
4833.6127
  0
LINE
  8
_0-4_仕上
  6
CONTINUOUS
 62
    4
 10
2212.5153
 20
4601.7566
 11
2212.5153
 21
4833.6127
  0
LINE
  8
_0-4_仕上
  6
CONTINUOUS
 62
    4
 10
2205.0154
 20
4601.7566
 11
2205.0154
 21
4833.6127
  0
LINE
  8
_0-4_仕上
  6
CONTINUOUS
 62
    4
 10
2197.5155
 20
4601.7566
 11
2197.5155
 21
4833.6127
  0
LINE
  8
_0-4_仕上
  6
CONTINUOUS
 62
    4
 10
2190.0156
 20
4601.7566
 11
2190.0156
 21
4833.6127
  0
LINE
  8
_0-4_仕上
  6
CONTINUOUS
 62
    4
 10
2182.5154
 20
4601.7566
 11
2182.5154
 21
4833.6127
  0
LINE
  8
_0-4_仕上
  6
CONTINUOUS
 62
    4
 10
2175.0153
 20
4601.7566
 11
2175.0153
 21
4833.6127
  0
LINE
  8
_0-4_仕上
  6
CONTINUOUS
 62
    4
 10
2167.5154
 20
4601.7566
 11
2167.5154
 21
4833.6127
  0
LINE
  8
_0-4_仕上
  6
CONTINUOUS
 62
    4
 10
2160.0155
 20
4601.7566
 11
2160.0155
 21
4833.6127
  0
LINE
  8
_0-4_仕上
  6
CONTINUOUS
 62
    4
 10
2152.5156
 20
4601.7566
 11
2152.5156
 21
4833.6127
  0
LINE
  8
_0-4_仕上
  6
CONTINUOUS
 62
    4
 10
2145.0154
 20
4601.7566
 11
2145.0154
 21
4833.6127
  0
LINE
  8
_0-4_仕上
  6
CONTINUOUS
 62
    4
 10
2137.5155
 20
4601.7566
 11
2137.5155
 21
4833.6127
  0
LINE
  8
_0-4_仕上
  6
CONTINUOUS
 62
    4
 10
2130.0154
 20
4601.7566
 11
2130.0154
 21
4833.6127
  0
LINE
  8
_0-4_仕上
  6
CONTINUOUS
 62
    4
 10
2122.5155
 20
4601.7566
 11
2122.5155
 21
4833.6127
  0
LINE
  8
_0-4_仕上
  6
CONTINUOUS
 62
    4
 10
2115.0153
 20
4601.7566
 11
2115.0153
 21
4833.6127
  0
LINE
  8
_0-4_仕上
  6
CONTINUOUS
 62
    4
 10
2107.5157
 20
4601.7566
 11
2107.5157
 21
4833.6127
  0
LINE
  8
_0-2_躯体
  6
CONTINUOUS
 62
    3
 10
2438.5305
 20
4878.471
 11
2367.7197
 21
4837.5885
  0
LINE
  8
_0-2_躯体
  6
CONTINUOUS
 62
    3
 10
2632.5152
 20
4771.7567
 11
2899.9999
 21
4771.7567
  0
LINE
  8
_0-2_躯体
  6
CONTINUOUS
 62
    3
 10
2899.9999
 20
4515.2568
 11
2899.9999
 21
4515.2568
  0
LINE
  8
_0-2_躯体
  6
CONTINUOUS
 62
    3
 10
2899.9999
 20
4515.2568
 11
2901.6133
 21
4515.4049
  0
LINE
  8
_0-2_躯体
  6
CONTINUOUS
 62
    3
 10
2901.6133
 20
4515.4049
 11
2903.1778
 21
4515.8448
  0
LINE
  8
_0-2_躯体
  6
CONTINUOUS
 62
    3
 10
2903.1778
 20
4515.8448
 11
2904.6457
 21
4516.5631
  0
LINE
  8
_0-2_躯体
  6
CONTINUOUS
 62
    3
 10
2904.6457
 20
4516.5631
 11
2905.9724
 21
4517.5379
  0
LINE
  8
_0-2_躯体
  6
CONTINUOUS
 62
    3
 10
2905.9724
 20
4517.5379
 11
2907.1177
 21
4518.7396
  0
LINE
  8
_0-2_躯体
  6
CONTINUOUS
 62
    3
 10
2907.1177
 20
4518.7396
 11
2908.0467
 21
4520.1318
  0
LINE
  8
_0-2_躯体
  6
CONTINUOUS
 62
    3
 10
2908.0467
 20
4520.1318
 11
2908.7312
 21
4521.6721
  0
LINE
  8
_0-2_躯体
  6
CONTINUOUS
 62
    3
 10
2908.7312
 20
4521.6721
 11
2909.1504
 21
4523.3137
  0
LINE
  8
_0-2_躯体
  6
CONTINUOUS
 62
    3
 10
2909.1504
 20
4523.3137
 11
2909.2915
 21
4525.0067
  0
LINE
  8
_0-2_躯体
  6
CONTINUOUS
 62
    3
 10
2909.2915
 20
4525.0067
 11
2909.1504
 21
4526.6998
  0
LINE
  8
_0-2_躯体
  6
CONTINUOUS
 62
    3
 10
2909.1504
 20
4526.6998
 11
2908.7312
 21
4528.3414
  0
LINE
  8
_0-2_躯体
  6
CONTINUOUS
 62
    3
 10
2908.7312
 20
4528.3414
 11
2908.0467
 21
4529.8817
  0
LINE
  8
_0-2_躯体
  6
CONTINUOUS
 62
    3
 10
2908.0467
 20
4529.8817
 11
2907.1177
 21
4531.2738
  0
LINE
  8
_0-2_躯体
  6
CONTINUOUS
 62
    3
 10
2907.1177
 20
4531.2738
 11
2905.9724
 21
4532.4756
  0
LINE
  8
_0-2_躯体
  6
CONTINUOUS
 62
    3
 10
2905.9724
 20
4532.4756
 11
2904.6457
 21
4533.4504
  0
LINE
  8
_0-2_躯体
  6
CONTINUOUS
 62
    3
 10
2904.6457
 20
4533.4504
 11
2903.1778
 21
4534.1686
  0
LINE
  8
_0-2_躯体
  6
CONTINUOUS
 62
    3
 10
2903.1778
 20
4534.1686
 11
2901.6133
 21
4534.6085
  0
LINE
  8
_0-2_躯体
  6
CONTINUOUS
 62
    3
 10
2901.6133
 20
4534.6085
 11
2899.9999
 21
4534.7566
  0
LINE
  8
_0-2_躯体
  6
CONTINUOUS
 62
    3
 10
2899.9999
 20
4534.7566
 11
2899.9999
 21
4534.7566
  0
LINE
  8
_0-2_躯体
  6
CONTINUOUS
 62
    3
 10
2899.9999
 20
4437.2569
 11
2899.9999
 21
4437.2569
  0
LINE
  8
_0-2_躯体
  6
CONTINUOUS
 62
    3
 10
2899.9999
 20
4437.2569
 11
2901.6133
 21
4437.405
  0
LINE
  8
_0-2_躯体
  6
CONTINUOUS
 62
    3
 10
2901.6133
 20
4437.405
 11
2903.1778
 21
4437.8448
  0
LINE
  8
_0-2_躯体
  6
CONTINUOUS
 62
    3
 10
2903.1778
 20
4437.8448
 11
2904.6457
 21
4438.5631
  0
LINE
  8
_0-2_躯体
  6
CONTINUOUS
 62
    3
 10
2904.6457
 20
4438.5631
 11
2905.9724
 21
4439.5379
  0
LINE
  8
_0-2_躯体
  6
CONTINUOUS
 62
    3
 10
2905.9724
 20
4439.5379
 11
2907.1177
 21
4440.7396
  0
LINE
  8
_0-2_躯体
  6
CONTINUOUS
 62
    3
 10
2907.1177
 20
4440.7396
 11
2908.0467
 21
4442.1318
  0
LINE
  8
_0-2_躯体
  6
CONTINUOUS
 62
    3
 10
2908.0467
 20
4442.1318
 11
2908.7312
 21
4443.6721
  0
LINE
  8
_0-2_躯体
  6
CONTINUOUS
 62
    3
 10
2908.7312
 20
4443.6721
 11
2909.1504
 21
4445.3137
  0
LINE
  8
_0-2_躯体
  6
CONTINUOUS
 62
    3
 10
2909.1504
 20
4445.3137
 11
2909.2915
 21
4447.0068
  0
LINE
  8
_0-2_躯体
  6
CONTINUOUS
 62
    3
 10
2909.2915
 20
4447.0068
 11
2909.1504
 21
4448.6998
  0
LINE
  8
_0-2_躯体
  6
CONTINUOUS
 62
    3
 10
2909.1504
 20
4448.6998
 11
2908.7312
 21
4450.3414
  0
LINE
  8
_0-2_躯体
  6
CONTINUOUS
 62
    3
 10
2908.7312
 20
4450.3414
 11
2908.0467
 21
4451.8817
  0
LINE
  8
_0-2_躯体
  6
CONTINUOUS
 62
    3
 10
2908.0467
 20
4451.8817
 11
2907.1177
 21
4453.2739
  0
LINE
  8
_0-2_躯体
  6
CONTINUOUS
 62
    3
 10
2907.1177
 20
4453.2739
 11
2905.9724
 21
4454.4756
  0
LINE
  8
_0-2_躯体
  6
CONTINUOUS
 62
    3
 10
2905.9724
 20
4454.4756
 11
2904.6457
 21
4455.4504
  0
LINE
  8
_0-2_躯体
  6
CONTINUOUS
 62
    3
 10
2904.6457
 20
4455.4504
 11
2903.1778
 21
4456.1687
  0
LINE
  8
_0-2_躯体
  6
CONTINUOUS
 62
    3
 10
2903.1778
 20
4456.1687
 11
2901.6133
 21
4456.6085
  0
LINE
  8
_0-2_躯体
  6
CONTINUOUS
 62
    3
 10
2901.6133
 20
4456.6085
 11
2899.9999
 21
4456.7567
  0
LINE
  8
_0-2_躯体
  6
CONTINUOUS
 62
    3
 10
2899.9999
 20
4456.7567
 11
2899.9999
 21
4456.7567
  0
LINE
  8
_0-2_躯体
  6
CONTINUOUS
 62
    3
 10
1300
 20
4534.7566
 11
1300
 21
4534.7566
  0
LINE
  8
_0-2_躯体
  6
CONTINUOUS
 62
    3
 10
1300
 20
4534.7566
 11
1298.3866
 21
4534.6085
  0
LINE
  8
_0-2_躯体
  6
CONTINUOUS
 62
    3
 10
1298.3866
 20
4534.6085
 11
1296.8221
 21
4534.1686
  0
LINE
  8
_0-2_躯体
  6
CONTINUOUS
 62
    3
 10
1296.8221
 20
4534.1686
 11
1295.3542
 21
4533.4504
  0
LINE
  8
_0-2_躯体
  6
CONTINUOUS
 62
    3
 10
1295.3542
 20
4533.4504
 11
1294.0275
 21
4532.4756
  0
LINE
  8
_0-2_躯体
  6
CONTINUOUS
 62
    3
 10
1294.0275
 20
4532.4756
 11
1292.8822
 21
4531.2738
  0
LINE
  8
_0-2_躯体
  6
CONTINUOUS
 62
    3
 10
1292.8822
 20
4531.2738
 11
1291.9532
 21
4529.8817
  0
LINE
  8
_0-2_躯体
  6
CONTINUOUS
 62
    3
 10
1291.9532
 20
4529.8817
 11
1291.2687
 21
4528.3414
  0
LINE
  8
_0-2_躯体
  6
CONTINUOUS
 62
    3
 10
1291.2687
 20
4528.3414
 11
1290.8495
 21
4526.6998
  0
LINE
  8
_0-2_躯体
  6
CONTINUOUS
 62
    3
 10
1290.8495
 20
4526.6998
 11
1290.7084
 21
4525.0067
  0
LINE
  8
_0-2_躯体
  6
CONTINUOUS
 62
    3
 10
1290.7084
 20
4525.0067
 11
1290.8495
 21
4523.3137
  0
LINE
  8
_0-2_躯体
  6
CONTINUOUS
 62
    3
 10
1290.8495
 20
4523.3137
 11
1291.2687
 21
4521.6721
  0
LINE
  8
_0-2_躯体
  6
CONTINUOUS
 62
    3
 10
1291.2687
 20
4521.6721
 11
1291.9532
 21
4520.1318
  0
LINE
  8
_0-2_躯体
  6
CONTINUOUS
 62
    3
 10
1291.9532
 20
4520.1318
 11
1292.8822
 21
4518.7396
  0
LINE
  8
_0-2_躯体
  6
CONTINUOUS
 62
    3
 10
1292.8822
 20
4518.7396
 11
1294.0275
 21
4517.5379
  0
LINE
  8
_0-2_躯体
  6
CONTINUOUS
 62
    3
 10
1294.0275
 20
4517.5379
 11
1295.3542
 21
4516.5631
  0
LINE
  8
_0-2_躯体
  6
CONTINUOUS
 62
    3
 10
1295.3542
 20
4516.5631
 11
1296.8221
 21
4515.8448
  0
LINE
  8
_0-2_躯体
  6
CONTINUOUS
 62
    3
 10
1296.8221
 20
4515.8448
 11
1298.3866
 21
4515.4049
  0
LINE
  8
_0-2_躯体
  6
CONTINUOUS
 62
    3
 10
1298.3866
 20
4515.4049
 11
1300
 21
4515.2568
  0
LINE
  8
_0-2_躯体
  6
CONTINUOUS
 62
    3
 10
1300
 20
4515.2568
 11
1300
 21
4515.2568
  0
LINE
  8
_0-2_躯体
  6
CONTINUOUS
 62
    3
 10
1300
 20
4456.7567
 11
1300
 21
4456.7567
  0
LINE
  8
_0-2_躯体
  6
CONTINUOUS
 62
    3
 10
1300
 20
4456.7567
 11
1298.3866
 21
4456.6085
  0
LINE
  8
_0-2_躯体
  6
CONTINUOUS
 62
    3
 10
1298.3866
 20
4456.6085
 11
1296.8221
 21
4456.1687
  0
LINE
  8
_0-2_躯体
  6
CONTINUOUS
 62
    3
 10
1296.8221
 20
4456.1687
 11
1295.3542
 21
4455.4504
  0
LINE
  8
_0-2_躯体
  6
CONTINUOUS
 62
    3
 10
1295.3542
 20
4455.4504
 11
1294.0275
 21
4454.4756
  0
LINE
  8
_0-2_躯体
  6
CONTINUOUS
 62
    3
 10
1294.0275
 20
4454.4756
 11
1292.8822
 21
4453.2739
  0
LINE
  8
_0-2_躯体
  6
CONTINUOUS
 62
    3
 10
1292.8822
 20
4453.2739
 11
1291.9532
 21
4451.8817
  0
LINE
  8
_0-2_躯体
  6
CONTINUOUS
 62
    3
 10
1291.9532
 20
4451.8817
 11
1291.2687
 21
4450.3414
  0
LINE
  8
_0-2_躯体
  6
CONTINUOUS
 62
    3
 10
1291.2687
 20
4450.3414
 11
1290.8495
 21
4448.6998
  0
LINE
  8
_0-2_躯体
  6
CONTINUOUS
 62
    3
 10
1290.8495
 20
4448.6998
 11
1290.7084
 21
4447.0068
  0
LINE
  8
_0-2_躯体
  6
CONTINUOUS
 62
    3
 10
1290.7084
 20
4447.0068
 11
1290.8495
 21
4445.3137
  0
LINE
  8
_0-2_躯体
  6
CONTINUOUS
 62
    3
 10
1290.8495
 20
4445.3137
 11
1291.2687
 21
4443.6721
  0
LINE
  8
_0-2_躯体
  6
CONTINUOUS
 62
    3
 10
1291.2687
 20
4443.6721
 11
1291.9532
 21
4442.1318
  0
LINE
  8
_0-2_躯体
  6
CONTINUOUS
 62
    3
 10
1291.9532
 20
4442.1318
 11
1292.8822
 21
4440.7396
  0
LINE
  8
_0-2_躯体
  6
CONTINUOUS
 62
    3
 10
1292.8822
 20
4440.7396
 11
1294.0275
 21
4439.5379
  0
LINE
  8
_0-2_躯体
  6
CONTINUOUS
 62
    3
 10
1294.0275
 20
4439.5379
 11
1295.3542
 21
4438.5631
  0
LINE
  8
_0-2_躯体
  6
CONTINUOUS
 62
    3
 10
1295.3542
 20
4438.5631
 11
1296.8221
 21
4437.8448
  0
LINE
  8
_0-2_躯体
  6
CONTINUOUS
 62
    3
 10
1296.8221
 20
4437.8448
 11
1298.3866
 21
4437.405
  0
LINE
  8
_0-2_躯体
  6
CONTINUOUS
 62
    3
 10
1298.3866
 20
4437.405
 11
1300
 21
4437.2569
  0
LINE
  8
_0-2_躯体
  6
CONTINUOUS
 62
    3
 10
1300
 20
4437.2569
 11
1300
 21
4437.2569
  0
LINE
  8
_0-2_躯体
  6
CONTINUOUS
 62
    3
 10
2632.4999
 20
4180.2555
 11
2632.4999
 21
4180.2555
  0
LINE
  8
_0-2_躯体
  6
CONTINUOUS
 62
    3
 10
2632.4999
 20
4180.2555
 11
2634.1133
 21
4180.4036
  0
LINE
  8
_0-2_躯体
  6
CONTINUOUS
 62
    3
 10
2634.1133
 20
4180.4036
 11
2635.6778
 21
4180.8435
  0
LINE
  8
_0-2_躯体
  6
CONTINUOUS
 62
    3
 10
2635.6778
 20
4180.8435
 11
2637.1457
 21
4181.5617
  0
LINE
  8
_0-2_躯体
  6
CONTINUOUS
 62
    3
 10
2637.1457
 20
4181.5617
 11
2638.4724
 21
4182.5365
  0
LINE
  8
_0-2_躯体
  6
CONTINUOUS
 62
    3
 10
2638.4724
 20
4182.5365
 11
2639.6177
 21
4183.7382
  0
LINE
  8
_0-2_躯体
  6
CONTINUOUS
 62
    3
 10
2639.6177
 20
4183.7382
 11
2640.5467
 21
4185.1304
  0
LINE
  8
_0-2_躯体
  6
CONTINUOUS
 62
    3
 10
2640.5467
 20
4185.1304
 11
2641.2312
 21
4186.6707
  0
LINE
  8
_0-2_躯体
  6
CONTINUOUS
 62
    3
 10
2641.2312
 20
4186.6707
 11
2641.6503
 21
4188.3123
  0
LINE
  8
_0-2_躯体
  6
CONTINUOUS
 62
    3
 10
2641.6503
 20
4188.3123
 11
2641.7915
 21
4190.0054
  0
LINE
  8
_0-2_躯体
  6
CONTINUOUS
 62
    3
 10
2641.7915
 20
4190.0054
 11
2641.6503
 21
4191.6984
  0
LINE
  8
_0-2_躯体
  6
CONTINUOUS
 62
    3
 10
2641.6503
 20
4191.6984
 11
2641.2312
 21
4193.34
  0
LINE
  8
_0-2_躯体
  6
CONTINUOUS
 62
    3
 10
2641.2312
 20
4193.34
 11
2640.5467
 21
4194.8803
  0
LINE
  8
_0-2_躯体
  6
CONTINUOUS
 62
    3
 10
2640.5467
 20
4194.8803
 11
2639.6177
 21
4196.2725
  0
LINE
  8
_0-2_躯体
  6
CONTINUOUS
 62
    3
 10
2639.6177
 20
4196.2725
 11
2638.4724
 21
4197.4742
  0
LINE
  8
_0-2_躯体
  6
CONTINUOUS
 62
    3
 10
2638.4724
 20
4197.4742
 11
2637.1457
 21
4198.449
  0
LINE
  8
_0-2_躯体
  6
CONTINUOUS
 62
    3
 10
2637.1457
 20
4198.449
 11
2635.6778
 21
4199.1673
  0
LINE
  8
_0-2_躯体
  6
CONTINUOUS
 62
    3
 10
2635.6778
 20
4199.1673
 11
2634.1133
 21
4199.6071
  0
LINE
  8
_0-2_躯体
  6
CONTINUOUS
 62
    3
 10
2634.1133
 20
4199.6071
 11
2632.4999
 21
4199.7553
  0
LINE
  8
_0-2_躯体
  6
CONTINUOUS
 62
    3
 10
2632.4999
 20
4199.7553
 11
2632.4999
 21
4199.7553
  0
LINE
  8
_0-2_躯体
  6
CONTINUOUS
 62
    3
 10
1567.4997
 20
4199.7553
 11
1567.4997
 21
4199.7553
  0
LINE
  8
_0-2_躯体
  6
CONTINUOUS
 62
    3
 10
1567.4997
 20
4199.7553
 11
1565.8862
 21
4199.6071
  0
LINE
  8
_0-2_躯体
  6
CONTINUOUS
 62
    3
 10
1565.8862
 20
4199.6071
 11
1564.3217
 21
4199.1673
  0
LINE
  8
_0-2_躯体
  6
CONTINUOUS
 62
    3
 10
1564.3217
 20
4199.1673
 11
1562.8539
 21
4198.449
  0
LINE
  8
_0-2_躯体
  6
CONTINUOUS
 62
    3
 10
1562.8539
 20
4198.449
 11
1561.5271
 21
4197.4742
  0
LINE
  8
_0-2_躯体
  6
CONTINUOUS
 62
    3
 10
1561.5271
 20
4197.4742
 11
1560.3819
 21
4196.2725
  0
LINE
  8
_0-2_躯体
  6
CONTINUOUS
 62
    3
 10
1560.3819
 20
4196.2725
 11
1559.4529
 21
4194.8803
  0
LINE
  8
_0-2_躯体
  6
CONTINUOUS
 62
    3
 10
1559.4529
 20
4194.8803
 11
1558.7684
 21
4193.34
  0
LINE
  8
_0-2_躯体
  6
CONTINUOUS
 62
    3
 10
1558.7684
 20
4193.34
 11
1558.3492
 21
4191.6984
  0
LINE
  8
_0-2_躯体
  6
CONTINUOUS
 62
    3
 10
1558.3492
 20
4191.6984
 11
1558.208
 21
4190.0054
  0
LINE
  8
_0-2_躯体
  6
CONTINUOUS
 62
    3
 10
1558.208
 20
4190.0054
 11
1558.3492
 21
4188.3123
  0
LINE
  8
_0-2_躯体
  6
CONTINUOUS
 62
    3
 10
1558.3492
 20
4188.3123
 11
1558.7684
 21
4186.6707
  0
LINE
  8
_0-2_躯体
  6
CONTINUOUS
 62
    3
 10
1558.7684
 20
4186.6707
 11
1559.4529
 21
4185.1304
  0
LINE
  8
_0-2_躯体
  6
CONTINUOUS
 62
    3
 10
1559.4529
 20
4185.1304
 11
1560.3819
 21
4183.7382
  0
LINE
  8
_0-2_躯体
  6
CONTINUOUS
 62
    3
 10
1560.3819
 20
4183.7382
 11
1561.5271
 21
4182.5365
  0
LINE
  8
_0-2_躯体
  6
CONTINUOUS
 62
    3
 10
1561.5271
 20
4182.5365
 11
1562.8539
 21
4181.5617
  0
LINE
  8
_0-2_躯体
  6
CONTINUOUS
 62
    3
 10
1562.8539
 20
4181.5617
 11
1564.3217
 21
4180.8435
  0
LINE
  8
_0-2_躯体
  6
CONTINUOUS
 62
    3
 10
1564.3217
 20
4180.8435
 11
1565.8862
 21
4180.4036
  0
LINE
  8
_0-2_躯体
  6
CONTINUOUS
 62
    3
 10
1565.8862
 20
4180.4036
 11
1567.4997
 21
4180.2555
  0
LINE
  8
_0-2_躯体
  6
CONTINUOUS
 62
    3
 10
1567.4997
 20
4180.2555
 11
1567.4997
 21
4180.2555
  0
ARC
  8
_0-3_軸組
  6
CONTINUOUS
 62
    3
 10
2116.2805
 20
4367.1134
 40
10.192054
 50
270
 51
0
  0
ARC
  8
_0-3_軸組
  6
CONTINUOUS
 62
    3
 10
2116.2805
 20
4503.328
 40
10.192054
 50
0
 51
90
  0
ARC
  8
_0-3_軸組
  6
CONTINUOUS
 62
    3
 10
2219.4253
 20
4183.1057
 40
19.96293
 50
270
 51
0
  0
ARC
  8
_0-3_軸組
  6
CONTINUOUS
 62
    3
 10
2209.4441
 20
4155.1747
 40
9.9814653
 50
270
 51
0
  0
ARC
  8
_0-2_躯体
  6
CONTINUOUS
 62
    3
 10
2632.5152
 20
4590.1799
 40
8.9706147
 50
270
 51
90
  0
LINE
  8
_0-2_躯体
  6
CONTINUOUS
 62
    3
 10
1567.4997
 20
4131.2562
 11
1567.4997
 21
4131.2562
  0
LINE
  8
_0-2_躯体
  6
CONTINUOUS
 62
    3
 10
1567.4997
 20
4131.2562
 11
1565.8862
 21
4131.1081
  0
LINE
  8
_0-2_躯体
  6
CONTINUOUS
 62
    3
 10
1565.8862
 20
4131.1081
 11
1564.3217
 21
4130.6683
  0
LINE
  8
_0-2_躯体
  6
CONTINUOUS
 62
    3
 10
1564.3217
 20
4130.6683
 11
1562.8539
 21
4129.95
  0
LINE
  8
_0-2_躯体
  6
CONTINUOUS
 62
    3
 10
1562.8539
 20
4129.95
 11
1561.5271
 21
4128.9752
  0
LINE
  8
_0-2_躯体
  6
CONTINUOUS
 62
    3
 10
1561.5271
 20
4128.9752
 11
1560.3819
 21
4127.7735
  0
LINE
  8
_0-2_躯体
  6
CONTINUOUS
 62
    3
 10
1560.3819
 20
4127.7735
 11
1559.4529
 21
4126.3813
  0
LINE
  8
_0-2_躯体
  6
CONTINUOUS
 62
    3
 10
1559.4529
 20
4126.3813
 11
1558.7684
 21
4124.841
  0
LINE
  8
_0-2_躯体
  6
CONTINUOUS
 62
    3
 10
1558.7684
 20
4124.841
 11
1558.3492
 21
4123.1994
  0
LINE
  8
_0-2_躯体
  6
CONTINUOUS
 62
    3
 10
1558.3492
 20
4123.1994
 11
1558.208
 21
4121.5063
  0
LINE
  8
_0-2_躯体
  6
CONTINUOUS
 62
    3
 10
1558.208
 20
4121.5063
 11
1558.3492
 21
4119.8133
  0
LINE
  8
_0-2_躯体
  6
CONTINUOUS
 62
    3
 10
1558.3492
 20
4119.8133
 11
1558.7684
 21
4118.1717
  0
LINE
  8
_0-2_躯体
  6
CONTINUOUS
 62
    3
 10
1558.7684
 20
4118.1717
 11
1559.4529
 21
4116.6314
  0
LINE
  8
_0-2_躯体
  6
CONTINUOUS
 62
    3
 10
1559.4529
 20
4116.6314
 11
1560.3819
 21
4115.2392
  0
LINE
  8
_0-2_躯体
  6
CONTINUOUS
 62
    3
 10
1560.3819
 20
4115.2392
 11
1561.5271
 21
4114.0375
  0
LINE
  8
_0-2_躯体
  6
CONTINUOUS
 62
    3
 10
1561.5271
 20
4114.0375
 11
1562.8539
 21
4113.0627
  0
LINE
  8
_0-2_躯体
  6
CONTINUOUS
 62
    3
 10
1562.8539
 20
4113.0627
 11
1564.3217
 21
4112.3444
  0
LINE
  8
_0-2_躯体
  6
CONTINUOUS
 62
    3
 10
1564.3217
 20
4112.3444
 11
1565.8862
 21
4111.9046
  0
LINE
  8
_0-2_躯体
  6
CONTINUOUS
 62
    3
 10
1565.8862
 20
4111.9046
 11
1567.4997
 21
4111.7564
  0
LINE
  8
_0-2_躯体
  6
CONTINUOUS
 62
    3
 10
1567.4997
 20
4111.7564
 11
1567.4997
 21
4111.7564
  0
LINE
  8
_0-2_躯体
  6
CONTINUOUS
 62
    3
 10
2632.5003
 20
4111.7564
 11
2632.5003
 21
4111.7564
  0
LINE
  8
_0-2_躯体
  6
CONTINUOUS
 62
    3
 10
2632.5003
 20
4111.7564
 11
2634.1138
 21
4111.9046
  0
LINE
  8
_0-2_躯体
  6
CONTINUOUS
 62
    3
 10
2634.1138
 20
4111.9046
 11
2635.6783
 21
4112.3444
  0
LINE
  8
_0-2_躯体
  6
CONTINUOUS
 62
    3
 10
2635.6783
 20
4112.3444
 11
2637.1462
 21
4113.0627
  0
LINE
  8
_0-2_躯体
  6
CONTINUOUS
 62
    3
 10
2637.1462
 20
4113.0627
 11
2638.4729
 21
4114.0375
  0
LINE
  8
_0-2_躯体
  6
CONTINUOUS
 62
    3
 10
2638.4729
 20
4114.0375
 11
2639.6182
 21
4115.2392
  0
LINE
  8
_0-2_躯体
  6
CONTINUOUS
 62
    3
 10
2639.6182
 20
4115.2392
 11
2640.5472
 21
4116.6314
  0
LINE
  8
_0-2_躯体
  6
CONTINUOUS
 62
    3
 10
2640.5472
 20
4116.6314
 11
2641.2316
 21
4118.1717
  0
LINE
  8
_0-2_躯体
  6
CONTINUOUS
 62
    3
 10
2641.2316
 20
4118.1717
 11
2641.6508
 21
4119.8133
  0
LINE
  8
_0-2_躯体
  6
CONTINUOUS
 62
    3
 10
2641.6508
 20
4119.8133
 11
2641.792
 21
4121.5063
  0
LINE
  8
_0-2_躯体
  6
CONTINUOUS
 62
    3
 10
2641.792
 20
4121.5063
 11
2641.6508
 21
4123.1994
  0
LINE
  8
_0-2_躯体
  6
CONTINUOUS
 62
    3
 10
2641.6508
 20
4123.1994
 11
2641.2316
 21
4124.841
  0
LINE
  8
_0-2_躯体
  6
CONTINUOUS
 62
    3
 10
2641.2316
 20
4124.841
 11
2640.5472
 21
4126.3813
  0
LINE
  8
_0-2_躯体
  6
CONTINUOUS
 62
    3
 10
2640.5472
 20
4126.3813
 11
2639.6182
 21
4127.7735
  0
LINE
  8
_0-2_躯体
  6
CONTINUOUS
 62
    3
 10
2639.6182
 20
4127.7735
 11
2638.4729
 21
4128.9752
  0
LINE
  8
_0-2_躯体
  6
CONTINUOUS
 62
    3
 10
2638.4729
 20
4128.9752
 11
2637.1462
 21
4129.95
  0
LINE
  8
_0-2_躯体
  6
CONTINUOUS
 62
    3
 10
2637.1462
 20
4129.95
 11
2635.6783
 21
4130.6683
  0
LINE
  8
_0-2_躯体
  6
CONTINUOUS
 62
    3
 10
2635.6783
 20
4130.6683
 11
2634.1138
 21
4131.1081
  0
LINE
  8
_0-2_躯体
  6
CONTINUOUS
 62
    3
 10
2634.1138
 20
4131.1081
 11
2632.5003
 21
4131.2562
  0
LINE
  8
_0-2_躯体
  6
CONTINUOUS
 62
    3
 10
2632.5003
 20
4131.2562
 11
2632.5003
 21
4131.2562
  0
TEXT
  8
_0-d_文字
 62
    7
 10
509.99969
 20
310.13513
 40
50
 41
1
 50
0
  1
図
  0
TEXT
  8
_0-d_文字
 62
    7
 10
509.99969
 20
190.1352
 40
50
 41
1
 50
0
  1
番
  0
TEXT
  8
_0-d_文字
 62
    7
 10
1309.9997
 20
310.13513
 40
50
 41
1
 50
0
  1
承
  0
TEXT
  8
_0-d_文字
 62
    7
 10
1309.9997
 20
190.1352
 40
50
 41
1
 50
0
  1
認
  0
TEXT
  8
_0-d_文字
 62
    7
 10
2039.9996
 20
470.13522
 40
50
 41
1
 50
0
  1
尺
  0
TEXT
  8
_0-d_文字
 62
    7
 10
2039.9996
 20
390.13527
 40
50
 41
1
 50
-0.0001417
  1
度
  0
TEXT
  8
_0-d_文字
 62
    7
 10
1709.9997
 20
310.13513
 40
50
 41
1
 50
0
  1
製
  0
TEXT
  8
_0-d_文字
 62
    7
 10
1709.9997
 20
190.1352
 40
50
 41
1
 50
0
  1
図
  0
TEXT
  8
_0-d_文字
 62
    7
 10
3109.9998
 20
470.13522
 40
50
 41
1
 50
0
  1
日
  0
TEXT
  8
_0-d_文字
 62
    7
 10
3109.9998
 20
390.13527
 40
50
 41
1
 50
-0.0001417
  1
付
  0
TEXT
  8
_0-d_文字
 62
    7
 10
2222.8519
 20
322.09974
 40
40
 41
1
 50
0
  1
株式
  0
TEXT
  8
_0-d_文字
 62
    7
 10
2222.8519
 20
278.83888
 40
40
 41
1
 50
0.0000196
  1
会社
  0
TEXT
  8
_0-d_文字
 62
    3
 10
2348.4483
 20
281.62988
 40
80
 41
1
 50
-0.0000039
  1
スズキベンチレーター
  0
TEXT
  8
_0-d_文字
 62
    7
 10
2475.8353
 20
183.18396
 40
40
 41
1
 50
0
  1
TEL(054)296-7000  FAX(054)296-7001
  0
TEXT
  8
_0-8_寸法
 62
    3
 10
2024.375
 20
5110.9972
 40
60
 41
1
 50
0
  1
1,600
  0
TEXT
  8
_0-8_寸法
 62
    3
 10
998.27505
 20
4364.8814
 40
60
 41
1
 50
90
  1
875
  0
TEXT
  8
_0-8_寸法
 62
    3
 10
2024.3747
 20
3914.9401
 40
60
 41
1
 50
0
  1
1,065
  0
TEXT
  8
_0-d_文字
 62
    3
 10
2168.6976
 20
415.33665
 40
80
 41
1
 50
0
  1
１／２０
  0
TEXT
  8
_0-d_文字
 62
    7
 10
2471.3581
 20
232.42737
 40
40
 41
1
 50
-0.0000034
  1
〒421-2114　静岡市葵区安倍口新田１５２番地
  0
TEXT
  8
_0-d_文字
 62
    3
 10
509.99995
 20
5545.4025
 40
100
 41
1
 50
0
  1
ＳＴ－１０５Ｌ　直付型（低騒音）網付　断面
  0
TEXT
  8
_0-d_文字
 62
    7
 10
562.32177
 20
415.2802
 40
50
 41
1
 50
0
  1
ＳＴ－１０５Ｌ　直付型（低騒音）網付　断面
  0
TEXT
  8
_0-d_文字
 62
    3
 10
596.67529
 20
287.90674
 40
60
 41
1
 50
0
  1
105L-04a
  0
POINT
  8
_0-8_寸法
 62
    2
 10
1013.2747
 20
4081.7561
  0
POINT
  8
_0-8_寸法
 62
    2
 10
1013.2747
 20
4956.7565
  0
POINT
  8
_0-8_寸法
 62
    2
 10
1300
 20
5095.9969
  0
POINT
  8
_0-8_寸法
 62
    2
 10
2899.9999
 20
5095.9969
  0
POINT
  8
_0-8_寸法
 62
    2
 10
1567.4997
 20
3899.9398
  0
POINT
  8
_0-8_寸法
 62
    2
 10
2632.4999
 20
3899.9398
  0
ENDSEC
  0
EOF
