  0
SECTION
  2
HEADER
  9
$ACADVER
  1
AC1009
  9
$INSBASE
 10
0
 20
0
 30
0
  9
$EXTMIN
 10
0
 20
0
  9
$EXTMAX
 10
8400
 20
5940
  9
$LIMMIN
 10
0
 20
0
  9
$LIMMAX
 10
8400
 20
5940
  9
$LTSCALE
 40
20
  0
ENDSEC
  0
SECTION
  2
TABLES
  0
TABLE
  2
LTYPE
 70
     9
  0
LTYPE
  2
CONTINUOUS
 70
    64
  3
実線
 72
    65
 73
     0
 40
0.0
  0
LTYPE
  2
DASHED1
 70
    64
  3
--  --  --  --  --  --  --  --  
 72
    65
 73
     2
 40
2.5
 49
1.25
 49
-1.25
  0
LTYPE
  2
DASHED2
 70
    64
  3
----    ----    ----    ----    
 72
    65
 73
     2
 40
5.0
 49
2.5
 49
-2.5
  0
LTYPE
  2
DASHED3
 70
    64
  3
------  ------  ------  ------  
 72
    65
 73
     2
 40
5.0
 49
3.75
 49
-1.25
  0
LTYPE
  2
CENTER1
 70
    64
  3
----- - ----- - ----- - ----- - 
 72
    65
 73
     4
 40
10.0
 49
6.25
 49
-1.25
 49
1.25
 49
-1.25
  0
LTYPE
  2
CENTER2
 70
    64
  3
----------  --  ----------  --  
 72
    65
 73
     4
 40
20.0
 49
12.5
 49
-2.5
 49
2.5
 49
-2.5
  0
LTYPE
  2
PHANTOM1
 70
    64
  3
--- - - --- - - --- - - --- - - 
 72
    65
 73
     6
 40
10.0
 49
3.25
 49
-1.25
 49
1.25
 49
-1.25
 49
1.25
 49
-1.25
  0
LTYPE
  2
PHANTOM2
 70
    64
  3
--------  -  -  --------  -  -  
 72
    65
 73
     6
 40
20.0
 49
10.0
 49
-2.5
 49
1.25
 49
-2.5
 49
1.25
 49
-2.5
  0
LTYPE
  2
DOT
 70
    64
  3
-   -   -   -   -   -   -   -   
 72
    65
 73
     2
 40
2.5
 49
0.625
 49
-1.875
  0
LTYPE
  2
DUMMY
 70
    64
  3
ダミー
 72
    65
 73
     0
 40
0.0
  0
LTYPE
  2
RAND1
 70
    64
  3
----- - ----- - ----- - ----- - 
 72
    65
 73
     4
 40
10.0
 49
6.25
 49
-1.25
 49
1.25
 49
-1.25
  0
LTYPE
  2
RAND2
 70
    64
  3
----------  --  ----------  --  
 72
    65
 73
     4
 40
20.0
 49
12.5
 49
-2.5
 49
2.5
 49
-2.5
  0
LTYPE
  2
RAND3
 70
    64
  3
--- - - --- - - --- - - --- - - 
 72
    65
 73
     6
 40
10.0
 49
3.25
 49
-1.25
 49
1.25
 49
-1.25
 49
1.25
 49
-1.25
  0
LTYPE
  2
RAND4
 70
    64
  3
--------  -  -  --------  -  -  
 72
    65
 73
     6
 40
20.0
 49
10.0
 49
-2.5
 49
1.25
 49
-2.5
 49
1.25
 49
-2.5
  0
LTYPE
  2
RAND5
 70
    64
  3
----- - ----- - ----- - ----- - 
 72
    65
 73
     4
 40
10.0
 49
6.25
 49
-1.25
 49
1.25
 49
-1.25
  0
LTYPE
  2
LONG1
 70
    64
  3
----------  --  ----------  --  
 72
    65
 73
     4
 40
20.0
 49
12.5
 49
-2.5
 49
2.5
 49
-2.5
  0
LTYPE
  2
LONG2
 70
    64
  3
--- - - --- - - --- - - --- - - 
 72
    65
 73
     6
 40
10.0
 49
3.25
 49
-1.25
 49
1.25
 49
-1.25
 49
1.25
 49
-1.25
  0
LTYPE
  2
LONG3
 70
    64
  3
--------  -  -  --------  -  -  
 72
    65
 73
     6
 40
20.0
 49
10.0
 49
-2.5
 49
1.25
 49
-2.5
 49
1.25
 49
-2.5
  0
LTYPE
  2
LONG4
 70
    64
  3
----- - ----- - ----- - ----- - 
 72
    65
 73
     4
 40
10.0
 49
6.25
 49
-1.25
 49
1.25
 49
-1.25
  0
LTYPE
  2
LONG5
 70
    64
  3
----------  --  ----------  --  
 72
    65
 73
     4
 40
20.0
 49
12.5
 49
-2.5
 49
2.5
 49
-2.5
  0
ENDTAB
  0
TABLE
  2
STYLE
  5
3
100
AcDbSymbolTable
 70
     1
  0
STYLE
  5
10
100
AcDbSymbolTableRecord
100
AcDbTextStyleTableRecord
  2
STANDARD
 70
     0
 40
0.0
 41
1.0
 50
0.0
 71
     0
 42
0.2
  3
txt
  4
bigfont.shx
  0
STYLE
  5
26
100
AcDbSymbolTableRecord
100
AcDbTextStyleTableRecord
  2
TATEGAKI
 70
    68
 40
0.0
 41
1.0
 50
0.0
 71
     0
 42
1.0
  3
txt
  4
bigfont.shx
  0
ENDTAB
  0
TABLE
  2
LAYER
 70
    6
  0
LAYER
  2
_0-1_基準線
 70
   64
 62
    7
  6
CONTINUOUS
  0
LAYER
  2
_0-2_躯体
 70
   64
 62
    7
  6
CONTINUOUS
  0
LAYER
  2
_0-3_軸組
 70
   64
 62
    7
  6
CONTINUOUS
  0
LAYER
  2
_0-8_寸法
 70
   64
 62
    7
  6
CONTINUOUS
  0
LAYER
  2
_0-d_文字
 70
   64
 62
    7
  6
CONTINUOUS
  0
LAYER
  2
ADD_LINE
 70
   64
 62
    7
  6
CONTINUOUS
  0
ENDTAB
  0
ENDSEC
  0
SECTION
  2
BLOCKS
  0
ENDSEC
  0
SECTION
  2
ENTITIES
  0
LINE
  8
_0-d_文字
  6
CONTINUOUS
 62
    7
 10
500.00004
 20
5515.4024
 11
3700
 21
5515.4024
  0
LINE
  8
_0-d_文字
  6
CONTINUOUS
 62
    7
 10
500.00004
 20
5535.4025
 11
3700
 21
5535.4025
  0
LINE
  8
_0-d_文字
  6
CONTINUOUS
 62
    7
 10
499.99979
 20
375.13522
 11
3699.9998
 21
375.13522
  0
LINE
  8
_0-d_文字
  6
CONTINUOUS
 62
    7
 10
499.99979
 20
175.13518
 11
499.99979
 21
535.13513
  0
LINE
  8
_0-d_文字
  6
CONTINUOUS
 62
    7
 10
499.99979
 20
175.13518
 11
3699.9998
 21
175.13518
  0
LINE
  8
_0-d_文字
  6
CONTINUOUS
 62
    7
 10
2100
 20
535.13513
 11
2100
 21
175.13518
  0
LINE
  8
_0-d_文字
  6
CONTINUOUS
 62
    7
 10
1299.9999
 20
175.13518
 11
1299.9999
 21
375.13522
  0
LINE
  8
_0-d_文字
  6
CONTINUOUS
 62
    7
 10
2100
 20
375.13522
 11
2100
 21
535.13513
  0
LINE
  8
_0-d_文字
  6
CONTINUOUS
 62
    7
 10
1699.9999
 20
175.13518
 11
1699.9999
 21
375.13522
  0
LINE
  8
_0-d_文字
  6
CONTINUOUS
 62
    7
 10
569.99965
 20
175.13518
 11
569.99965
 21
375.13522
  0
LINE
  8
_0-d_文字
  6
CONTINUOUS
 62
    7
 10
1369.9995
 20
175.13518
 11
1369.9995
 21
375.13522
  0
LINE
  8
_0-d_文字
  6
CONTINUOUS
 62
    7
 10
1769.9995
 20
175.13518
 11
1769.9995
 21
375.13522
  0
LINE
  8
_0-d_文字
  6
CONTINUOUS
 62
    7
 10
2029.9998
 20
375.13522
 11
2029.9998
 21
535.13513
  0
LINE
  8
_0-d_文字
  6
CONTINUOUS
 62
    7
 10
3099.9998
 20
375.13522
 11
3099.9998
 21
535.13513
  0
LINE
  8
_0-d_文字
  6
CONTINUOUS
 62
    7
 10
3169.9995
 20
375.13522
 11
3169.9995
 21
535.13513
  0
LINE
  8
_0-d_文字
  6
CONTINUOUS
 62
    7
 10
499.99979
 20
535.13513
 11
3699.9998
 21
535.13513
  0
LINE
  8
_0-d_文字
  6
CONTINUOUS
 62
    7
 10
3699.9998
 20
535.13513
 11
3699.9998
 21
175.13518
  0
LINE
  8
_0-d_文字
  6
CENTER2
 62
    7
 10
2100
 20
3874.8197
 11
2100
 21
5127.5222
  0
LINE
  8
_0-8_寸法
  6
CONTINUOUS
 62
    7
 10
1300
 20
5188.477
 11
2899.9999
 21
5188.477
  0
LINE
  8
_0-2_躯体
  6
CONTINUOUS
 62
    3
 10
1300
 20
4864.2368
 11
1300
 21
4627.2365
  0
LINE
  8
_0-2_躯体
  6
CONTINUOUS
 62
    3
 10
2899.9999
 20
4864.2368
 11
2899.9999
 21
4627.2365
  0
LINE
  8
_0-8_寸法
  6
CONTINUOUS
 62
    7
 10
1567.4998
 20
4107.8786
 11
1567.4998
 21
3992.42
  0
LINE
  8
_0-8_寸法
  6
CONTINUOUS
 62
    7
 10
2632.4999
 20
4107.8786
 11
2632.4999
 21
3992.42
  0
LINE
  8
_0-8_寸法
  6
CONTINUOUS
 62
    7
 10
1300
 20
4944.7849
 11
1300
 21
5188.477
  0
LINE
  8
_0-8_寸法
  6
CONTINUOUS
 62
    7
 10
1604.554
 20
5049.2367
 11
1013.2748
 21
5049.2367
  0
LINE
  8
_0-8_寸法
  6
CONTINUOUS
 62
    7
 10
2899.9999
 20
4944.7849
 11
2899.9999
 21
5188.477
  0
LINE
  8
_0-2_躯体
  6
CONTINUOUS
 62
    3
 10
1300
 20
4607.7372
 11
1300
 21
4549.2365
  0
LINE
  8
_0-2_躯体
  6
CONTINUOUS
 62
    3
 10
1300
 20
4529.7373
 11
1300
 21
4484.2361
  0
LINE
  8
_0-2_躯体
  6
CONTINUOUS
 62
    3
 10
2899.9999
 20
4607.7372
 11
2899.9999
 21
4549.2365
  0
LINE
  8
_0-2_躯体
  6
CONTINUOUS
 62
    3
 10
2899.9976
 20
4529.7373
 11
2899.9976
 21
4484.2361
  0
LINE
  8
_0-3_軸組
  6
CONTINUOUS
 62
    3
 10
2137.3401
 20
4573.4445
 11
2147.1669
 21
4579.4845
  0
LINE
  8
_0-3_軸組
  6
CONTINUOUS
 62
    3
 10
2147.1669
 20
4579.4845
 11
2156.947
 21
4585.6438
  0
LINE
  8
_0-3_軸組
  6
CONTINUOUS
 62
    3
 10
2156.947
 20
4585.6438
 11
2166.635
 21
4592.0337
  0
LINE
  8
_0-3_軸組
  6
CONTINUOUS
 62
    3
 10
2166.635
 20
4592.0337
 11
2176.1221
 21
4598.7789
  0
LINE
  8
_0-3_軸組
  6
CONTINUOUS
 62
    3
 10
2176.1221
 20
4598.7789
 11
2185.236
 21
4606.0155
  0
LINE
  8
_0-3_軸組
  6
CONTINUOUS
 62
    3
 10
2185.236
 20
4606.0155
 11
2193.7853
 21
4613.8619
  0
LINE
  8
_0-3_軸組
  6
CONTINUOUS
 62
    3
 10
2193.7853
 20
4613.8619
 11
2201.5836
 21
4622.4564
  0
LINE
  8
_0-3_軸組
  6
CONTINUOUS
 62
    3
 10
2201.5836
 20
4622.4564
 11
2208.4424
 21
4631.922
  0
LINE
  8
_0-3_軸組
  6
CONTINUOUS
 62
    3
 10
2208.4424
 20
4631.922
 11
2214.425
 21
4642.1601
  0
LINE
  8
_0-3_軸組
  6
CONTINUOUS
 62
    3
 10
2214.425
 20
4642.1601
 11
2220.0775
 21
4652.6149
  0
LINE
  8
_0-3_軸組
  6
CONTINUOUS
 62
    3
 10
2220.0775
 20
4652.6149
 11
2225.9753
 21
4662.6971
  0
LINE
  8
_0-3_軸組
  6
CONTINUOUS
 62
    3
 10
2225.9753
 20
4662.6971
 11
2232.7217
 21
4671.8147
  0
LINE
  8
_0-3_軸組
  6
CONTINUOUS
 62
    3
 10
2232.7217
 20
4671.8147
 11
2240.8882
 21
4679.375
  0
LINE
  8
_0-3_軸組
  6
CONTINUOUS
 62
    3
 10
2240.8882
 20
4679.375
 11
2250.6547
 21
4685.2195
  0
LINE
  8
_0-3_軸組
  6
CONTINUOUS
 62
    3
 10
2250.6547
 20
4685.2195
 11
2261.427
 21
4689.9956
  0
LINE
  8
_0-3_軸組
  6
CONTINUOUS
 62
    3
 10
2261.427
 20
4689.9956
 11
2266.5265
 21
4692.0326
  0
LINE
  8
_0-3_軸組
  6
CONTINUOUS
 62
    3
 10
2261.427
 20
4689.9956
 11
2268.5206
 21
4691.123
  0
LINE
  8
_0-3_軸組
  6
CONTINUOUS
 62
    3
 10
2268.5206
 20
4691.123
 11
2275.6775
 21
4692.1033
  0
LINE
  8
_0-3_軸組
  6
CONTINUOUS
 62
    3
 10
2275.6775
 20
4692.1033
 11
2282.953
 21
4692.8056
  0
LINE
  8
_0-3_軸組
  6
CONTINUOUS
 62
    3
 10
2282.953
 20
4692.8056
 11
2290.4071
 21
4693.0713
  0
LINE
  8
_0-3_軸組
  6
CONTINUOUS
 62
    3
 10
2290.4071
 20
4693.0713
 11
2298.0879
 21
4692.7699
  0
LINE
  8
_0-3_軸組
  6
CONTINUOUS
 62
    3
 10
2298.0879
 20
4692.7699
 11
2305.7739
 21
4691.6505
  0
LINE
  8
_0-3_軸組
  6
CONTINUOUS
 62
    3
 10
2305.7739
 20
4691.6505
 11
2312.9434
 21
4689.4052
  0
LINE
  8
_0-3_軸組
  6
CONTINUOUS
 62
    3
 10
2312.9434
 20
4689.4052
 11
2319.0547
 21
4685.6823
  0
LINE
  8
_0-3_軸組
  6
CONTINUOUS
 62
    3
 10
2319.0547
 20
4685.6823
 11
2323.6675
 21
4680.2425
  0
LINE
  8
_0-3_軸組
  6
CONTINUOUS
 62
    3
 10
2323.6675
 20
4680.2425
 11
2327.2633
 21
4673.7116
  0
LINE
  8
_0-3_軸組
  6
CONTINUOUS
 62
    3
 10
2133.4823
 20
4546.4523
 11
2144.9974
 21
4548.1616
  0
LINE
  8
_0-3_軸組
  6
CONTINUOUS
 62
    3
 10
2144.9974
 20
4548.1616
 11
2156.4425
 21
4550.0961
  0
LINE
  8
_0-3_軸組
  6
CONTINUOUS
 62
    3
 10
2156.4425
 20
4550.0961
 11
2167.7611
 21
4552.4607
  0
LINE
  8
_0-3_軸組
  6
CONTINUOUS
 62
    3
 10
2167.7611
 20
4552.4607
 11
2178.8761
 21
4555.4854
  0
LINE
  8
_0-3_軸組
  6
CONTINUOUS
 62
    3
 10
2178.8761
 20
4555.4854
 11
2189.7308
 21
4559.3801
  0
LINE
  8
_0-3_軸組
  6
CONTINUOUS
 62
    3
 10
2189.7308
 20
4559.3801
 11
2200.2636
 21
4564.1967
  0
LINE
  8
_0-3_軸組
  6
CONTINUOUS
 62
    3
 10
2200.2636
 20
4564.1967
 11
2210.4296
 21
4569.8428
  0
LINE
  8
_0-3_軸組
  6
CONTINUOUS
 62
    3
 10
2210.4296
 20
4569.8428
 11
2220.1726
 21
4576.254
  0
LINE
  8
_0-3_軸組
  6
CONTINUOUS
 62
    3
 10
2220.1726
 20
4576.254
 11
2229.4471
 21
4583.3134
  0
LINE
  8
_0-3_軸組
  6
CONTINUOUS
 62
    3
 10
2229.4471
 20
4583.3134
 11
2238.2087
 21
4590.9564
  0
LINE
  8
_0-3_軸組
  6
CONTINUOUS
 62
    3
 10
2238.2087
 20
4590.9564
 11
2246.5242
 21
4599.0427
  0
LINE
  8
_0-3_軸組
  6
CONTINUOUS
 62
    3
 10
2246.5242
 20
4599.0427
 11
2254.5613
 21
4607.3893
  0
LINE
  8
_0-3_軸組
  6
CONTINUOUS
 62
    3
 10
2254.5613
 20
4607.3893
 11
2262.4962
 21
4615.8107
  0
LINE
  8
_0-3_軸組
  6
CONTINUOUS
 62
    3
 10
2262.4962
 20
4615.8107
 11
2270.4981
 21
4624.1217
  0
LINE
  8
_0-3_軸組
  6
CONTINUOUS
 62
    3
 10
2270.4981
 20
4624.1217
 11
2278.7485
 21
4632.1407
  0
LINE
  8
_0-3_軸組
  6
CONTINUOUS
 62
    3
 10
2278.7485
 20
4632.1407
 11
2287.4059
 21
4639.7074
  0
LINE
  8
_0-3_軸組
  6
CONTINUOUS
 62
    3
 10
2287.4059
 20
4639.7074
 11
2296.4585
 21
4646.8164
  0
LINE
  8
_0-3_軸組
  6
CONTINUOUS
 62
    3
 10
2296.4585
 20
4646.8164
 11
2305.8335
 21
4653.5774
  0
LINE
  8
_0-3_軸組
  6
CONTINUOUS
 62
    3
 10
2305.8335
 20
4653.5774
 11
2315.4322
 21
4660.0742
  0
LINE
  8
_0-3_軸組
  6
CONTINUOUS
 62
    3
 10
2315.4322
 20
4660.0742
 11
2325.1826
 21
4666.4097
  0
LINE
  8
_0-3_軸組
  6
CONTINUOUS
 62
    3
 10
2325.1826
 20
4666.4097
 11
2332.0846
 21
4670.821
  0
LINE
  8
_0-3_軸組
  6
CONTINUOUS
 62
    3
 10
2332.0846
 20
4670.821
 11
2342.8552
 21
4675.2883
  0
LINE
  8
_0-3_軸組
  6
CONTINUOUS
 62
    3
 10
2342.8552
 20
4675.2883
 11
2353.6876
 21
4679.4596
  0
LINE
  8
_0-3_軸組
  6
CONTINUOUS
 62
    3
 10
2353.6876
 20
4679.4596
 11
2364.6482
 21
4683.0396
  0
LINE
  8
_0-3_軸組
  6
CONTINUOUS
 62
    3
 10
2364.6482
 20
4683.0396
 11
2375.8006
 21
4685.7377
  0
LINE
  8
_0-3_軸組
  6
CONTINUOUS
 62
    3
 10
2375.8006
 20
4685.7377
 11
2387.1714
 21
4687.3906
  0
LINE
  8
_0-3_軸組
  6
CONTINUOUS
 62
    3
 10
2387.1714
 20
4687.3906
 11
2398.7056
 21
4688.1171
  0
LINE
  8
_0-3_軸組
  6
CONTINUOUS
 62
    3
 10
2398.7056
 20
4688.1171
 11
2410.337
 21
4688.0745
  0
LINE
  8
_0-3_軸組
  6
CONTINUOUS
 62
    3
 10
2410.337
 20
4688.0745
 11
2422.0025
 21
4687.4193
  0
LINE
  8
_0-3_軸組
  6
CONTINUOUS
 62
    3
 10
2422.0025
 20
4687.4193
 11
2433.6468
 21
4686.3147
  0
LINE
  8
_0-3_軸組
  6
CONTINUOUS
 62
    3
 10
2433.6468
 20
4686.3147
 11
2445.203
 21
4684.8934
  0
LINE
  8
_0-3_軸組
  6
CONTINUOUS
 62
    3
 10
2445.203
 20
4684.8934
 11
2456.6562
 21
4683.1267
  0
LINE
  8
_0-3_軸組
  6
CONTINUOUS
 62
    3
 10
2456.6562
 20
4683.1267
 11
2468.0122
 21
4680.975
  0
LINE
  8
_0-3_軸組
  6
CONTINUOUS
 62
    3
 10
2468.0122
 20
4680.975
 11
2479.2539
 21
4678.365
  0
LINE
  8
_0-3_軸組
  6
CONTINUOUS
 62
    3
 10
2479.2539
 20
4678.365
 11
2490.3875
 21
4675.2522
  0
LINE
  8
_0-3_軸組
  6
CONTINUOUS
 62
    3
 10
2490.3875
 20
4675.2522
 11
2501.4092
 21
4671.5663
  0
LINE
  8
_0-3_軸組
  6
CONTINUOUS
 62
    3
 10
2501.4092
 20
4671.5663
 11
2512.2738
 21
4667.2564
  0
LINE
  8
_0-3_軸組
  6
CONTINUOUS
 62
    3
 10
2512.2738
 20
4667.2564
 11
2522.8808
 21
4662.2725
  0
LINE
  8
_0-3_軸組
  6
CONTINUOUS
 62
    3
 10
2522.8808
 20
4662.2725
 11
2533.0743
 21
4656.5858
  0
LINE
  8
_0-3_軸組
  6
CONTINUOUS
 62
    3
 10
2533.0743
 20
4656.5858
 11
2542.7237
 21
4650.143
  0
LINE
  8
_0-3_軸組
  6
CONTINUOUS
 62
    3
 10
2542.7237
 20
4650.143
 11
2551.6872
 21
4642.8955
  0
LINE
  8
_0-3_軸組
  6
CONTINUOUS
 62
    3
 10
2551.6872
 20
4642.8955
 11
2559.8416
 21
4634.8225
  0
LINE
  8
_0-3_軸組
  6
CONTINUOUS
 62
    3
 10
2559.8416
 20
4634.8225
 11
2567.2908
 21
4626.0428
  0
LINE
  8
_0-3_軸組
  6
CONTINUOUS
 62
    3
 10
2567.2908
 20
4626.0428
 11
2574.2226
 21
4616.752
  0
LINE
  8
_0-3_軸組
  6
CONTINUOUS
 62
    3
 10
2574.2226
 20
4616.752
 11
2580.831
 21
4607.1449
  0
LINE
  8
_0-3_軸組
  6
CONTINUOUS
 62
    3
 10
2580.831
 20
4607.1449
 11
2584.6715
 21
4601.4077
  0
LINE
  8
_0-3_軸組
  6
CONTINUOUS
 62
    3
 10
2580.831
 20
4607.1449
 11
2585.998
 21
4596.4446
  0
LINE
  8
_0-3_軸組
  6
CONTINUOUS
 62
    3
 10
2585.998
 20
4596.4446
 11
2590.8906
 21
4585.6973
  0
LINE
  8
_0-3_軸組
  6
CONTINUOUS
 62
    3
 10
2590.8906
 20
4585.6973
 11
2595.2431
 21
4574.8733
  0
LINE
  8
_0-3_軸組
  6
CONTINUOUS
 62
    3
 10
2595.2431
 20
4574.8733
 11
2598.7785
 21
4563.9151
  0
LINE
  8
_0-3_軸組
  6
CONTINUOUS
 62
    3
 10
2598.7785
 20
4563.9151
 11
2601.2274
 21
4552.7922
  0
LINE
  8
_0-3_軸組
  6
CONTINUOUS
 62
    3
 10
2601.2274
 20
4552.7922
 11
2602.329
 21
4541.462
  0
LINE
  8
_0-3_軸組
  6
CONTINUOUS
 62
    3
 10
2602.329
 20
4541.462
 11
2602.013
 21
4529.9684
  0
LINE
  8
_0-3_軸組
  6
CONTINUOUS
 62
    3
 10
2602.013
 20
4529.9684
 11
2600.4725
 21
4518.4238
  0
LINE
  8
_0-3_軸組
  6
CONTINUOUS
 62
    3
 10
2600.4725
 20
4518.4238
 11
2597.9055
 21
4506.9624
  0
LINE
  8
_0-3_軸組
  6
CONTINUOUS
 62
    3
 10
2597.9055
 20
4506.9624
 11
2594.4881
 21
4495.7148
  0
LINE
  8
_0-3_軸組
  6
CONTINUOUS
 62
    3
 10
2594.4881
 20
4495.7148
 11
2590.2782
 21
4484.8373
  0
LINE
  8
_0-3_軸組
  6
CONTINUOUS
 62
    3
 10
2590.2782
 20
4484.8373
 11
2585.1614
 21
4474.482
  0
LINE
  8
_0-3_軸組
  6
CONTINUOUS
 62
    3
 10
2585.1614
 20
4474.482
 11
2579.0145
 21
4464.8096
  0
LINE
  8
_0-3_軸組
  6
CONTINUOUS
 62
    3
 10
2579.0145
 20
4464.8096
 11
2571.8519
 21
4455.879
  0
LINE
  8
_0-3_軸組
  6
CONTINUOUS
 62
    3
 10
2571.8519
 20
4455.879
 11
2563.8887
 21
4447.5239
  0
LINE
  8
_0-3_軸組
  6
CONTINUOUS
 62
    3
 10
2563.8887
 20
4447.5239
 11
2555.3781
 21
4439.5692
  0
LINE
  8
_0-3_軸組
  6
CONTINUOUS
 62
    3
 10
2555.3781
 20
4439.5692
 11
2546.5563
 21
4431.8471
  0
LINE
  8
_0-3_軸組
  6
CONTINUOUS
 62
    3
 10
2546.5563
 20
4431.8471
 11
2544.1772
 21
4429.8033
  0
LINE
  8
_0-3_軸組
  6
CONTINUOUS
 62
    3
 10
2546.5563
 20
4431.8471
 11
2536.4313
 21
4426.1703
  0
LINE
  8
_0-3_軸組
  6
CONTINUOUS
 62
    3
 10
2536.4313
 20
4426.1703
 11
2526.268
 21
4420.5995
  0
LINE
  8
_0-3_軸組
  6
CONTINUOUS
 62
    3
 10
2526.268
 20
4420.5995
 11
2516.0203
 21
4415.231
  0
LINE
  8
_0-3_軸組
  6
CONTINUOUS
 62
    3
 10
2516.0203
 20
4415.231
 11
2505.6323
 21
4410.1669
  0
LINE
  8
_0-3_軸組
  6
CONTINUOUS
 62
    3
 10
2505.6323
 20
4410.1669
 11
2495.0782
 21
4405.5066
  0
LINE
  8
_0-3_軸組
  6
CONTINUOUS
 62
    3
 10
2495.0782
 20
4405.5066
 11
2484.2982
 21
4401.3516
  0
LINE
  8
_0-3_軸組
  6
CONTINUOUS
 62
    3
 10
2484.2982
 20
4401.3516
 11
2473.2909
 21
4397.7608
  0
LINE
  8
_0-3_軸組
  6
CONTINUOUS
 62
    3
 10
2473.2909
 20
4397.7608
 11
2462.1019
 21
4394.7465
  0
LINE
  8
_0-3_軸組
  6
CONTINUOUS
 62
    3
 10
2462.1019
 20
4394.7465
 11
2450.7734
 21
4392.3047
  0
LINE
  8
_0-3_軸組
  6
CONTINUOUS
 62
    3
 10
2450.7734
 20
4392.3047
 11
2439.3402
 21
4390.4376
  0
LINE
  8
_0-3_軸組
  6
CONTINUOUS
 62
    3
 10
2439.3402
 20
4390.4376
 11
2427.858
 21
4389.1296
  0
LINE
  8
_0-3_軸組
  6
CONTINUOUS
 62
    3
 10
2427.858
 20
4389.1296
 11
2416.3372
 21
4388.2853
  0
LINE
  8
_0-3_軸組
  6
CONTINUOUS
 62
    3
 10
2416.3372
 20
4388.2853
 11
2404.7862
 21
4387.7914
  0
LINE
  8
_0-3_軸組
  6
CONTINUOUS
 62
    3
 10
2404.7862
 20
4387.7914
 11
2393.2102
 21
4387.5237
  0
LINE
  8
_0-3_軸組
  6
CONTINUOUS
 62
    3
 10
2393.2102
 20
4387.5237
 11
2383.1758
 21
4387.3827
  0
LINE
  8
_0-3_軸組
  6
CONTINUOUS
 62
    3
 10
2253.8293
 20
4386.3197
 11
2264.6563
 21
4381.937
  0
LINE
  8
_0-3_軸組
  6
CONTINUOUS
 62
    3
 10
2264.6563
 20
4381.937
 11
2275.5459
 21
4377.6053
  0
LINE
  8
_0-3_軸組
  6
CONTINUOUS
 62
    3
 10
2275.5459
 20
4377.6053
 11
2286.5382
 21
4373.6136
  0
LINE
  8
_0-3_軸組
  6
CONTINUOUS
 62
    3
 10
2286.5382
 20
4373.6136
 11
2297.6353
 21
4370.2851
  0
LINE
  8
_0-3_軸組
  6
CONTINUOUS
 62
    3
 10
2297.6353
 20
4370.2851
 11
2308.8686
 21
4367.9374
  0
LINE
  8
_0-3_軸組
  6
CONTINUOUS
 62
    3
 10
2308.8686
 20
4367.9374
 11
2320.2612
 21
4366.8867
  0
LINE
  8
_0-3_軸組
  6
CONTINUOUS
 62
    3
 10
2320.2612
 20
4366.8867
 11
2331.7872
 21
4367.0505
  0
LINE
  8
_0-3_軸組
  6
CONTINUOUS
 62
    3
 10
2331.7872
 20
4367.0505
 11
2343.3969
 21
4367.9072
  0
LINE
  8
_0-3_軸組
  6
CONTINUOUS
 62
    3
 10
2343.3969
 20
4367.9072
 11
2345.578
 21
4368.0997
  0
LINE
  8
_0-3_軸組
  6
CONTINUOUS
 62
    3
 10
2343.3969
 20
4367.9072
 11
2352.8899
 21
4370.0243
  0
LINE
  8
_0-3_軸組
  6
CONTINUOUS
 62
    3
 10
2352.8899
 20
4370.0243
 11
2362.0019
 21
4372.9535
  0
LINE
  8
_0-3_軸組
  6
CONTINUOUS
 62
    3
 10
2362.0019
 20
4372.9535
 11
2370.3621
 21
4377.5153
  0
LINE
  8
_0-3_軸組
  6
CONTINUOUS
 62
    3
 10
2370.3621
 20
4377.5153
 11
2377.4886
 21
4384.0586
  0
LINE
  8
_0-3_軸組
  6
CONTINUOUS
 62
    3
 10
2377.4886
 20
4384.0586
 11
2382.7732
 21
4392.2627
  0
LINE
  8
_0-3_軸組
  6
CONTINUOUS
 62
    3
 10
2382.7732
 20
4392.2627
 11
2385.6519
 21
4401.6426
  0
LINE
  8
_0-3_軸組
  6
CONTINUOUS
 62
    3
 10
2385.6519
 20
4401.6426
 11
2385.8637
 21
4411.3442
  0
LINE
  8
_0-3_軸組
  6
CONTINUOUS
 62
    3
 10
2385.8637
 20
4411.3442
 11
2383.2965
 21
4420.4327
  0
LINE
  8
_0-3_軸組
  6
CONTINUOUS
 62
    3
 10
2383.2965
 20
4420.4327
 11
2378.4989
 21
4428.7012
  0
LINE
  8
_0-3_軸組
  6
CONTINUOUS
 62
    3
 10
2378.4989
 20
4428.7012
 11
2372.573
 21
4436.5504
  0
LINE
  8
_0-3_軸組
  6
CONTINUOUS
 62
    3
 10
2150.1407
 20
4531.4891
 11
2161.8084
 21
4529.5022
  0
LINE
  8
_0-3_軸組
  6
CONTINUOUS
 62
    3
 10
2161.8084
 20
4529.5022
 11
2173.4369
 21
4527.8513
  0
LINE
  8
_0-3_軸組
  6
CONTINUOUS
 62
    3
 10
2173.4369
 20
4527.8513
 11
2184.9809
 21
4526.8714
  0
LINE
  8
_0-3_軸組
  6
CONTINUOUS
 62
    3
 10
2184.9809
 20
4526.8714
 11
2196.3998
 21
4526.8882
  0
LINE
  8
_0-3_軸組
  6
CONTINUOUS
 62
    3
 10
2196.3998
 20
4526.8882
 11
2207.6519
 21
4528.2318
  0
LINE
  8
_0-3_軸組
  6
CONTINUOUS
 62
    3
 10
2207.6519
 20
4528.2318
 11
2218.7379
 21
4530.9606
  0
LINE
  8
_0-3_軸組
  6
CONTINUOUS
 62
    3
 10
2218.7379
 20
4530.9606
 11
2229.6832
 21
4534.7064
  0
LINE
  8
_0-3_軸組
  6
CONTINUOUS
 62
    3
 10
2229.6832
 20
4534.7064
 11
2240.5391
 21
4539.0994
  0
LINE
  8
_0-3_軸組
  6
CONTINUOUS
 62
    3
 10
2240.5391
 20
4539.0994
 11
2251.3285
 21
4543.7414
  0
LINE
  8
_0-3_軸組
  6
CONTINUOUS
 62
    3
 10
2251.3285
 20
4543.7414
 11
2262.1054
 21
4548.2997
  0
LINE
  8
_0-3_軸組
  6
CONTINUOUS
 62
    3
 10
2262.1054
 20
4548.2997
 11
2272.8713
 21
4552.6868
  0
LINE
  8
_0-3_軸組
  6
CONTINUOUS
 62
    3
 10
2272.8713
 20
4552.6868
 11
2283.6364
 21
4556.9428
  0
LINE
  8
_0-3_軸組
  6
CONTINUOUS
 62
    3
 10
2283.6364
 20
4556.9428
 11
2294.3889
 21
4561.0923
  0
LINE
  8
_0-3_軸組
  6
CONTINUOUS
 62
    3
 10
2294.3889
 20
4561.0923
 11
2305.1422
 21
4565.1652
  0
LINE
  8
_0-3_軸組
  6
CONTINUOUS
 62
    3
 10
2305.1422
 20
4565.1652
 11
2315.8984
 21
4569.2019
  0
LINE
  8
_0-3_軸組
  6
CONTINUOUS
 62
    3
 10
2315.8984
 20
4569.2019
 11
2315.7484
 21
4559.2959
  0
LINE
  8
_0-3_軸組
  6
CONTINUOUS
 62
    3
 10
2315.7484
 20
4559.2959
 11
2315.6059
 21
4549.4013
  0
LINE
  8
_0-3_軸組
  6
CONTINUOUS
 62
    3
 10
2315.6059
 20
4549.4013
 11
2315.4634
 21
4539.4943
  0
LINE
  8
_0-3_軸組
  6
CONTINUOUS
 62
    3
 10
2315.4634
 20
4539.4943
 11
2315.3137
 21
4529.5982
  0
LINE
  8
_0-3_軸組
  6
CONTINUOUS
 62
    3
 10
2315.3137
 20
4529.5982
 11
2315.1731
 21
4519.7026
  0
LINE
  8
_0-3_軸組
  6
CONTINUOUS
 62
    3
 10
2315.1731
 20
4519.7026
 11
2315.0291
 21
4509.7956
  0
LINE
  8
_0-3_軸組
  6
CONTINUOUS
 62
    3
 10
2315.0291
 20
4509.7956
 11
2314.8799
 21
4499.901
  0
LINE
  8
_0-3_軸組
  6
CONTINUOUS
 62
    3
 10
2314.8799
 20
4499.901
 11
2314.7381
 21
4489.9955
  0
LINE
  8
_0-3_軸組
  6
CONTINUOUS
 62
    3
 10
2314.7381
 20
4489.9955
 11
2314.5904
 21
4480.0969
  0
LINE
  8
_0-3_軸組
  6
CONTINUOUS
 62
    3
 10
2314.5904
 20
4480.0969
 11
2314.4464
 21
4470.1943
  0
LINE
  8
_0-3_軸組
  6
CONTINUOUS
 62
    3
 10
2372.573
 20
4436.5504
 11
2370.2065
 21
4438.6359
  0
LINE
  8
_0-3_軸組
  6
CONTINUOUS
 62
    3
 10
2370.2065
 20
4438.6359
 11
2366.8039
 21
4441.1602
  0
LINE
  8
_0-3_軸組
  6
CONTINUOUS
 62
    3
 10
2366.8039
 20
4441.1602
 11
2362.5019
 21
4444.0464
  0
LINE
  8
_0-3_軸組
  6
CONTINUOUS
 62
    3
 10
2362.5019
 20
4444.0464
 11
2357.4161
 21
4447.227
  0
LINE
  8
_0-3_軸組
  6
CONTINUOUS
 62
    3
 10
2357.4161
 20
4447.227
 11
2351.6173
 21
4450.6372
  0
LINE
  8
_0-3_軸組
  6
CONTINUOUS
 62
    3
 10
2351.6173
 20
4450.6372
 11
2345.2096
 21
4454.2345
  0
LINE
  8
_0-3_軸組
  6
CONTINUOUS
 62
    3
 10
2345.2096
 20
4454.2345
 11
2338.2555
 21
4457.9733
  0
LINE
  8
_0-3_軸組
  6
CONTINUOUS
 62
    3
 10
2338.2555
 20
4457.9733
 11
2330.8059
 21
4461.8126
  0
LINE
  8
_0-3_軸組
  6
CONTINUOUS
 62
    3
 10
2330.8059
 20
4461.8126
 11
2322.9289
 21
4465.7236
  0
LINE
  8
_0-3_軸組
  6
CONTINUOUS
 62
    3
 10
2322.9289
 20
4465.7236
 11
2314.6671
 21
4469.6777
  0
LINE
  8
_0-3_軸組
  6
CONTINUOUS
 62
    3
 10
2314.6671
 20
4469.6777
 11
2306.0515
 21
4473.6486
  0
LINE
  8
_0-3_軸組
  6
CONTINUOUS
 62
    3
 10
2306.0515
 20
4473.6486
 11
2297.1355
 21
4477.624
  0
LINE
  8
_0-3_軸組
  6
CONTINUOUS
 62
    3
 10
2297.1355
 20
4477.624
 11
2287.9441
 21
4481.579
  0
LINE
  8
_0-3_軸組
  6
CONTINUOUS
 62
    3
 10
2287.9441
 20
4481.579
 11
2278.5233
 21
4485.502
  0
LINE
  8
_0-3_軸組
  6
CONTINUOUS
 62
    3
 10
2278.5233
 20
4485.502
 11
2268.8987
 21
4489.3848
  0
LINE
  8
_0-3_軸組
  6
CONTINUOUS
 62
    3
 10
2268.8987
 20
4489.3848
 11
2259.1087
 21
4493.2072
  0
LINE
  8
_0-3_軸組
  6
CONTINUOUS
 62
    3
 10
2259.1087
 20
4493.2072
 11
2249.1879
 21
4496.9678
  0
LINE
  8
_0-3_軸組
  6
CONTINUOUS
 62
    3
 10
2249.1879
 20
4496.9678
 11
2239.1767
 21
4500.6562
  0
LINE
  8
_0-3_軸組
  6
CONTINUOUS
 62
    3
 10
2239.1767
 20
4500.6562
 11
2229.1183
 21
4504.2708
  0
LINE
  8
_0-3_軸組
  6
CONTINUOUS
 62
    3
 10
2229.1183
 20
4504.2708
 11
2219.0489
 21
4507.7879
  0
LINE
  8
_0-3_軸組
  6
CONTINUOUS
 62
    3
 10
2219.0489
 20
4507.7879
 11
2209.0096
 21
4511.2105
  0
LINE
  8
_0-3_軸組
  6
CONTINUOUS
 62
    3
 10
2209.0096
 20
4511.2105
 11
2199.0499
 21
4514.537
  0
LINE
  8
_0-3_軸組
  6
CONTINUOUS
 62
    3
 10
2199.0499
 20
4514.537
 11
2189.2245
 21
4517.7453
  0
LINE
  8
_0-3_軸組
  6
CONTINUOUS
 62
    3
 10
2189.2245
 20
4517.7453
 11
2179.5697
 21
4520.8364
  0
LINE
  8
_0-3_軸組
  6
CONTINUOUS
 62
    3
 10
2179.5697
 20
4520.8364
 11
2170.1491
 21
4523.7972
  0
LINE
  8
_0-3_軸組
  6
CONTINUOUS
 62
    3
 10
2170.1491
 20
4523.7972
 11
2161.0112
 21
4526.6136
  0
LINE
  8
_0-3_軸組
  6
CONTINUOUS
 62
    3
 10
2161.0112
 20
4526.6136
 11
2152.2075
 21
4529.2765
  0
LINE
  8
_0-3_軸組
  6
CONTINUOUS
 62
    3
 10
2152.2075
 20
4529.2765
 11
2143.7844
 21
4531.7757
  0
LINE
  8
_0-3_軸組
  6
CONTINUOUS
 62
    3
 10
2143.7844
 20
4531.7757
 11
2135.7976
 21
4534.0917
  0
LINE
  8
_0-3_軸組
  6
CONTINUOUS
 62
    3
 10
2315.8984
 20
4569.2019
 11
2316.035
 21
4569.2494
  0
LINE
  8
_0-3_軸組
  6
CONTINUOUS
 62
    3
 10
2185.6146
 20
4335.0011
 11
2185.6146
 21
4301.7175
  0
LINE
  8
_0-3_軸組
  6
CONTINUOUS
 62
    3
 10
2185.6146
 20
4301.7175
 11
2286.7549
 21
4301.7175
  0
LINE
  8
_0-3_軸組
  6
CONTINUOUS
 62
    3
 10
2286.7549
 20
4335.0011
 11
2286.7549
 21
4301.7175
  0
LINE
  8
_0-3_軸組
  6
CONTINUOUS
 62
    3
 10
2185.6146
 20
4335.0011
 11
2286.7549
 21
4335.0011
  0
LINE
  8
_0-3_軸組
  6
CONTINUOUS
 62
    3
 10
2126.4696
 20
4595.8082
 11
2126.4696
 21
4521.2224
  0
LINE
  8
_0-3_軸組
  6
CONTINUOUS
 62
    3
 10
2137.3401
 20
4573.4445
 11
2136.2118
 21
4572.8066
  0
LINE
  8
_0-3_軸組
  6
CONTINUOUS
 62
    3
 10
2136.2118
 20
4572.8066
 11
2135.0567
 21
4572.1371
  0
LINE
  8
_0-3_軸組
  6
CONTINUOUS
 62
    3
 10
2135.0567
 20
4572.1371
 11
2133.8876
 21
4571.4343
  0
LINE
  8
_0-3_軸組
  6
CONTINUOUS
 62
    3
 10
2133.8876
 20
4571.4343
 11
2132.6932
 21
4570.698
  0
LINE
  8
_0-3_軸組
  6
CONTINUOUS
 62
    3
 10
2132.6932
 20
4570.698
 11
2131.4753
 21
4569.9388
  0
LINE
  8
_0-3_軸組
  6
CONTINUOUS
 62
    3
 10
2131.4753
 20
4569.9388
 11
2130.2361
 21
4569.1406
  0
LINE
  8
_0-3_軸組
  6
CONTINUOUS
 62
    3
 10
2130.2361
 20
4569.1406
 11
2128.9766
 21
4568.3151
  0
LINE
  8
_0-3_軸組
  6
CONTINUOUS
 62
    3
 10
2128.9766
 20
4568.3151
 11
2127.6924
 21
4567.4525
  0
LINE
  8
_0-3_軸組
  6
CONTINUOUS
 62
    3
 10
2127.6924
 20
4567.4525
 11
2126.3901
 21
4566.5657
  0
LINE
  8
_0-3_軸組
  6
CONTINUOUS
 62
    3
 10
2133.4823
 20
4546.4523
 11
2132.6457
 21
4546.291
  0
LINE
  8
_0-3_軸組
  6
CONTINUOUS
 62
    3
 10
2132.6457
 20
4546.291
 11
2131.8202
 21
4546.1425
  0
LINE
  8
_0-3_軸組
  6
CONTINUOUS
 62
    3
 10
2131.8202
 20
4546.1425
 11
2131.0099
 21
4545.9946
  0
LINE
  8
_0-3_軸組
  6
CONTINUOUS
 62
    3
 10
2131.0099
 20
4545.9946
 11
2130.2079
 21
4545.8501
  0
LINE
  8
_0-3_軸組
  6
CONTINUOUS
 62
    3
 10
2130.2079
 20
4545.8501
 11
2129.4225
 21
4545.7135
  0
LINE
  8
_0-3_軸組
  6
CONTINUOUS
 62
    3
 10
2129.4225
 20
4545.7135
 11
2128.6446
 21
4545.5843
  0
LINE
  8
_0-3_軸組
  6
CONTINUOUS
 62
    3
 10
2128.6446
 20
4545.5843
 11
2127.8815
 21
4545.464
  0
LINE
  8
_0-3_軸組
  6
CONTINUOUS
 62
    3
 10
2127.8815
 20
4545.464
 11
2127.1273
 21
4545.3453
  0
LINE
  8
_0-3_軸組
  6
CONTINUOUS
 62
    3
 10
2127.1273
 20
4545.3453
 11
2126.3901
 21
4545.231
  0
LINE
  8
_0-3_軸組
  6
CONTINUOUS
 62
    3
 10
2150.1407
 20
4531.4891
 11
2146.9601
 21
4532.1627
  0
LINE
  8
_0-3_軸組
  6
CONTINUOUS
 62
    3
 10
2146.9601
 20
4532.1627
 11
2143.9089
 21
4532.8134
  0
LINE
  8
_0-3_軸組
  6
CONTINUOUS
 62
    3
 10
2143.9089
 20
4532.8134
 11
2140.9968
 21
4533.4459
  0
LINE
  8
_0-3_軸組
  6
CONTINUOUS
 62
    3
 10
2140.9968
 20
4533.4459
 11
2138.222
 21
4534.0566
  0
LINE
  8
_0-3_軸組
  6
CONTINUOUS
 62
    3
 10
2138.222
 20
4534.0566
 11
2135.5811
 21
4534.645
  0
LINE
  8
_0-3_軸組
  6
CONTINUOUS
 62
    3
 10
2135.5811
 20
4534.645
 11
2133.0799
 21
4535.2171
  0
LINE
  8
_0-3_軸組
  6
CONTINUOUS
 62
    3
 10
2133.0799
 20
4535.2171
 11
2130.7127
 21
4535.7634
  0
LINE
  8
_0-3_軸組
  6
CONTINUOUS
 62
    3
 10
2130.7127
 20
4535.7634
 11
2128.4835
 21
4536.2919
  0
LINE
  8
_0-3_軸組
  6
CONTINUOUS
 62
    3
 10
2128.4835
 20
4536.2919
 11
2126.3901
 21
4536.7967
  0
LINE
  8
_0-3_軸組
  6
CONTINUOUS
 62
    3
 10
2135.7976
 20
4534.0917
 11
2134.5529
 21
4534.4317
  0
LINE
  8
_0-3_軸組
  6
CONTINUOUS
 62
    3
 10
2134.5529
 20
4534.4317
 11
2133.3585
 21
4534.7568
  0
LINE
  8
_0-3_軸組
  6
CONTINUOUS
 62
    3
 10
2133.3585
 20
4534.7568
 11
2132.2169
 21
4535.0795
  0
LINE
  8
_0-3_軸組
  6
CONTINUOUS
 62
    3
 10
2132.2169
 20
4535.0795
 11
2131.1279
 21
4535.3893
  0
LINE
  8
_0-3_軸組
  6
CONTINUOUS
 62
    3
 10
2131.1279
 20
4535.3893
 11
2130.0943
 21
4535.6862
  0
LINE
  8
_0-3_軸組
  6
CONTINUOUS
 62
    3
 10
2130.0943
 20
4535.6862
 11
2129.1078
 21
4535.9703
  0
LINE
  8
_0-3_軸組
  6
CONTINUOUS
 62
    3
 10
2129.1078
 20
4535.9703
 11
2128.1747
 21
4536.2484
  0
LINE
  8
_0-3_軸組
  6
CONTINUOUS
 62
    3
 10
2128.1747
 20
4536.2484
 11
2127.296
 21
4536.5176
  0
LINE
  8
_0-3_軸組
  6
CONTINUOUS
 62
    3
 10
2127.296
 20
4536.5176
 11
2126.4696
 21
4536.7804
  0
LINE
  8
_0-3_軸組
  6
CONTINUOUS
 62
    3
 10
2116.2805
 20
4606.0017
 11
2100.0022
 21
4606.0017
  0
LINE
  8
_0-3_軸組
  6
CONTINUOUS
 62
    3
 10
2116.2805
 20
4449.399
 11
2100.0022
 21
4449.399
  0
LINE
  8
_0-3_軸組
  6
CONTINUOUS
 62
    3
 10
2108.5054
 20
4502.4966
 11
2114.4091
 21
4495.8321
  0
LINE
  8
_0-3_軸組
  6
CONTINUOUS
 62
    3
 10
2114.4091
 20
4495.8321
 11
2120.8985
 21
4488.9077
  0
LINE
  8
_0-3_軸組
  6
CONTINUOUS
 62
    3
 10
2120.8985
 20
4488.9077
 11
2127.8778
 21
4481.8067
  0
LINE
  8
_0-3_軸組
  6
CONTINUOUS
 62
    3
 10
2127.8778
 20
4481.8067
 11
2135.2579
 21
4474.6003
  0
LINE
  8
_0-3_軸組
  6
CONTINUOUS
 62
    3
 10
2135.2579
 20
4474.6003
 11
2142.955
 21
4467.3582
  0
LINE
  8
_0-3_軸組
  6
CONTINUOUS
 62
    3
 10
2142.955
 20
4467.3582
 11
2150.8897
 21
4460.1438
  0
LINE
  8
_0-3_軸組
  6
CONTINUOUS
 62
    3
 10
2150.8897
 20
4460.1438
 11
2158.9901
 21
4453.0146
  0
LINE
  8
_0-3_軸組
  6
CONTINUOUS
 62
    3
 10
2158.9901
 20
4453.0146
 11
2167.1873
 21
4446.0224
  0
LINE
  8
_0-3_軸組
  6
CONTINUOUS
 62
    3
 10
2167.1873
 20
4446.0224
 11
2175.4191
 21
4439.2154
  0
LINE
  8
_0-3_軸組
  6
CONTINUOUS
 62
    3
 10
2175.4191
 20
4439.2154
 11
2183.6289
 21
4432.6345
  0
LINE
  8
_0-3_軸組
  6
CONTINUOUS
 62
    3
 10
2183.6289
 20
4432.6345
 11
2191.7642
 21
4426.3168
  0
LINE
  8
_0-3_軸組
  6
CONTINUOUS
 62
    3
 10
2191.7642
 20
4426.3168
 11
2199.7806
 21
4420.2922
  0
LINE
  8
_0-3_軸組
  6
CONTINUOUS
 62
    3
 10
2199.7806
 20
4420.2922
 11
2207.6363
 21
4414.5887
  0
LINE
  8
_0-3_軸組
  6
CONTINUOUS
 62
    3
 10
2207.6363
 20
4414.5887
 11
2215.2958
 21
4409.2227
  0
LINE
  8
_0-3_軸組
  6
CONTINUOUS
 62
    3
 10
2215.2958
 20
4409.2227
 11
2222.7299
 21
4404.2106
  0
LINE
  8
_0-3_軸組
  6
CONTINUOUS
 62
    3
 10
2222.7299
 20
4404.2106
 11
2229.9133
 21
4399.5621
  0
LINE
  8
_0-3_軸組
  6
CONTINUOUS
 62
    3
 10
2229.9133
 20
4399.5621
 11
2236.8272
 21
4395.28
  0
LINE
  8
_0-3_軸組
  6
CONTINUOUS
 62
    3
 10
2236.8272
 20
4395.28
 11
2243.4586
 21
4391.3645
  0
LINE
  8
_0-3_軸組
  6
CONTINUOUS
 62
    3
 10
2243.4586
 20
4391.3645
 11
2249.7993
 21
4387.8078
  0
LINE
  8
_0-3_軸組
  6
CONTINUOUS
 62
    3
 10
2249.7993
 20
4387.8078
 11
2250.2655
 21
4387.6034
  0
LINE
  8
_0-3_軸組
  6
CONTINUOUS
 62
    3
 10
2250.2655
 20
4387.6034
 11
2250.7272
 21
4387.4094
  0
LINE
  8
_0-3_軸組
  6
CONTINUOUS
 62
    3
 10
2250.7272
 20
4387.4094
 11
2251.1852
 21
4387.2248
  0
LINE
  8
_0-3_軸組
  6
CONTINUOUS
 62
    3
 10
2251.1852
 20
4387.2248
 11
2251.6375
 21
4387.0501
  0
LINE
  8
_0-3_軸組
  6
CONTINUOUS
 62
    3
 10
2251.6375
 20
4387.0501
 11
2252.0856
 21
4386.8848
  0
LINE
  8
_0-3_軸組
  6
CONTINUOUS
 62
    3
 10
2252.0856
 20
4386.8848
 11
2252.5283
 21
4386.7289
  0
LINE
  8
_0-3_軸組
  6
CONTINUOUS
 62
    3
 10
2252.5283
 20
4386.7289
 11
2252.967
 21
4386.5824
  0
LINE
  8
_0-3_軸組
  6
CONTINUOUS
 62
    3
 10
2252.967
 20
4386.5824
 11
2253.4005
 21
4386.4468
  0
LINE
  8
_0-3_軸組
  6
CONTINUOUS
 62
    3
 10
2253.4005
 20
4386.4468
 11
2253.8293
 21
4386.3197
  0
LINE
  8
_0-3_軸組
  6
CONTINUOUS
 62
    3
 10
2108.5054
 20
4502.4966
 11
2111.9953
 21
4504.2297
  0
LINE
  8
_0-3_軸組
  6
CONTINUOUS
 62
    3
 10
2111.9953
 20
4504.2297
 11
2115.1116
 21
4506.0508
  0
LINE
  8
_0-3_軸組
  6
CONTINUOUS
 62
    3
 10
2115.1116
 20
4506.0508
 11
2117.855
 21
4507.9576
  0
LINE
  8
_0-3_軸組
  6
CONTINUOUS
 62
    3
 10
2117.855
 20
4507.9576
 11
2120.2244
 21
4509.9515
  0
LINE
  8
_0-3_軸組
  6
CONTINUOUS
 62
    3
 10
2120.2244
 20
4509.9515
 11
2122.2208
 21
4512.0325
  0
LINE
  8
_0-3_軸組
  6
CONTINUOUS
 62
    3
 10
2122.2208
 20
4512.0325
 11
2123.8433
 21
4514.199
  0
LINE
  8
_0-3_軸組
  6
CONTINUOUS
 62
    3
 10
2123.8433
 20
4514.199
 11
2125.0921
 21
4516.4542
  0
LINE
  8
_0-3_軸組
  6
CONTINUOUS
 62
    3
 10
2125.0921
 20
4516.4542
 11
2125.9678
 21
4518.7945
  0
LINE
  8
_0-3_軸組
  6
CONTINUOUS
 62
    3
 10
2125.9678
 20
4518.7945
 11
2126.4696
 21
4521.2224
  0
LINE
  8
_0-3_軸組
  6
CONTINUOUS
 62
    3
 10
2126.4725
 20
4459.5935
 11
2126.4725
 21
4483.2369
  0
LINE
  8
_0-3_軸組
  6
CONTINUOUS
 62
    3
 10
2258.8432
 20
4547.5678
 11
2238.7729
 21
4591.8046
  0
LINE
  8
_0-3_軸組
  6
CONTINUOUS
 62
    3
 10
2219.4253
 20
4255.6229
 11
2100.0022
 21
4255.6229
  0
LINE
  8
_0-3_軸組
  6
CONTINUOUS
 62
    3
 10
2239.3882
 20
4275.5859
 11
2239.3882
 21
4301.7175
  0
LINE
  8
_0-3_軸組
  6
CONTINUOUS
 62
    3
 10
2209.4441
 20
4237.6732
 11
2100.0022
 21
4237.6732
  0
LINE
  8
_0-3_軸組
  6
CONTINUOUS
 62
    3
 10
2219.4253
 20
4247.6549
 11
2219.4253
 21
4255.6229
  0
LINE
  8
_0-2_躯体
  6
CONTINUOUS
 62
    3
 10
2632.5149
 20
4691.6302
 11
2100.0148
 21
4691.6302
  0
LINE
  8
_0-2_躯体
  6
CONTINUOUS
 62
    3
 10
2100.0148
 20
4714.2363
 11
2632.5147
 21
4714.2363
  0
LINE
  8
_0-2_躯体
  6
CONTINUOUS
 62
    3
 10
1300
 20
4864.2368
 11
2100
 21
4864.2368
  0
LINE
  8
_0-2_躯体
  6
CONTINUOUS
 62
    3
 10
2632.4999
 20
4484.2361
 11
2899.9999
 21
4484.2361
  0
LINE
  8
_0-2_躯体
  6
CONTINUOUS
 62
    3
 10
2632.4999
 20
4529.7373
 11
2899.9999
 21
4529.7373
  0
LINE
  8
_0-2_躯体
  6
CONTINUOUS
 62
    3
 10
2632.4999
 20
4549.2365
 11
2899.9999
 21
4549.2365
  0
LINE
  8
_0-2_躯体
  6
CONTINUOUS
 62
    3
 10
2632.4999
 20
4607.7372
 11
2899.9999
 21
4607.7372
  0
LINE
  8
_0-2_躯体
  6
CONTINUOUS
 62
    3
 10
2632.4999
 20
4627.2365
 11
2899.9999
 21
4627.2365
  0
LINE
  8
_0-2_躯体
  6
CONTINUOUS
 62
    3
 10
1300
 20
4484.2361
 11
2100
 21
4484.2361
  0
LINE
  8
_0-2_躯体
  6
CONTINUOUS
 62
    3
 10
1300
 20
4529.7373
 11
2100
 21
4529.7373
  0
LINE
  8
_0-2_躯体
  6
CONTINUOUS
 62
    3
 10
1300
 20
4549.2365
 11
2100
 21
4549.2365
  0
LINE
  8
_0-2_躯体
  6
CONTINUOUS
 62
    3
 10
1300
 20
4607.7372
 11
2100
 21
4607.7372
  0
LINE
  8
_0-2_躯体
  6
CONTINUOUS
 62
    3
 10
1300
 20
4627.2365
 11
2100
 21
4627.2365
  0
LINE
  8
_0-3_軸組
  6
CONTINUOUS
 62
    3
 10
2194.9837
 20
4423.8974
 11
2100.0022
 21
4423.8974
  0
LINE
  8
_0-3_軸組
  6
CONTINUOUS
 62
    3
 10
2239.3882
 20
4335.0011
 11
2239.3882
 21
4393.7681
  0
LINE
  8
_0-8_寸法
  6
CONTINUOUS
 62
    7
 10
1567.4998
 20
3992.42
 11
2632.4999
 21
3992.42
  0
LINE
  8
_0-8_寸法
  6
CONTINUOUS
 62
    7
 10
1013.2748
 20
4174.236
 11
1013.2748
 21
5049.2367
  0
LINE
  8
_0-8_寸法
  6
CONTINUOUS
 62
    7
 10
1313.8966
 20
4174.236
 11
1013.2748
 21
4174.236
  0
LINE
  8
_0-2_躯体
  6
CONTINUOUS
 62
    3
 10
2632.5149
 20
4691.6307
 11
2632.5149
 21
4714.2363
  0
LINE
  8
_0-2_躯体
  6
CONTINUOUS
 62
    3
 10
2253.6957
 20
4864.2368
 11
2899.9999
 21
4864.2368
  0
LINE
  8
_0-2_躯体
  6
CONTINUOUS
 62
    3
 10
1567.4998
 20
4174.236
 11
2632.4999
 21
4174.236
  0
LINE
  8
_0-2_躯体
  6
CONTINUOUS
 62
    3
 10
2232.7217
 20
4673.6893
 11
2100.0148
 21
4673.6893
  0
LINE
  8
_0-2_躯体
  6
CONTINUOUS
 62
    3
 10
2632.5149
 20
4673.6893
 11
2501.4092
 21
4673.6893
  0
LINE
  8
_0-2_躯体
  6
CONTINUOUS
 62
    3
 10
1567.4998
 20
4292.2361
 11
2100
 21
4292.2361
  0
LINE
  8
_0-2_躯体
  6
CONTINUOUS
 62
    3
 10
1567.4998
 20
4272.7359
 11
2100
 21
4272.7359
  0
LINE
  8
_0-2_躯体
  6
CONTINUOUS
 62
    3
 10
2239.1841
 20
4272.7359
 11
2632.4999
 21
4272.7359
  0
LINE
  8
_0-2_躯体
  6
CONTINUOUS
 62
    3
 10
1567.4998
 20
4204.2361
 11
2632.4999
 21
4204.2361
  0
LINE
  8
_0-2_躯体
  6
CONTINUOUS
 62
    3
 10
1567.4998
 20
4204.2366
 11
2100
 21
4204.2366
  0
LINE
  8
_0-2_躯体
  6
CONTINUOUS
 62
    3
 10
1567.4998
 20
4223.7369
 11
2632.4999
 21
4223.7369
  0
LINE
  8
_0-2_躯体
  6
CONTINUOUS
 62
    3
 10
1567.4998
 20
4484.237
 11
1567.4998
 21
4292.2361
  0
LINE
  8
_0-2_躯体
  6
CONTINUOUS
 62
    3
 10
2239.3882
 20
4292.2361
 11
2632.4999
 21
4292.2361
  0
LINE
  8
_0-2_躯体
  6
CONTINUOUS
 62
    3
 10
1567.4998
 20
4272.7359
 11
1567.4998
 21
4223.7369
  0
LINE
  8
_0-2_躯体
  6
CONTINUOUS
 62
    3
 10
1567.4998
 20
4204.2366
 11
1567.4998
 21
4174.236
  0
LINE
  8
_0-2_躯体
  6
CONTINUOUS
 62
    3
 10
2632.4999
 20
4673.6893
 11
2632.4999
 21
4292.2361
  0
LINE
  8
_0-2_躯体
  6
CONTINUOUS
 62
    3
 10
2632.4999
 20
4272.7359
 11
2632.4999
 21
4223.7369
  0
LINE
  8
_0-2_躯体
  6
CONTINUOUS
 62
    3
 10
2632.4999
 20
4204.2361
 11
2632.4999
 21
4174.236
  0
LINE
  8
_0-2_躯体
  6
CONTINUOUS
 62
    3
 10
2100
 20
5049.2367
 11
1271.8743
 21
4857.7326
  0
LINE
  8
_0-2_躯体
  6
CONTINUOUS
 62
    3
 10
2100
 20
5049.2367
 11
2928.1256
 21
4857.7326
  0
LINE
  8
_0-1_基準線
  6
CENTER2
 62
    7
 10
2100
 20
4112.7502
 11
2100
 21
5049.2367
  0
LINE
  8
_0-2_躯体
  6
CONTINUOUS
 62
    3
 10
2438.5305
 20
4970.9512
 11
2100
 21
4775.4999
  0
LINE
  8
_0-2_躯体
  6
CONTINUOUS
 62
    3
 10
2438.5305
 20
4970.9512
 11
2100
 21
4970.9512
  0
LINE
  8
_0-2_躯体
  6
CONTINUOUS
 62
    3
 10
2899.9999
 20
4607.737
 11
2899.9999
 21
4607.737
  0
LINE
  8
_0-2_躯体
  6
CONTINUOUS
 62
    3
 10
2899.9999
 20
4607.737
 11
2901.6133
 21
4607.8851
  0
LINE
  8
_0-2_躯体
  6
CONTINUOUS
 62
    3
 10
2901.6133
 20
4607.8851
 11
2903.1778
 21
4608.3249
  0
LINE
  8
_0-2_躯体
  6
CONTINUOUS
 62
    3
 10
2903.1778
 20
4608.3249
 11
2904.6457
 21
4609.0432
  0
LINE
  8
_0-2_躯体
  6
CONTINUOUS
 62
    3
 10
2904.6457
 20
4609.0432
 11
2905.9724
 21
4610.018
  0
LINE
  8
_0-2_躯体
  6
CONTINUOUS
 62
    3
 10
2905.9724
 20
4610.018
 11
2907.1177
 21
4611.2197
  0
LINE
  8
_0-2_躯体
  6
CONTINUOUS
 62
    3
 10
2907.1177
 20
4611.2197
 11
2908.0467
 21
4612.6119
  0
LINE
  8
_0-2_躯体
  6
CONTINUOUS
 62
    3
 10
2908.0467
 20
4612.6119
 11
2908.7312
 21
4614.1522
  0
LINE
  8
_0-2_躯体
  6
CONTINUOUS
 62
    3
 10
2908.7312
 20
4614.1522
 11
2909.1504
 21
4615.7938
  0
LINE
  8
_0-2_躯体
  6
CONTINUOUS
 62
    3
 10
2909.1504
 20
4615.7938
 11
2909.2915
 21
4617.4869
  0
LINE
  8
_0-2_躯体
  6
CONTINUOUS
 62
    3
 10
2909.2915
 20
4617.4869
 11
2909.1504
 21
4619.1799
  0
LINE
  8
_0-2_躯体
  6
CONTINUOUS
 62
    3
 10
2909.1504
 20
4619.1799
 11
2908.7312
 21
4620.8215
  0
LINE
  8
_0-2_躯体
  6
CONTINUOUS
 62
    3
 10
2908.7312
 20
4620.8215
 11
2908.0467
 21
4622.3618
  0
LINE
  8
_0-2_躯体
  6
CONTINUOUS
 62
    3
 10
2908.0467
 20
4622.3618
 11
2907.1177
 21
4623.754
  0
LINE
  8
_0-2_躯体
  6
CONTINUOUS
 62
    3
 10
2907.1177
 20
4623.754
 11
2905.9724
 21
4624.9557
  0
LINE
  8
_0-2_躯体
  6
CONTINUOUS
 62
    3
 10
2905.9724
 20
4624.9557
 11
2904.6457
 21
4625.9305
  0
LINE
  8
_0-2_躯体
  6
CONTINUOUS
 62
    3
 10
2904.6457
 20
4625.9305
 11
2903.1778
 21
4626.6488
  0
LINE
  8
_0-2_躯体
  6
CONTINUOUS
 62
    3
 10
2903.1778
 20
4626.6488
 11
2901.6133
 21
4627.0886
  0
LINE
  8
_0-2_躯体
  6
CONTINUOUS
 62
    3
 10
2901.6133
 20
4627.0886
 11
2899.9999
 21
4627.2368
  0
LINE
  8
_0-2_躯体
  6
CONTINUOUS
 62
    3
 10
2899.9999
 20
4627.2368
 11
2899.9999
 21
4627.2368
  0
LINE
  8
_0-2_躯体
  6
CONTINUOUS
 62
    3
 10
2899.9999
 20
4529.737
 11
2899.9999
 21
4529.737
  0
LINE
  8
_0-2_躯体
  6
CONTINUOUS
 62
    3
 10
2899.9999
 20
4529.737
 11
2901.6133
 21
4529.8851
  0
LINE
  8
_0-2_躯体
  6
CONTINUOUS
 62
    3
 10
2901.6133
 20
4529.8851
 11
2903.1778
 21
4530.325
  0
LINE
  8
_0-2_躯体
  6
CONTINUOUS
 62
    3
 10
2903.1778
 20
4530.325
 11
2904.6457
 21
4531.0432
  0
LINE
  8
_0-2_躯体
  6
CONTINUOUS
 62
    3
 10
2904.6457
 20
4531.0432
 11
2905.9724
 21
4532.018
  0
LINE
  8
_0-2_躯体
  6
CONTINUOUS
 62
    3
 10
2905.9724
 20
4532.018
 11
2907.1177
 21
4533.2198
  0
LINE
  8
_0-2_躯体
  6
CONTINUOUS
 62
    3
 10
2907.1177
 20
4533.2198
 11
2908.0467
 21
4534.6119
  0
LINE
  8
_0-2_躯体
  6
CONTINUOUS
 62
    3
 10
2908.0467
 20
4534.6119
 11
2908.7312
 21
4536.1522
  0
LINE
  8
_0-2_躯体
  6
CONTINUOUS
 62
    3
 10
2908.7312
 20
4536.1522
 11
2909.1504
 21
4537.7938
  0
LINE
  8
_0-2_躯体
  6
CONTINUOUS
 62
    3
 10
2909.1504
 20
4537.7938
 11
2909.2915
 21
4539.4869
  0
LINE
  8
_0-2_躯体
  6
CONTINUOUS
 62
    3
 10
2909.2915
 20
4539.4869
 11
2909.1504
 21
4541.1799
  0
LINE
  8
_0-2_躯体
  6
CONTINUOUS
 62
    3
 10
2909.1504
 20
4541.1799
 11
2908.7312
 21
4542.8216
  0
LINE
  8
_0-2_躯体
  6
CONTINUOUS
 62
    3
 10
2908.7312
 20
4542.8216
 11
2908.0467
 21
4544.3618
  0
LINE
  8
_0-2_躯体
  6
CONTINUOUS
 62
    3
 10
2908.0467
 20
4544.3618
 11
2907.1177
 21
4545.754
  0
LINE
  8
_0-2_躯体
  6
CONTINUOUS
 62
    3
 10
2907.1177
 20
4545.754
 11
2905.9724
 21
4546.9557
  0
LINE
  8
_0-2_躯体
  6
CONTINUOUS
 62
    3
 10
2905.9724
 20
4546.9557
 11
2904.6457
 21
4547.9306
  0
LINE
  8
_0-2_躯体
  6
CONTINUOUS
 62
    3
 10
2904.6457
 20
4547.9306
 11
2903.1778
 21
4548.6488
  0
LINE
  8
_0-2_躯体
  6
CONTINUOUS
 62
    3
 10
2903.1778
 20
4548.6488
 11
2901.6133
 21
4549.0887
  0
LINE
  8
_0-2_躯体
  6
CONTINUOUS
 62
    3
 10
2901.6133
 20
4549.0887
 11
2899.9999
 21
4549.2368
  0
LINE
  8
_0-2_躯体
  6
CONTINUOUS
 62
    3
 10
2899.9999
 20
4549.2368
 11
2899.9999
 21
4549.2368
  0
LINE
  8
_0-2_躯体
  6
CONTINUOUS
 62
    3
 10
1300
 20
4627.2368
 11
1300
 21
4627.2368
  0
LINE
  8
_0-2_躯体
  6
CONTINUOUS
 62
    3
 10
1300
 20
4627.2368
 11
1298.3866
 21
4627.0886
  0
LINE
  8
_0-2_躯体
  6
CONTINUOUS
 62
    3
 10
1298.3866
 20
4627.0886
 11
1296.8221
 21
4626.6488
  0
LINE
  8
_0-2_躯体
  6
CONTINUOUS
 62
    3
 10
1296.8221
 20
4626.6488
 11
1295.3542
 21
4625.9305
  0
LINE
  8
_0-2_躯体
  6
CONTINUOUS
 62
    3
 10
1295.3542
 20
4625.9305
 11
1294.0275
 21
4624.9557
  0
LINE
  8
_0-2_躯体
  6
CONTINUOUS
 62
    3
 10
1294.0275
 20
4624.9557
 11
1292.8822
 21
4623.754
  0
LINE
  8
_0-2_躯体
  6
CONTINUOUS
 62
    3
 10
1292.8822
 20
4623.754
 11
1291.9532
 21
4622.3618
  0
LINE
  8
_0-2_躯体
  6
CONTINUOUS
 62
    3
 10
1291.9532
 20
4622.3618
 11
1291.2687
 21
4620.8215
  0
LINE
  8
_0-2_躯体
  6
CONTINUOUS
 62
    3
 10
1291.2687
 20
4620.8215
 11
1290.8495
 21
4619.1799
  0
LINE
  8
_0-2_躯体
  6
CONTINUOUS
 62
    3
 10
1290.8495
 20
4619.1799
 11
1290.7084
 21
4617.4869
  0
LINE
  8
_0-2_躯体
  6
CONTINUOUS
 62
    3
 10
1290.7084
 20
4617.4869
 11
1290.8495
 21
4615.7938
  0
LINE
  8
_0-2_躯体
  6
CONTINUOUS
 62
    3
 10
1290.8495
 20
4615.7938
 11
1291.2687
 21
4614.1522
  0
LINE
  8
_0-2_躯体
  6
CONTINUOUS
 62
    3
 10
1291.2687
 20
4614.1522
 11
1291.9532
 21
4612.6119
  0
LINE
  8
_0-2_躯体
  6
CONTINUOUS
 62
    3
 10
1291.9532
 20
4612.6119
 11
1292.8822
 21
4611.2197
  0
LINE
  8
_0-2_躯体
  6
CONTINUOUS
 62
    3
 10
1292.8822
 20
4611.2197
 11
1294.0275
 21
4610.018
  0
LINE
  8
_0-2_躯体
  6
CONTINUOUS
 62
    3
 10
1294.0275
 20
4610.018
 11
1295.3542
 21
4609.0432
  0
LINE
  8
_0-2_躯体
  6
CONTINUOUS
 62
    3
 10
1295.3542
 20
4609.0432
 11
1296.8221
 21
4608.3249
  0
LINE
  8
_0-2_躯体
  6
CONTINUOUS
 62
    3
 10
1296.8221
 20
4608.3249
 11
1298.3866
 21
4607.8851
  0
LINE
  8
_0-2_躯体
  6
CONTINUOUS
 62
    3
 10
1298.3866
 20
4607.8851
 11
1300
 21
4607.737
  0
LINE
  8
_0-2_躯体
  6
CONTINUOUS
 62
    3
 10
1300
 20
4607.737
 11
1300
 21
4607.737
  0
LINE
  8
_0-2_躯体
  6
CONTINUOUS
 62
    3
 10
1300
 20
4549.2368
 11
1300
 21
4549.2368
  0
LINE
  8
_0-2_躯体
  6
CONTINUOUS
 62
    3
 10
1300
 20
4549.2368
 11
1298.3866
 21
4549.0887
  0
LINE
  8
_0-2_躯体
  6
CONTINUOUS
 62
    3
 10
1298.3866
 20
4549.0887
 11
1296.8221
 21
4548.6488
  0
LINE
  8
_0-2_躯体
  6
CONTINUOUS
 62
    3
 10
1296.8221
 20
4548.6488
 11
1295.3542
 21
4547.9306
  0
LINE
  8
_0-2_躯体
  6
CONTINUOUS
 62
    3
 10
1295.3542
 20
4547.9306
 11
1294.0275
 21
4546.9557
  0
LINE
  8
_0-2_躯体
  6
CONTINUOUS
 62
    3
 10
1294.0275
 20
4546.9557
 11
1292.8822
 21
4545.754
  0
LINE
  8
_0-2_躯体
  6
CONTINUOUS
 62
    3
 10
1292.8822
 20
4545.754
 11
1291.9532
 21
4544.3618
  0
LINE
  8
_0-2_躯体
  6
CONTINUOUS
 62
    3
 10
1291.9532
 20
4544.3618
 11
1291.2687
 21
4542.8216
  0
LINE
  8
_0-2_躯体
  6
CONTINUOUS
 62
    3
 10
1291.2687
 20
4542.8216
 11
1290.8495
 21
4541.1799
  0
LINE
  8
_0-2_躯体
  6
CONTINUOUS
 62
    3
 10
1290.8495
 20
4541.1799
 11
1290.7084
 21
4539.4869
  0
LINE
  8
_0-2_躯体
  6
CONTINUOUS
 62
    3
 10
1290.7084
 20
4539.4869
 11
1290.8495
 21
4537.7938
  0
LINE
  8
_0-2_躯体
  6
CONTINUOUS
 62
    3
 10
1290.8495
 20
4537.7938
 11
1291.2687
 21
4536.1522
  0
LINE
  8
_0-2_躯体
  6
CONTINUOUS
 62
    3
 10
1291.2687
 20
4536.1522
 11
1291.9532
 21
4534.6119
  0
LINE
  8
_0-2_躯体
  6
CONTINUOUS
 62
    3
 10
1291.9532
 20
4534.6119
 11
1292.8822
 21
4533.2198
  0
LINE
  8
_0-2_躯体
  6
CONTINUOUS
 62
    3
 10
1292.8822
 20
4533.2198
 11
1294.0275
 21
4532.018
  0
LINE
  8
_0-2_躯体
  6
CONTINUOUS
 62
    3
 10
1294.0275
 20
4532.018
 11
1295.3542
 21
4531.0432
  0
LINE
  8
_0-2_躯体
  6
CONTINUOUS
 62
    3
 10
1295.3542
 20
4531.0432
 11
1296.8221
 21
4530.325
  0
LINE
  8
_0-2_躯体
  6
CONTINUOUS
 62
    3
 10
1296.8221
 20
4530.325
 11
1298.3866
 21
4529.8851
  0
LINE
  8
_0-2_躯体
  6
CONTINUOUS
 62
    3
 10
1298.3866
 20
4529.8851
 11
1300
 21
4529.737
  0
LINE
  8
_0-2_躯体
  6
CONTINUOUS
 62
    3
 10
1300
 20
4529.737
 11
1300
 21
4529.737
  0
LINE
  8
_0-2_躯体
  6
CONTINUOUS
 62
    3
 10
2632.4999
 20
4272.7356
 11
2632.4999
 21
4272.7356
  0
LINE
  8
_0-2_躯体
  6
CONTINUOUS
 62
    3
 10
2632.4999
 20
4272.7356
 11
2634.1133
 21
4272.8837
  0
LINE
  8
_0-2_躯体
  6
CONTINUOUS
 62
    3
 10
2634.1133
 20
4272.8837
 11
2635.6778
 21
4273.3236
  0
LINE
  8
_0-2_躯体
  6
CONTINUOUS
 62
    3
 10
2635.6778
 20
4273.3236
 11
2637.1457
 21
4274.0418
  0
LINE
  8
_0-2_躯体
  6
CONTINUOUS
 62
    3
 10
2637.1457
 20
4274.0418
 11
2638.4724
 21
4275.0166
  0
LINE
  8
_0-2_躯体
  6
CONTINUOUS
 62
    3
 10
2638.4724
 20
4275.0166
 11
2639.6177
 21
4276.2184
  0
LINE
  8
_0-2_躯体
  6
CONTINUOUS
 62
    3
 10
2639.6177
 20
4276.2184
 11
2640.5467
 21
4277.6105
  0
LINE
  8
_0-2_躯体
  6
CONTINUOUS
 62
    3
 10
2640.5467
 20
4277.6105
 11
2641.2312
 21
4279.1508
  0
LINE
  8
_0-2_躯体
  6
CONTINUOUS
 62
    3
 10
2641.2312
 20
4279.1508
 11
2641.6503
 21
4280.7924
  0
LINE
  8
_0-2_躯体
  6
CONTINUOUS
 62
    3
 10
2641.6503
 20
4280.7924
 11
2641.7915
 21
4282.4855
  0
LINE
  8
_0-2_躯体
  6
CONTINUOUS
 62
    3
 10
2641.7915
 20
4282.4855
 11
2641.6503
 21
4284.1786
  0
LINE
  8
_0-2_躯体
  6
CONTINUOUS
 62
    3
 10
2641.6503
 20
4284.1786
 11
2641.2312
 21
4285.8202
  0
LINE
  8
_0-2_躯体
  6
CONTINUOUS
 62
    3
 10
2641.2312
 20
4285.8202
 11
2640.5467
 21
4287.3604
  0
LINE
  8
_0-2_躯体
  6
CONTINUOUS
 62
    3
 10
2640.5467
 20
4287.3604
 11
2639.6177
 21
4288.7526
  0
LINE
  8
_0-2_躯体
  6
CONTINUOUS
 62
    3
 10
2639.6177
 20
4288.7526
 11
2638.4724
 21
4289.9544
  0
LINE
  8
_0-2_躯体
  6
CONTINUOUS
 62
    3
 10
2638.4724
 20
4289.9544
 11
2637.1457
 21
4290.9292
  0
LINE
  8
_0-2_躯体
  6
CONTINUOUS
 62
    3
 10
2637.1457
 20
4290.9292
 11
2635.6778
 21
4291.6474
  0
LINE
  8
_0-2_躯体
  6
CONTINUOUS
 62
    3
 10
2635.6778
 20
4291.6474
 11
2634.1133
 21
4292.0873
  0
LINE
  8
_0-2_躯体
  6
CONTINUOUS
 62
    3
 10
2634.1133
 20
4292.0873
 11
2632.4999
 21
4292.2354
  0
LINE
  8
_0-2_躯体
  6
CONTINUOUS
 62
    3
 10
2632.4999
 20
4292.2354
 11
2632.4999
 21
4292.2354
  0
LINE
  8
_0-2_躯体
  6
CONTINUOUS
 62
    3
 10
1567.4998
 20
4292.2354
 11
1567.4998
 21
4292.2354
  0
LINE
  8
_0-2_躯体
  6
CONTINUOUS
 62
    3
 10
1567.4998
 20
4292.2354
 11
1565.8863
 21
4292.0873
  0
LINE
  8
_0-2_躯体
  6
CONTINUOUS
 62
    3
 10
1565.8863
 20
4292.0873
 11
1564.3219
 21
4291.6474
  0
LINE
  8
_0-2_躯体
  6
CONTINUOUS
 62
    3
 10
1564.3219
 20
4291.6474
 11
1562.854
 21
4290.9292
  0
LINE
  8
_0-2_躯体
  6
CONTINUOUS
 62
    3
 10
1562.854
 20
4290.9292
 11
1561.5272
 21
4289.9544
  0
LINE
  8
_0-2_躯体
  6
CONTINUOUS
 62
    3
 10
1561.5272
 20
4289.9544
 11
1560.382
 21
4288.7526
  0
LINE
  8
_0-2_躯体
  6
CONTINUOUS
 62
    3
 10
1560.382
 20
4288.7526
 11
1559.453
 21
4287.3604
  0
LINE
  8
_0-2_躯体
  6
CONTINUOUS
 62
    3
 10
1559.453
 20
4287.3604
 11
1558.7685
 21
4285.8202
  0
LINE
  8
_0-2_躯体
  6
CONTINUOUS
 62
    3
 10
1558.7685
 20
4285.8202
 11
1558.3493
 21
4284.1786
  0
LINE
  8
_0-2_躯体
  6
CONTINUOUS
 62
    3
 10
1558.3493
 20
4284.1786
 11
1558.2081
 21
4282.4855
  0
LINE
  8
_0-2_躯体
  6
CONTINUOUS
 62
    3
 10
1558.2081
 20
4282.4855
 11
1558.3493
 21
4280.7924
  0
LINE
  8
_0-2_躯体
  6
CONTINUOUS
 62
    3
 10
1558.3493
 20
4280.7924
 11
1558.7685
 21
4279.1508
  0
LINE
  8
_0-2_躯体
  6
CONTINUOUS
 62
    3
 10
1558.7685
 20
4279.1508
 11
1559.453
 21
4277.6105
  0
LINE
  8
_0-2_躯体
  6
CONTINUOUS
 62
    3
 10
1559.453
 20
4277.6105
 11
1560.382
 21
4276.2184
  0
LINE
  8
_0-2_躯体
  6
CONTINUOUS
 62
    3
 10
1560.382
 20
4276.2184
 11
1561.5272
 21
4275.0166
  0
LINE
  8
_0-2_躯体
  6
CONTINUOUS
 62
    3
 10
1561.5272
 20
4275.0166
 11
1562.854
 21
4274.0418
  0
LINE
  8
_0-2_躯体
  6
CONTINUOUS
 62
    3
 10
1562.854
 20
4274.0418
 11
1564.3219
 21
4273.3236
  0
LINE
  8
_0-2_躯体
  6
CONTINUOUS
 62
    3
 10
1564.3219
 20
4273.3236
 11
1565.8863
 21
4272.8837
  0
LINE
  8
_0-2_躯体
  6
CONTINUOUS
 62
    3
 10
1565.8863
 20
4272.8837
 11
1567.4998
 21
4272.7356
  0
LINE
  8
_0-2_躯体
  6
CONTINUOUS
 62
    3
 10
1567.4998
 20
4272.7356
 11
1567.4998
 21
4272.7356
  0
ARC
  8
_0-3_軸組
  6
CONTINUOUS
 62
    3
 10
2116.2805
 20
4459.5935
 40
10.192053
 50
270
 51
0
  0
ARC
  8
_0-3_軸組
  6
CONTINUOUS
 62
    3
 10
2116.2805
 20
4595.8082
 40
10.192053
 50
0
 51
90
  0
ARC
  8
_0-3_軸組
  6
CONTINUOUS
 62
    3
 10
2219.4253
 20
4275.5859
 40
19.96293
 50
270
 51
0
  0
ARC
  8
_0-3_軸組
  6
CONTINUOUS
 62
    3
 10
2209.4441
 20
4247.6549
 40
9.9814653
 50
270
 51
0
  0
ARC
  8
_0-2_躯体
  6
CONTINUOUS
 62
    3
 10
2632.5149
 20
4682.66
 40
8.9706137
 50
270
 51
90
  0
LINE
  8
_0-2_躯体
  6
CONTINUOUS
 62
    3
 10
1567.4998
 20
4223.7361
 11
1567.4998
 21
4223.7361
  0
LINE
  8
_0-2_躯体
  6
CONTINUOUS
 62
    3
 10
1567.4998
 20
4223.7361
 11
1565.8863
 21
4223.588
  0
LINE
  8
_0-2_躯体
  6
CONTINUOUS
 62
    3
 10
1565.8863
 20
4223.588
 11
1564.3219
 21
4223.1481
  0
LINE
  8
_0-2_躯体
  6
CONTINUOUS
 62
    3
 10
1564.3219
 20
4223.1481
 11
1562.854
 21
4222.4299
  0
LINE
  8
_0-2_躯体
  6
CONTINUOUS
 62
    3
 10
1562.854
 20
4222.4299
 11
1561.5272
 21
4221.4551
  0
LINE
  8
_0-2_躯体
  6
CONTINUOUS
 62
    3
 10
1561.5272
 20
4221.4551
 11
1560.382
 21
4220.2534
  0
LINE
  8
_0-2_躯体
  6
CONTINUOUS
 62
    3
 10
1560.382
 20
4220.2534
 11
1559.453
 21
4218.8612
  0
LINE
  8
_0-2_躯体
  6
CONTINUOUS
 62
    3
 10
1559.453
 20
4218.8612
 11
1558.7685
 21
4217.3209
  0
LINE
  8
_0-2_躯体
  6
CONTINUOUS
 62
    3
 10
1558.7685
 20
4217.3209
 11
1558.3493
 21
4215.6793
  0
LINE
  8
_0-2_躯体
  6
CONTINUOUS
 62
    3
 10
1558.3493
 20
4215.6793
 11
1558.2081
 21
4213.9862
  0
LINE
  8
_0-2_躯体
  6
CONTINUOUS
 62
    3
 10
1558.2081
 20
4213.9862
 11
1558.3493
 21
4212.2932
  0
LINE
  8
_0-2_躯体
  6
CONTINUOUS
 62
    3
 10
1558.3493
 20
4212.2932
 11
1558.7685
 21
4210.6516
  0
LINE
  8
_0-2_躯体
  6
CONTINUOUS
 62
    3
 10
1558.7685
 20
4210.6516
 11
1559.453
 21
4209.1113
  0
LINE
  8
_0-2_躯体
  6
CONTINUOUS
 62
    3
 10
1559.453
 20
4209.1113
 11
1560.382
 21
4207.7191
  0
LINE
  8
_0-2_躯体
  6
CONTINUOUS
 62
    3
 10
1560.382
 20
4207.7191
 11
1561.5272
 21
4206.5174
  0
LINE
  8
_0-2_躯体
  6
CONTINUOUS
 62
    3
 10
1561.5272
 20
4206.5174
 11
1562.854
 21
4205.5426
  0
LINE
  8
_0-2_躯体
  6
CONTINUOUS
 62
    3
 10
1562.854
 20
4205.5426
 11
1564.3219
 21
4204.8243
  0
LINE
  8
_0-2_躯体
  6
CONTINUOUS
 62
    3
 10
1564.3219
 20
4204.8243
 11
1565.8863
 21
4204.3845
  0
LINE
  8
_0-2_躯体
  6
CONTINUOUS
 62
    3
 10
1565.8863
 20
4204.3845
 11
1567.4998
 21
4204.2363
  0
LINE
  8
_0-2_躯体
  6
CONTINUOUS
 62
    3
 10
1567.4998
 20
4204.2363
 11
1567.4998
 21
4204.2363
  0
LINE
  8
_0-2_躯体
  6
CONTINUOUS
 62
    3
 10
2632.5001
 20
4204.2363
 11
2632.5001
 21
4204.2363
  0
LINE
  8
_0-2_躯体
  6
CONTINUOUS
 62
    3
 10
2632.5001
 20
4204.2363
 11
2634.1136
 21
4204.3845
  0
LINE
  8
_0-2_躯体
  6
CONTINUOUS
 62
    3
 10
2634.1136
 20
4204.3845
 11
2635.678
 21
4204.8243
  0
LINE
  8
_0-2_躯体
  6
CONTINUOUS
 62
    3
 10
2635.678
 20
4204.8243
 11
2637.1459
 21
4205.5426
  0
LINE
  8
_0-2_躯体
  6
CONTINUOUS
 62
    3
 10
2637.1459
 20
4205.5426
 11
2638.4727
 21
4206.5174
  0
LINE
  8
_0-2_躯体
  6
CONTINUOUS
 62
    3
 10
2638.4727
 20
4206.5174
 11
2639.6179
 21
4207.7191
  0
LINE
  8
_0-2_躯体
  6
CONTINUOUS
 62
    3
 10
2639.6179
 20
4207.7191
 11
2640.5469
 21
4209.1113
  0
LINE
  8
_0-2_躯体
  6
CONTINUOUS
 62
    3
 10
2640.5469
 20
4209.1113
 11
2641.2314
 21
4210.6516
  0
LINE
  8
_0-2_躯体
  6
CONTINUOUS
 62
    3
 10
2641.2314
 20
4210.6516
 11
2641.6506
 21
4212.2932
  0
LINE
  8
_0-2_躯体
  6
CONTINUOUS
 62
    3
 10
2641.6506
 20
4212.2932
 11
2641.7918
 21
4213.9862
  0
LINE
  8
_0-2_躯体
  6
CONTINUOUS
 62
    3
 10
2641.7918
 20
4213.9862
 11
2641.6506
 21
4215.6793
  0
LINE
  8
_0-2_躯体
  6
CONTINUOUS
 62
    3
 10
2641.6506
 20
4215.6793
 11
2641.2314
 21
4217.3209
  0
LINE
  8
_0-2_躯体
  6
CONTINUOUS
 62
    3
 10
2641.2314
 20
4217.3209
 11
2640.5469
 21
4218.8612
  0
LINE
  8
_0-2_躯体
  6
CONTINUOUS
 62
    3
 10
2640.5469
 20
4218.8612
 11
2639.6179
 21
4220.2534
  0
LINE
  8
_0-2_躯体
  6
CONTINUOUS
 62
    3
 10
2639.6179
 20
4220.2534
 11
2638.4727
 21
4221.4551
  0
LINE
  8
_0-2_躯体
  6
CONTINUOUS
 62
    3
 10
2638.4727
 20
4221.4551
 11
2637.1459
 21
4222.4299
  0
LINE
  8
_0-2_躯体
  6
CONTINUOUS
 62
    3
 10
2637.1459
 20
4222.4299
 11
2635.678
 21
4223.1481
  0
LINE
  8
_0-2_躯体
  6
CONTINUOUS
 62
    3
 10
2635.678
 20
4223.1481
 11
2634.1136
 21
4223.588
  0
LINE
  8
_0-2_躯体
  6
CONTINUOUS
 62
    3
 10
2634.1136
 20
4223.588
 11
2632.5001
 21
4223.7361
  0
LINE
  8
_0-2_躯体
  6
CONTINUOUS
 62
    3
 10
2632.5001
 20
4223.7361
 11
2632.5001
 21
4223.7361
  0
TEXT
  8
_0-d_文字
 62
    7
 10
509.99969
 20
310.13513
 40
50
 41
1
 50
0
  1
図
  0
TEXT
  8
_0-d_文字
 62
    7
 10
509.99969
 20
190.1352
 40
50
 41
1
 50
0
  1
番
  0
TEXT
  8
_0-d_文字
 62
    7
 10
1309.9997
 20
310.13513
 40
50
 41
1
 50
0
  1
承
  0
TEXT
  8
_0-d_文字
 62
    7
 10
1309.9997
 20
190.1352
 40
50
 41
1
 50
0
  1
認
  0
TEXT
  8
_0-d_文字
 62
    7
 10
2039.9996
 20
470.13522
 40
50
 41
1
 50
0
  1
尺
  0
TEXT
  8
_0-d_文字
 62
    7
 10
2039.9996
 20
390.13527
 40
50
 41
1
 50
-0.0001417
  1
度
  0
TEXT
  8
_0-d_文字
 62
    7
 10
1709.9997
 20
310.13513
 40
50
 41
1
 50
0
  1
製
  0
TEXT
  8
_0-d_文字
 62
    7
 10
1709.9997
 20
190.1352
 40
50
 41
1
 50
0
  1
図
  0
TEXT
  8
_0-d_文字
 62
    7
 10
3109.9998
 20
470.13522
 40
50
 41
1
 50
0
  1
日
  0
TEXT
  8
_0-d_文字
 62
    7
 10
3109.9998
 20
390.13527
 40
50
 41
1
 50
-0.0001417
  1
付
  0
TEXT
  8
_0-d_文字
 62
    7
 10
2222.8519
 20
322.09974
 40
40
 41
1
 50
0
  1
株式
  0
TEXT
  8
_0-d_文字
 62
    7
 10
2222.8519
 20
278.83888
 40
40
 41
1
 50
0.0000196
  1
会社
  0
TEXT
  8
_0-d_文字
 62
    3
 10
2348.4483
 20
281.62988
 40
80
 41
1
 50
-0.0000039
  1
スズキベンチレーター
  0
TEXT
  8
_0-d_文字
 62
    7
 10
2475.8353
 20
183.18396
 40
40
 41
1
 50
0
  1
TEL(054)296-7000  FAX(054)296-7001
  0
TEXT
  8
_0-8_寸法
 62
    3
 10
2045.6251
 20
5203.4773
 40
60
 41
1
 50
0
  1
1,600
  0
TEXT
  8
_0-8_寸法
 62
    3
 10
998.27517
 20
4469.8612
 40
60
 41
1
 50
90
  1
875
  0
TEXT
  8
_0-8_寸法
 62
    3
 10
2045.6246
 20
4007.42
 40
60
 41
1
 50
0
  1
1,065
  0
TEXT
  8
_0-d_文字
 62
    3
 10
2168.6976
 20
415.33665
 40
80
 41
1
 50
0
  1
１／２０
  0
TEXT
  8
_0-d_文字
 62
    7
 10
2471.3581
 20
232.42737
 40
40
 41
1
 50
-0.0000034
  1
〒421-2114　静岡市葵区安倍口新田１５２番地
  0
TEXT
  8
_0-d_文字
 62
    3
 10
510.00002
 20
5545.4025
 40
100
 41
1
 50
0
  1
ＳＴ－１０５Ｌ　直付型（低騒音）断面
  0
TEXT
  8
_0-d_文字
 62
    3
 10
562.32177
 20
415.2802
 40
60
 41
1
 50
0
  1
ＳＴ－１０５Ｌ　直付型（低騒音）断面
  0
TEXT
  8
_0-d_文字
 62
    3
 10
596.67529
 20
287.90674
 40
60
 41
1
 50
0
  1
105L-02a
  0
POINT
  8
_0-8_寸法
 62
    2
 10
1013.2748
 20
4174.236
  0
POINT
  8
_0-8_寸法
 62
    2
 10
1013.2748
 20
5049.2367
  0
POINT
  8
_0-8_寸法
 62
    2
 10
1300
 20
5188.477
  0
POINT
  8
_0-8_寸法
 62
    2
 10
2899.9999
 20
5188.477
  0
POINT
  8
_0-8_寸法
 62
    2
 10
1567.4998
 20
3992.42
  0
POINT
  8
_0-8_寸法
 62
    2
 10
2632.4999
 20
3992.42
  0
ENDSEC
  0
EOF
