  0
SECTION
  2
HEADER
  9
$ACADVER
  1
AC1009
  9
$INSBASE
 10
0
 20
0
 30
0
  9
$EXTMIN
 10
0
 20
0
  9
$EXTMAX
 10
8400
 20
5940
  9
$LIMMIN
 10
0
 20
0
  9
$LIMMAX
 10
8400
 20
5940
  9
$LTSCALE
 40
20
  0
ENDSEC
  0
SECTION
  2
TABLES
  0
TABLE
  2
LTYPE
 70
     9
  0
LTYPE
  2
CONTINUOUS
 70
    64
  3
実線
 72
    65
 73
     0
 40
0.0
  0
LTYPE
  2
DASHED1
 70
    64
  3
--  --  --  --  --  --  --  --  
 72
    65
 73
     2
 40
2.5
 49
1.25
 49
-1.25
  0
LTYPE
  2
DASHED2
 70
    64
  3
----    ----    ----    ----    
 72
    65
 73
     2
 40
5.0
 49
2.5
 49
-2.5
  0
LTYPE
  2
DASHED3
 70
    64
  3
------  ------  ------  ------  
 72
    65
 73
     2
 40
5.0
 49
3.75
 49
-1.25
  0
LTYPE
  2
CENTER1
 70
    64
  3
----- - ----- - ----- - ----- - 
 72
    65
 73
     4
 40
10.0
 49
6.25
 49
-1.25
 49
1.25
 49
-1.25
  0
LTYPE
  2
CENTER2
 70
    64
  3
----------  --  ----------  --  
 72
    65
 73
     4
 40
20.0
 49
12.5
 49
-2.5
 49
2.5
 49
-2.5
  0
LTYPE
  2
PHANTOM1
 70
    64
  3
--- - - --- - - --- - - --- - - 
 72
    65
 73
     6
 40
10.0
 49
3.25
 49
-1.25
 49
1.25
 49
-1.25
 49
1.25
 49
-1.25
  0
LTYPE
  2
PHANTOM2
 70
    64
  3
--------  -  -  --------  -  -  
 72
    65
 73
     6
 40
20.0
 49
10.0
 49
-2.5
 49
1.25
 49
-2.5
 49
1.25
 49
-2.5
  0
LTYPE
  2
DOT
 70
    64
  3
-   -   -   -   -   -   -   -   
 72
    65
 73
     2
 40
2.5
 49
0.625
 49
-1.875
  0
LTYPE
  2
DUMMY
 70
    64
  3
ダミー
 72
    65
 73
     0
 40
0.0
  0
LTYPE
  2
RAND1
 70
    64
  3
----- - ----- - ----- - ----- - 
 72
    65
 73
     4
 40
10.0
 49
6.25
 49
-1.25
 49
1.25
 49
-1.25
  0
LTYPE
  2
RAND2
 70
    64
  3
----------  --  ----------  --  
 72
    65
 73
     4
 40
20.0
 49
12.5
 49
-2.5
 49
2.5
 49
-2.5
  0
LTYPE
  2
RAND3
 70
    64
  3
--- - - --- - - --- - - --- - - 
 72
    65
 73
     6
 40
10.0
 49
3.25
 49
-1.25
 49
1.25
 49
-1.25
 49
1.25
 49
-1.25
  0
LTYPE
  2
RAND4
 70
    64
  3
--------  -  -  --------  -  -  
 72
    65
 73
     6
 40
20.0
 49
10.0
 49
-2.5
 49
1.25
 49
-2.5
 49
1.25
 49
-2.5
  0
LTYPE
  2
RAND5
 70
    64
  3
----- - ----- - ----- - ----- - 
 72
    65
 73
     4
 40
10.0
 49
6.25
 49
-1.25
 49
1.25
 49
-1.25
  0
LTYPE
  2
LONG1
 70
    64
  3
----------  --  ----------  --  
 72
    65
 73
     4
 40
20.0
 49
12.5
 49
-2.5
 49
2.5
 49
-2.5
  0
LTYPE
  2
LONG2
 70
    64
  3
--- - - --- - - --- - - --- - - 
 72
    65
 73
     6
 40
10.0
 49
3.25
 49
-1.25
 49
1.25
 49
-1.25
 49
1.25
 49
-1.25
  0
LTYPE
  2
LONG3
 70
    64
  3
--------  -  -  --------  -  -  
 72
    65
 73
     6
 40
20.0
 49
10.0
 49
-2.5
 49
1.25
 49
-2.5
 49
1.25
 49
-2.5
  0
LTYPE
  2
LONG4
 70
    64
  3
----- - ----- - ----- - ----- - 
 72
    65
 73
     4
 40
10.0
 49
6.25
 49
-1.25
 49
1.25
 49
-1.25
  0
LTYPE
  2
LONG5
 70
    64
  3
----------  --  ----------  --  
 72
    65
 73
     4
 40
20.0
 49
12.5
 49
-2.5
 49
2.5
 49
-2.5
  0
ENDTAB
  0
TABLE
  2
STYLE
  5
3
100
AcDbSymbolTable
 70
     1
  0
STYLE
  5
10
100
AcDbSymbolTableRecord
100
AcDbTextStyleTableRecord
  2
STANDARD
 70
     0
 40
0.0
 41
1.0
 50
0.0
 71
     0
 42
0.2
  3
txt
  4
bigfont.shx
  0
STYLE
  5
26
100
AcDbSymbolTableRecord
100
AcDbTextStyleTableRecord
  2
TATEGAKI
 70
    68
 40
0.0
 41
1.0
 50
0.0
 71
     0
 42
1.0
  3
txt
  4
bigfont.shx
  0
ENDTAB
  0
TABLE
  2
LAYER
 70
    5
  0
LAYER
  2
_0-1_基準線
 70
   64
 62
    7
  6
CONTINUOUS
  0
LAYER
  2
_0-2_躯体
 70
   64
 62
    7
  6
CONTINUOUS
  0
LAYER
  2
_0-8_寸法
 70
   64
 62
    7
  6
CONTINUOUS
  0
LAYER
  2
_0-d_文字
 70
   64
 62
    7
  6
CONTINUOUS
  0
LAYER
  2
ADD_LINE
 70
   64
 62
    7
  6
CONTINUOUS
  0
ENDTAB
  0
ENDSEC
  0
SECTION
  2
BLOCKS
  0
ENDSEC
  0
SECTION
  2
ENTITIES
  0
LINE
  8
_0-d_文字
  6
CONTINUOUS
 62
    7
 10
500.00004
 20
5515.4024
 11
3700
 21
5515.4024
  0
LINE
  8
_0-d_文字
  6
CONTINUOUS
 62
    7
 10
500.00004
 20
5535.4025
 11
3700
 21
5535.4025
  0
LINE
  8
_0-d_文字
  6
CONTINUOUS
 62
    7
 10
499.99979
 20
375.13522
 11
3699.9998
 21
375.13522
  0
LINE
  8
_0-d_文字
  6
CONTINUOUS
 62
    7
 10
499.99979
 20
175.13518
 11
499.99979
 21
535.13513
  0
LINE
  8
_0-d_文字
  6
CONTINUOUS
 62
    7
 10
499.99979
 20
175.13518
 11
3699.9998
 21
175.13518
  0
LINE
  8
_0-d_文字
  6
CONTINUOUS
 62
    7
 10
2100
 20
535.13513
 11
2100
 21
175.13518
  0
LINE
  8
_0-d_文字
  6
CONTINUOUS
 62
    7
 10
1299.9999
 20
175.13518
 11
1299.9999
 21
375.13522
  0
LINE
  8
_0-d_文字
  6
CONTINUOUS
 62
    7
 10
2100
 20
375.13522
 11
2100
 21
535.13513
  0
LINE
  8
_0-d_文字
  6
CONTINUOUS
 62
    7
 10
1699.9999
 20
175.13518
 11
1699.9999
 21
375.13522
  0
LINE
  8
_0-d_文字
  6
CONTINUOUS
 62
    7
 10
569.99965
 20
175.13518
 11
569.99965
 21
375.13522
  0
LINE
  8
_0-d_文字
  6
CONTINUOUS
 62
    7
 10
1369.9995
 20
175.13518
 11
1369.9995
 21
375.13522
  0
LINE
  8
_0-d_文字
  6
CONTINUOUS
 62
    7
 10
1769.9995
 20
175.13518
 11
1769.9995
 21
375.13522
  0
LINE
  8
_0-d_文字
  6
CONTINUOUS
 62
    7
 10
2029.9998
 20
375.13522
 11
2029.9998
 21
535.13513
  0
LINE
  8
_0-d_文字
  6
CONTINUOUS
 62
    7
 10
3099.9998
 20
375.13522
 11
3099.9998
 21
535.13513
  0
LINE
  8
_0-d_文字
  6
CONTINUOUS
 62
    7
 10
3169.9995
 20
375.13522
 11
3169.9995
 21
535.13513
  0
LINE
  8
_0-d_文字
  6
CONTINUOUS
 62
    7
 10
499.99979
 20
535.13513
 11
3699.9998
 21
535.13513
  0
LINE
  8
_0-d_文字
  6
CONTINUOUS
 62
    7
 10
3699.9998
 20
535.13513
 11
3699.9998
 21
175.13518
  0
LINE
  8
_0-8_寸法
  6
CONTINUOUS
 62
    7
 10
1300
 20
5095.9969
 11
2899.9999
 21
5095.9969
  0
LINE
  8
_0-2_躯体
  6
CONTINUOUS
 62
    3
 10
1300
 20
4771.7567
 11
1300
 21
4534.7563
  0
LINE
  8
_0-8_寸法
  6
CONTINUOUS
 62
    7
 10
1299.9998
 20
4852.3048
 11
1300
 21
5095.9969
  0
LINE
  8
_0-8_寸法
  6
CONTINUOUS
 62
    7
 10
1604.554
 20
4956.7565
 11
1013.2748
 21
4956.7565
  0
LINE
  8
_0-8_寸法
  6
CONTINUOUS
 62
    7
 10
2899.9999
 20
4852.3048
 11
2899.9999
 21
5095.9969
  0
LINE
  8
_0-2_躯体
  6
CONTINUOUS
 62
    3
 10
1300
 20
4515.2571
 11
1300
 21
4456.7569
  0
LINE
  8
_0-2_躯体
  6
CONTINUOUS
 62
    3
 10
1300
 20
4437.2571
 11
1300
 21
4391.7564
  0
LINE
  8
_0-2_躯体
  6
CONTINUOUS
 62
    3
 10
1567.5
 20
4388.7564
 11
1567.5
 21
4244.7569
  0
LINE
  8
_0-2_躯体
  6
CONTINUOUS
 62
    3
 10
1300
 20
4771.7567
 11
2100
 21
4771.7567
  0
LINE
  8
_0-2_躯体
  6
CONTINUOUS
 62
    3
 10
1300
 20
4391.7564
 11
2100
 21
4391.7564
  0
LINE
  8
_0-2_躯体
  6
CONTINUOUS
 62
    3
 10
1300
 20
4437.2571
 11
2100
 21
4437.2571
  0
LINE
  8
_0-2_躯体
  6
CONTINUOUS
 62
    3
 10
1300
 20
4456.7569
 11
2100
 21
4456.7569
  0
LINE
  8
_0-2_躯体
  6
CONTINUOUS
 62
    3
 10
1300
 20
4515.2571
 11
2100
 21
4515.2571
  0
LINE
  8
_0-2_躯体
  6
CONTINUOUS
 62
    3
 10
1300
 20
4534.7563
 11
2100
 21
4534.7563
  0
LINE
  8
_0-2_躯体
  6
CONTINUOUS
 62
    3
 10
1464.9998
 20
4056.7565
 11
1464.9998
 21
4126.7565
  0
LINE
  8
_0-2_躯体
  6
CONTINUOUS
 62
    3
 10
1464.9998
 20
4056.7565
 11
2735.0001
 21
4056.7565
  0
LINE
  8
_0-2_躯体
  6
CONTINUOUS
 62
    3
 10
1464.9998
 20
4126.7565
 11
2735.0001
 21
4126.7565
  0
LINE
  8
_0-8_寸法
  6
CONTINUOUS
 62
    7
 10
1013.2748
 20
4056.7565
 11
1013.2748
 21
4956.7565
  0
LINE
  8
_0-8_寸法
  6
CONTINUOUS
 62
    7
 10
1313.897
 20
4056.7565
 11
1013.2748
 21
4056.7565
  0
LINE
  8
_0-2_躯体
  6
CONTINUOUS
 62
    3
 10
1625.1471
 20
4204.15
 11
1625.1471
 21
4126.7565
  0
LINE
  8
_0-8_寸法
  6
CONTINUOUS
 62
    7
 10
1464.9998
 20
3791.1499
 11
2735.0001
 21
3791.1499
  0
LINE
  8
_0-8_寸法
  6
CONTINUOUS
 62
    7
 10
1464.9998
 20
3985.3986
 11
1464.9998
 21
3791.1499
  0
LINE
  8
_0-8_寸法
  6
CONTINUOUS
 62
    7
 10
2735.0001
 20
3985.3986
 11
2735.0001
 21
3791.1499
  0
LINE
  8
_0-2_躯体
  6
CONTINUOUS
 62
    3
 10
1464.9998
 20
4126.7565
 11
1601.5488
 21
4204.15
  0
LINE
  8
_0-2_躯体
  6
CONTINUOUS
 62
    3
 10
1601.5488
 20
4204.15
 11
1625.1467
 21
4204.15
  0
LINE
  8
_0-2_躯体
  6
CONTINUOUS
 62
    3
 10
1625.1467
 20
4204.15
 11
1625.1467
 21
4126.7565
  0
LINE
  8
_0-2_躯体
  6
CONTINUOUS
 62
    3
 10
1567.5
 20
4244.7569
 11
2100
 21
4244.7569
  0
LINE
  8
_0-2_躯体
  6
CONTINUOUS
 62
    3
 10
1567.5
 20
4225.2566
 11
2100
 21
4225.2566
  0
LINE
  8
_0-2_躯体
  6
CONTINUOUS
 62
    3
 10
1567.5
 20
4225.2566
 11
1567.5
 21
4184.8517
  0
LINE
  8
_0-2_躯体
  6
CONTINUOUS
 62
    3
 10
2100
 20
4956.7565
 11
1271.8743
 21
4765.2525
  0
LINE
  8
_0-2_躯体
  6
CONTINUOUS
 62
    3
 10
2899.9999
 20
4771.7567
 11
2899.9999
 21
4534.7563
  0
LINE
  8
_0-2_躯体
  6
CONTINUOUS
 62
    3
 10
2899.9999
 20
4515.2571
 11
2899.9999
 21
4456.7569
  0
LINE
  8
_0-2_躯体
  6
CONTINUOUS
 62
    3
 10
2899.9999
 20
4437.2571
 11
2899.9999
 21
4391.7564
  0
LINE
  8
_0-2_躯体
  6
CONTINUOUS
 62
    3
 10
2632.4999
 20
4388.7564
 11
2632.4999
 21
4244.7569
  0
LINE
  8
_0-2_躯体
  6
CONTINUOUS
 62
    3
 10
2899.9999
 20
4771.7567
 11
2100
 21
4771.7567
  0
LINE
  8
_0-2_躯体
  6
CONTINUOUS
 62
    3
 10
2899.9999
 20
4391.7564
 11
2100
 21
4391.7564
  0
LINE
  8
_0-2_躯体
  6
CONTINUOUS
 62
    3
 10
2899.9999
 20
4437.2571
 11
2100
 21
4437.2571
  0
LINE
  8
_0-2_躯体
  6
CONTINUOUS
 62
    3
 10
2899.9999
 20
4456.7569
 11
2100
 21
4456.7569
  0
LINE
  8
_0-2_躯体
  6
CONTINUOUS
 62
    3
 10
2899.9999
 20
4515.2571
 11
2100
 21
4515.2571
  0
LINE
  8
_0-2_躯体
  6
CONTINUOUS
 62
    3
 10
2899.9999
 20
4534.7563
 11
2100
 21
4534.7563
  0
LINE
  8
_0-2_躯体
  6
CONTINUOUS
 62
    3
 10
2735.0001
 20
4056.7565
 11
2735.0001
 21
4126.7565
  0
LINE
  8
_0-2_躯体
  6
CONTINUOUS
 62
    3
 10
2574.8528
 20
4204.15
 11
2574.8528
 21
4126.7565
  0
LINE
  8
_0-2_躯体
  6
CONTINUOUS
 62
    3
 10
2735.0001
 20
4126.7565
 11
2598.4511
 21
4204.15
  0
LINE
  8
_0-2_躯体
  6
CONTINUOUS
 62
    3
 10
2598.4511
 20
4204.15
 11
2574.8531
 21
4204.15
  0
LINE
  8
_0-2_躯体
  6
CONTINUOUS
 62
    3
 10
2574.8531
 20
4204.15
 11
2574.8531
 21
4126.7565
  0
LINE
  8
_0-2_躯体
  6
CONTINUOUS
 62
    3
 10
2632.4999
 20
4244.7569
 11
2100
 21
4244.7569
  0
LINE
  8
_0-2_躯体
  6
CONTINUOUS
 62
    3
 10
2632.4999
 20
4225.2566
 11
2100
 21
4225.2566
  0
LINE
  8
_0-2_躯体
  6
CONTINUOUS
 62
    3
 10
2632.4999
 20
4225.2566
 11
2632.4999
 21
4184.8517
  0
LINE
  8
_0-2_躯体
  6
CONTINUOUS
 62
    3
 10
2100
 20
4956.7565
 11
2928.1256
 21
4765.2525
  0
LINE
  8
_0-1_基準線
  6
CENTER2
 62
    7
 10
2100
 20
4056.7565
 11
2100
 21
4956.7565
  0
LINE
  8
_0-2_躯体
  6
CONTINUOUS
 62
    3
 10
1300
 20
4534.7566
 11
1300
 21
4534.7566
  0
LINE
  8
_0-2_躯体
  6
CONTINUOUS
 62
    3
 10
1300
 20
4534.7566
 11
1298.3866
 21
4534.6085
  0
LINE
  8
_0-2_躯体
  6
CONTINUOUS
 62
    3
 10
1298.3866
 20
4534.6085
 11
1296.8221
 21
4534.1686
  0
LINE
  8
_0-2_躯体
  6
CONTINUOUS
 62
    3
 10
1296.8221
 20
4534.1686
 11
1295.3542
 21
4533.4504
  0
LINE
  8
_0-2_躯体
  6
CONTINUOUS
 62
    3
 10
1295.3542
 20
4533.4504
 11
1294.0275
 21
4532.4756
  0
LINE
  8
_0-2_躯体
  6
CONTINUOUS
 62
    3
 10
1294.0275
 20
4532.4756
 11
1292.8822
 21
4531.2738
  0
LINE
  8
_0-2_躯体
  6
CONTINUOUS
 62
    3
 10
1292.8822
 20
4531.2738
 11
1291.9532
 21
4529.8817
  0
LINE
  8
_0-2_躯体
  6
CONTINUOUS
 62
    3
 10
1291.9532
 20
4529.8817
 11
1291.2687
 21
4528.3414
  0
LINE
  8
_0-2_躯体
  6
CONTINUOUS
 62
    3
 10
1291.2687
 20
4528.3414
 11
1290.8495
 21
4526.6998
  0
LINE
  8
_0-2_躯体
  6
CONTINUOUS
 62
    3
 10
1290.8495
 20
4526.6998
 11
1290.7084
 21
4525.0067
  0
LINE
  8
_0-2_躯体
  6
CONTINUOUS
 62
    3
 10
1290.7084
 20
4525.0067
 11
1290.8495
 21
4523.3137
  0
LINE
  8
_0-2_躯体
  6
CONTINUOUS
 62
    3
 10
1290.8495
 20
4523.3137
 11
1291.2687
 21
4521.6721
  0
LINE
  8
_0-2_躯体
  6
CONTINUOUS
 62
    3
 10
1291.2687
 20
4521.6721
 11
1291.9532
 21
4520.1318
  0
LINE
  8
_0-2_躯体
  6
CONTINUOUS
 62
    3
 10
1291.9532
 20
4520.1318
 11
1292.8822
 21
4518.7396
  0
LINE
  8
_0-2_躯体
  6
CONTINUOUS
 62
    3
 10
1292.8822
 20
4518.7396
 11
1294.0275
 21
4517.5379
  0
LINE
  8
_0-2_躯体
  6
CONTINUOUS
 62
    3
 10
1294.0275
 20
4517.5379
 11
1295.3542
 21
4516.5631
  0
LINE
  8
_0-2_躯体
  6
CONTINUOUS
 62
    3
 10
1295.3542
 20
4516.5631
 11
1296.8221
 21
4515.8448
  0
LINE
  8
_0-2_躯体
  6
CONTINUOUS
 62
    3
 10
1296.8221
 20
4515.8448
 11
1298.3866
 21
4515.4049
  0
LINE
  8
_0-2_躯体
  6
CONTINUOUS
 62
    3
 10
1298.3866
 20
4515.4049
 11
1300
 21
4515.2568
  0
LINE
  8
_0-2_躯体
  6
CONTINUOUS
 62
    3
 10
1300
 20
4515.2568
 11
1300
 21
4515.2568
  0
LINE
  8
_0-2_躯体
  6
CONTINUOUS
 62
    3
 10
1300
 20
4456.7567
 11
1300
 21
4456.7567
  0
LINE
  8
_0-2_躯体
  6
CONTINUOUS
 62
    3
 10
1300
 20
4456.7567
 11
1298.3866
 21
4456.6085
  0
LINE
  8
_0-2_躯体
  6
CONTINUOUS
 62
    3
 10
1298.3866
 20
4456.6085
 11
1296.8221
 21
4456.1687
  0
LINE
  8
_0-2_躯体
  6
CONTINUOUS
 62
    3
 10
1296.8221
 20
4456.1687
 11
1295.3542
 21
4455.4504
  0
LINE
  8
_0-2_躯体
  6
CONTINUOUS
 62
    3
 10
1295.3542
 20
4455.4504
 11
1294.0275
 21
4454.4756
  0
LINE
  8
_0-2_躯体
  6
CONTINUOUS
 62
    3
 10
1294.0275
 20
4454.4756
 11
1292.8822
 21
4453.2739
  0
LINE
  8
_0-2_躯体
  6
CONTINUOUS
 62
    3
 10
1292.8822
 20
4453.2739
 11
1291.9532
 21
4451.8817
  0
LINE
  8
_0-2_躯体
  6
CONTINUOUS
 62
    3
 10
1291.9532
 20
4451.8817
 11
1291.2687
 21
4450.3414
  0
LINE
  8
_0-2_躯体
  6
CONTINUOUS
 62
    3
 10
1291.2687
 20
4450.3414
 11
1290.8495
 21
4448.6998
  0
LINE
  8
_0-2_躯体
  6
CONTINUOUS
 62
    3
 10
1290.8495
 20
4448.6998
 11
1290.7084
 21
4447.0068
  0
LINE
  8
_0-2_躯体
  6
CONTINUOUS
 62
    3
 10
1290.7084
 20
4447.0068
 11
1290.8495
 21
4445.3137
  0
LINE
  8
_0-2_躯体
  6
CONTINUOUS
 62
    3
 10
1290.8495
 20
4445.3137
 11
1291.2687
 21
4443.6721
  0
LINE
  8
_0-2_躯体
  6
CONTINUOUS
 62
    3
 10
1291.2687
 20
4443.6721
 11
1291.9532
 21
4442.1318
  0
LINE
  8
_0-2_躯体
  6
CONTINUOUS
 62
    3
 10
1291.9532
 20
4442.1318
 11
1292.8822
 21
4440.7396
  0
LINE
  8
_0-2_躯体
  6
CONTINUOUS
 62
    3
 10
1292.8822
 20
4440.7396
 11
1294.0275
 21
4439.5379
  0
LINE
  8
_0-2_躯体
  6
CONTINUOUS
 62
    3
 10
1294.0275
 20
4439.5379
 11
1295.3542
 21
4438.5631
  0
LINE
  8
_0-2_躯体
  6
CONTINUOUS
 62
    3
 10
1295.3542
 20
4438.5631
 11
1296.8221
 21
4437.8448
  0
LINE
  8
_0-2_躯体
  6
CONTINUOUS
 62
    3
 10
1296.8221
 20
4437.8448
 11
1298.3866
 21
4437.405
  0
LINE
  8
_0-2_躯体
  6
CONTINUOUS
 62
    3
 10
1298.3866
 20
4437.405
 11
1300
 21
4437.2569
  0
LINE
  8
_0-2_躯体
  6
CONTINUOUS
 62
    3
 10
1300
 20
4437.2569
 11
1300
 21
4437.2569
  0
LINE
  8
_0-2_躯体
  6
CONTINUOUS
 62
    3
 10
1567.5
 20
4244.7562
 11
1567.5
 21
4244.7562
  0
LINE
  8
_0-2_躯体
  6
CONTINUOUS
 62
    3
 10
1567.5
 20
4244.7562
 11
1565.8866
 21
4244.608
  0
LINE
  8
_0-2_躯体
  6
CONTINUOUS
 62
    3
 10
1565.8866
 20
4244.608
 11
1564.3221
 21
4244.1682
  0
LINE
  8
_0-2_躯体
  6
CONTINUOUS
 62
    3
 10
1564.3221
 20
4244.1682
 11
1562.8542
 21
4243.4499
  0
LINE
  8
_0-2_躯体
  6
CONTINUOUS
 62
    3
 10
1562.8542
 20
4243.4499
 11
1561.5275
 21
4242.4751
  0
LINE
  8
_0-2_躯体
  6
CONTINUOUS
 62
    3
 10
1561.5275
 20
4242.4751
 11
1560.3822
 21
4241.2734
  0
LINE
  8
_0-2_躯体
  6
CONTINUOUS
 62
    3
 10
1560.3822
 20
4241.2734
 11
1559.4532
 21
4239.8812
  0
LINE
  8
_0-2_躯体
  6
CONTINUOUS
 62
    3
 10
1559.4532
 20
4239.8812
 11
1558.7687
 21
4238.3409
  0
LINE
  8
_0-2_躯体
  6
CONTINUOUS
 62
    3
 10
1558.7687
 20
4238.3409
 11
1558.3496
 21
4236.6993
  0
LINE
  8
_0-2_躯体
  6
CONTINUOUS
 62
    3
 10
1558.3496
 20
4236.6993
 11
1558.2084
 21
4235.0063
  0
LINE
  8
_0-2_躯体
  6
CONTINUOUS
 62
    3
 10
1558.2084
 20
4235.0063
 11
1558.3496
 21
4233.3132
  0
LINE
  8
_0-2_躯体
  6
CONTINUOUS
 62
    3
 10
1558.3496
 20
4233.3132
 11
1558.7687
 21
4231.6716
  0
LINE
  8
_0-2_躯体
  6
CONTINUOUS
 62
    3
 10
1558.7687
 20
4231.6716
 11
1559.4532
 21
4230.1313
  0
LINE
  8
_0-2_躯体
  6
CONTINUOUS
 62
    3
 10
1559.4532
 20
4230.1313
 11
1560.3822
 21
4228.7391
  0
LINE
  8
_0-2_躯体
  6
CONTINUOUS
 62
    3
 10
1560.3822
 20
4228.7391
 11
1561.5275
 21
4227.5374
  0
LINE
  8
_0-2_躯体
  6
CONTINUOUS
 62
    3
 10
1561.5275
 20
4227.5374
 11
1562.8542
 21
4226.5626
  0
LINE
  8
_0-2_躯体
  6
CONTINUOUS
 62
    3
 10
1562.8542
 20
4226.5626
 11
1564.3221
 21
4225.8443
  0
LINE
  8
_0-2_躯体
  6
CONTINUOUS
 62
    3
 10
1564.3221
 20
4225.8443
 11
1565.8866
 21
4225.4045
  0
LINE
  8
_0-2_躯体
  6
CONTINUOUS
 62
    3
 10
1565.8866
 20
4225.4045
 11
1567.5
 21
4225.2564
  0
LINE
  8
_0-2_躯体
  6
CONTINUOUS
 62
    3
 10
1567.5
 20
4225.2564
 11
1567.5
 21
4225.2564
  0
LINE
  8
_0-2_躯体
  6
CONTINUOUS
 62
    3
 10
1567.5
 20
4244.7562
 11
1567.5
 21
4244.7562
  0
LINE
  8
_0-2_躯体
  6
CONTINUOUS
 62
    3
 10
1567.5
 20
4244.7562
 11
1565.8866
 21
4244.608
  0
LINE
  8
_0-2_躯体
  6
CONTINUOUS
 62
    3
 10
1565.8866
 20
4244.608
 11
1564.3221
 21
4244.1682
  0
LINE
  8
_0-2_躯体
  6
CONTINUOUS
 62
    3
 10
1564.3221
 20
4244.1682
 11
1562.8542
 21
4243.4499
  0
LINE
  8
_0-2_躯体
  6
CONTINUOUS
 62
    3
 10
1562.8542
 20
4243.4499
 11
1561.5275
 21
4242.4751
  0
LINE
  8
_0-2_躯体
  6
CONTINUOUS
 62
    3
 10
1561.5275
 20
4242.4751
 11
1560.3822
 21
4241.2734
  0
LINE
  8
_0-2_躯体
  6
CONTINUOUS
 62
    3
 10
1560.3822
 20
4241.2734
 11
1559.4532
 21
4239.8812
  0
LINE
  8
_0-2_躯体
  6
CONTINUOUS
 62
    3
 10
1559.4532
 20
4239.8812
 11
1558.7687
 21
4238.3409
  0
LINE
  8
_0-2_躯体
  6
CONTINUOUS
 62
    3
 10
1558.7687
 20
4238.3409
 11
1558.3496
 21
4236.6993
  0
LINE
  8
_0-2_躯体
  6
CONTINUOUS
 62
    3
 10
1558.3496
 20
4236.6993
 11
1558.2084
 21
4235.0063
  0
LINE
  8
_0-2_躯体
  6
CONTINUOUS
 62
    3
 10
1558.2084
 20
4235.0063
 11
1558.3496
 21
4233.3132
  0
LINE
  8
_0-2_躯体
  6
CONTINUOUS
 62
    3
 10
1558.3496
 20
4233.3132
 11
1558.7687
 21
4231.6716
  0
LINE
  8
_0-2_躯体
  6
CONTINUOUS
 62
    3
 10
1558.7687
 20
4231.6716
 11
1559.4532
 21
4230.1313
  0
LINE
  8
_0-2_躯体
  6
CONTINUOUS
 62
    3
 10
1559.4532
 20
4230.1313
 11
1560.3822
 21
4228.7391
  0
LINE
  8
_0-2_躯体
  6
CONTINUOUS
 62
    3
 10
1560.3822
 20
4228.7391
 11
1561.5275
 21
4227.5374
  0
LINE
  8
_0-2_躯体
  6
CONTINUOUS
 62
    3
 10
1561.5275
 20
4227.5374
 11
1562.8542
 21
4226.5626
  0
LINE
  8
_0-2_躯体
  6
CONTINUOUS
 62
    3
 10
1562.8542
 20
4226.5626
 11
1564.3221
 21
4225.8443
  0
LINE
  8
_0-2_躯体
  6
CONTINUOUS
 62
    3
 10
1564.3221
 20
4225.8443
 11
1565.8866
 21
4225.4045
  0
LINE
  8
_0-2_躯体
  6
CONTINUOUS
 62
    3
 10
1565.8866
 20
4225.4045
 11
1567.5
 21
4225.2564
  0
LINE
  8
_0-2_躯体
  6
CONTINUOUS
 62
    3
 10
1567.5
 20
4225.2564
 11
1567.5
 21
4225.2564
  0
LINE
  8
_0-2_躯体
  6
CONTINUOUS
 62
    3
 10
2899.9999
 20
4515.2568
 11
2899.9999
 21
4515.2568
  0
LINE
  8
_0-2_躯体
  6
CONTINUOUS
 62
    3
 10
2899.9999
 20
4515.2568
 11
2901.6133
 21
4515.4049
  0
LINE
  8
_0-2_躯体
  6
CONTINUOUS
 62
    3
 10
2901.6133
 20
4515.4049
 11
2903.1778
 21
4515.8448
  0
LINE
  8
_0-2_躯体
  6
CONTINUOUS
 62
    3
 10
2903.1778
 20
4515.8448
 11
2904.6457
 21
4516.5631
  0
LINE
  8
_0-2_躯体
  6
CONTINUOUS
 62
    3
 10
2904.6457
 20
4516.5631
 11
2905.9724
 21
4517.5379
  0
LINE
  8
_0-2_躯体
  6
CONTINUOUS
 62
    3
 10
2905.9724
 20
4517.5379
 11
2907.1177
 21
4518.7396
  0
LINE
  8
_0-2_躯体
  6
CONTINUOUS
 62
    3
 10
2907.1177
 20
4518.7396
 11
2908.0467
 21
4520.1318
  0
LINE
  8
_0-2_躯体
  6
CONTINUOUS
 62
    3
 10
2908.0467
 20
4520.1318
 11
2908.7312
 21
4521.6721
  0
LINE
  8
_0-2_躯体
  6
CONTINUOUS
 62
    3
 10
2908.7312
 20
4521.6721
 11
2909.1504
 21
4523.3137
  0
LINE
  8
_0-2_躯体
  6
CONTINUOUS
 62
    3
 10
2909.1504
 20
4523.3137
 11
2909.2915
 21
4525.0067
  0
LINE
  8
_0-2_躯体
  6
CONTINUOUS
 62
    3
 10
2909.2915
 20
4525.0067
 11
2909.1504
 21
4526.6998
  0
LINE
  8
_0-2_躯体
  6
CONTINUOUS
 62
    3
 10
2909.1504
 20
4526.6998
 11
2908.7312
 21
4528.3414
  0
LINE
  8
_0-2_躯体
  6
CONTINUOUS
 62
    3
 10
2908.7312
 20
4528.3414
 11
2908.0467
 21
4529.8817
  0
LINE
  8
_0-2_躯体
  6
CONTINUOUS
 62
    3
 10
2908.0467
 20
4529.8817
 11
2907.1177
 21
4531.2738
  0
LINE
  8
_0-2_躯体
  6
CONTINUOUS
 62
    3
 10
2907.1177
 20
4531.2738
 11
2905.9724
 21
4532.4756
  0
LINE
  8
_0-2_躯体
  6
CONTINUOUS
 62
    3
 10
2905.9724
 20
4532.4756
 11
2904.6457
 21
4533.4504
  0
LINE
  8
_0-2_躯体
  6
CONTINUOUS
 62
    3
 10
2904.6457
 20
4533.4504
 11
2903.1778
 21
4534.1686
  0
LINE
  8
_0-2_躯体
  6
CONTINUOUS
 62
    3
 10
2903.1778
 20
4534.1686
 11
2901.6133
 21
4534.6085
  0
LINE
  8
_0-2_躯体
  6
CONTINUOUS
 62
    3
 10
2901.6133
 20
4534.6085
 11
2899.9999
 21
4534.7566
  0
LINE
  8
_0-2_躯体
  6
CONTINUOUS
 62
    3
 10
2899.9999
 20
4534.7566
 11
2899.9999
 21
4534.7566
  0
LINE
  8
_0-2_躯体
  6
CONTINUOUS
 62
    3
 10
2899.9999
 20
4437.2569
 11
2899.9999
 21
4437.2569
  0
LINE
  8
_0-2_躯体
  6
CONTINUOUS
 62
    3
 10
2899.9999
 20
4437.2569
 11
2901.6133
 21
4437.405
  0
LINE
  8
_0-2_躯体
  6
CONTINUOUS
 62
    3
 10
2901.6133
 20
4437.405
 11
2903.1778
 21
4437.8448
  0
LINE
  8
_0-2_躯体
  6
CONTINUOUS
 62
    3
 10
2903.1778
 20
4437.8448
 11
2904.6457
 21
4438.5631
  0
LINE
  8
_0-2_躯体
  6
CONTINUOUS
 62
    3
 10
2904.6457
 20
4438.5631
 11
2905.9724
 21
4439.5379
  0
LINE
  8
_0-2_躯体
  6
CONTINUOUS
 62
    3
 10
2905.9724
 20
4439.5379
 11
2907.1177
 21
4440.7396
  0
LINE
  8
_0-2_躯体
  6
CONTINUOUS
 62
    3
 10
2907.1177
 20
4440.7396
 11
2908.0467
 21
4442.1318
  0
LINE
  8
_0-2_躯体
  6
CONTINUOUS
 62
    3
 10
2908.0467
 20
4442.1318
 11
2908.7312
 21
4443.6721
  0
LINE
  8
_0-2_躯体
  6
CONTINUOUS
 62
    3
 10
2908.7312
 20
4443.6721
 11
2909.1504
 21
4445.3137
  0
LINE
  8
_0-2_躯体
  6
CONTINUOUS
 62
    3
 10
2909.1504
 20
4445.3137
 11
2909.2915
 21
4447.0068
  0
LINE
  8
_0-2_躯体
  6
CONTINUOUS
 62
    3
 10
2909.2915
 20
4447.0068
 11
2909.1504
 21
4448.6998
  0
LINE
  8
_0-2_躯体
  6
CONTINUOUS
 62
    3
 10
2909.1504
 20
4448.6998
 11
2908.7312
 21
4450.3414
  0
LINE
  8
_0-2_躯体
  6
CONTINUOUS
 62
    3
 10
2908.7312
 20
4450.3414
 11
2908.0467
 21
4451.8817
  0
LINE
  8
_0-2_躯体
  6
CONTINUOUS
 62
    3
 10
2908.0467
 20
4451.8817
 11
2907.1177
 21
4453.2739
  0
LINE
  8
_0-2_躯体
  6
CONTINUOUS
 62
    3
 10
2907.1177
 20
4453.2739
 11
2905.9724
 21
4454.4756
  0
LINE
  8
_0-2_躯体
  6
CONTINUOUS
 62
    3
 10
2905.9724
 20
4454.4756
 11
2904.6457
 21
4455.4504
  0
LINE
  8
_0-2_躯体
  6
CONTINUOUS
 62
    3
 10
2904.6457
 20
4455.4504
 11
2903.1778
 21
4456.1687
  0
LINE
  8
_0-2_躯体
  6
CONTINUOUS
 62
    3
 10
2903.1778
 20
4456.1687
 11
2901.6133
 21
4456.6085
  0
LINE
  8
_0-2_躯体
  6
CONTINUOUS
 62
    3
 10
2901.6133
 20
4456.6085
 11
2899.9999
 21
4456.7567
  0
LINE
  8
_0-2_躯体
  6
CONTINUOUS
 62
    3
 10
2899.9999
 20
4456.7567
 11
2899.9999
 21
4456.7567
  0
LINE
  8
_0-2_躯体
  6
CONTINUOUS
 62
    3
 10
2632.4999
 20
4225.2564
 11
2632.4999
 21
4225.2564
  0
LINE
  8
_0-2_躯体
  6
CONTINUOUS
 62
    3
 10
2632.4999
 20
4225.2564
 11
2634.1133
 21
4225.4045
  0
LINE
  8
_0-2_躯体
  6
CONTINUOUS
 62
    3
 10
2634.1133
 20
4225.4045
 11
2635.6778
 21
4225.8443
  0
LINE
  8
_0-2_躯体
  6
CONTINUOUS
 62
    3
 10
2635.6778
 20
4225.8443
 11
2637.1457
 21
4226.5626
  0
LINE
  8
_0-2_躯体
  6
CONTINUOUS
 62
    3
 10
2637.1457
 20
4226.5626
 11
2638.4724
 21
4227.5374
  0
LINE
  8
_0-2_躯体
  6
CONTINUOUS
 62
    3
 10
2638.4724
 20
4227.5374
 11
2639.6177
 21
4228.7391
  0
LINE
  8
_0-2_躯体
  6
CONTINUOUS
 62
    3
 10
2639.6177
 20
4228.7391
 11
2640.5467
 21
4230.1313
  0
LINE
  8
_0-2_躯体
  6
CONTINUOUS
 62
    3
 10
2640.5467
 20
4230.1313
 11
2641.2312
 21
4231.6716
  0
LINE
  8
_0-2_躯体
  6
CONTINUOUS
 62
    3
 10
2641.2312
 20
4231.6716
 11
2641.6503
 21
4233.3132
  0
LINE
  8
_0-2_躯体
  6
CONTINUOUS
 62
    3
 10
2641.6503
 20
4233.3132
 11
2641.7915
 21
4235.0063
  0
LINE
  8
_0-2_躯体
  6
CONTINUOUS
 62
    3
 10
2641.7915
 20
4235.0063
 11
2641.6503
 21
4236.6993
  0
LINE
  8
_0-2_躯体
  6
CONTINUOUS
 62
    3
 10
2641.6503
 20
4236.6993
 11
2641.2312
 21
4238.3409
  0
LINE
  8
_0-2_躯体
  6
CONTINUOUS
 62
    3
 10
2641.2312
 20
4238.3409
 11
2640.5467
 21
4239.8812
  0
LINE
  8
_0-2_躯体
  6
CONTINUOUS
 62
    3
 10
2640.5467
 20
4239.8812
 11
2639.6177
 21
4241.2734
  0
LINE
  8
_0-2_躯体
  6
CONTINUOUS
 62
    3
 10
2639.6177
 20
4241.2734
 11
2638.4724
 21
4242.4751
  0
LINE
  8
_0-2_躯体
  6
CONTINUOUS
 62
    3
 10
2638.4724
 20
4242.4751
 11
2637.1457
 21
4243.4499
  0
LINE
  8
_0-2_躯体
  6
CONTINUOUS
 62
    3
 10
2637.1457
 20
4243.4499
 11
2635.6778
 21
4244.1682
  0
LINE
  8
_0-2_躯体
  6
CONTINUOUS
 62
    3
 10
2635.6778
 20
4244.1682
 11
2634.1133
 21
4244.608
  0
LINE
  8
_0-2_躯体
  6
CONTINUOUS
 62
    3
 10
2634.1133
 20
4244.608
 11
2632.4999
 21
4244.7562
  0
LINE
  8
_0-2_躯体
  6
CONTINUOUS
 62
    3
 10
2632.4999
 20
4244.7562
 11
2632.4999
 21
4244.7562
  0
LINE
  8
_0-2_躯体
  6
CONTINUOUS
 62
    3
 10
2632.4999
 20
4225.2564
 11
2632.4999
 21
4225.2564
  0
LINE
  8
_0-2_躯体
  6
CONTINUOUS
 62
    3
 10
2632.4999
 20
4225.2564
 11
2634.1133
 21
4225.4045
  0
LINE
  8
_0-2_躯体
  6
CONTINUOUS
 62
    3
 10
2634.1133
 20
4225.4045
 11
2635.6778
 21
4225.8443
  0
LINE
  8
_0-2_躯体
  6
CONTINUOUS
 62
    3
 10
2635.6778
 20
4225.8443
 11
2637.1457
 21
4226.5626
  0
LINE
  8
_0-2_躯体
  6
CONTINUOUS
 62
    3
 10
2637.1457
 20
4226.5626
 11
2638.4724
 21
4227.5374
  0
LINE
  8
_0-2_躯体
  6
CONTINUOUS
 62
    3
 10
2638.4724
 20
4227.5374
 11
2639.6177
 21
4228.7391
  0
LINE
  8
_0-2_躯体
  6
CONTINUOUS
 62
    3
 10
2639.6177
 20
4228.7391
 11
2640.5467
 21
4230.1313
  0
LINE
  8
_0-2_躯体
  6
CONTINUOUS
 62
    3
 10
2640.5467
 20
4230.1313
 11
2641.2312
 21
4231.6716
  0
LINE
  8
_0-2_躯体
  6
CONTINUOUS
 62
    3
 10
2641.2312
 20
4231.6716
 11
2641.6503
 21
4233.3132
  0
LINE
  8
_0-2_躯体
  6
CONTINUOUS
 62
    3
 10
2641.6503
 20
4233.3132
 11
2641.7915
 21
4235.0063
  0
LINE
  8
_0-2_躯体
  6
CONTINUOUS
 62
    3
 10
2641.7915
 20
4235.0063
 11
2641.6503
 21
4236.6993
  0
LINE
  8
_0-2_躯体
  6
CONTINUOUS
 62
    3
 10
2641.6503
 20
4236.6993
 11
2641.2312
 21
4238.3409
  0
LINE
  8
_0-2_躯体
  6
CONTINUOUS
 62
    3
 10
2641.2312
 20
4238.3409
 11
2640.5467
 21
4239.8812
  0
LINE
  8
_0-2_躯体
  6
CONTINUOUS
 62
    3
 10
2640.5467
 20
4239.8812
 11
2639.6177
 21
4241.2734
  0
LINE
  8
_0-2_躯体
  6
CONTINUOUS
 62
    3
 10
2639.6177
 20
4241.2734
 11
2638.4724
 21
4242.4751
  0
LINE
  8
_0-2_躯体
  6
CONTINUOUS
 62
    3
 10
2638.4724
 20
4242.4751
 11
2637.1457
 21
4243.4499
  0
LINE
  8
_0-2_躯体
  6
CONTINUOUS
 62
    3
 10
2637.1457
 20
4243.4499
 11
2635.6778
 21
4244.1682
  0
LINE
  8
_0-2_躯体
  6
CONTINUOUS
 62
    3
 10
2635.6778
 20
4244.1682
 11
2634.1133
 21
4244.608
  0
LINE
  8
_0-2_躯体
  6
CONTINUOUS
 62
    3
 10
2634.1133
 20
4244.608
 11
2632.4999
 21
4244.7562
  0
LINE
  8
_0-2_躯体
  6
CONTINUOUS
 62
    3
 10
2632.4999
 20
4244.7562
 11
2632.4999
 21
4244.7562
  0
TEXT
  8
_0-d_文字
 62
    7
 10
509.99969
 20
310.13513
 40
50
 41
1
 50
0
  1
図
  0
TEXT
  8
_0-d_文字
 62
    7
 10
509.99969
 20
190.1352
 40
50
 41
1
 50
0
  1
番
  0
TEXT
  8
_0-d_文字
 62
    7
 10
1309.9997
 20
310.13513
 40
50
 41
1
 50
0
  1
承
  0
TEXT
  8
_0-d_文字
 62
    7
 10
1309.9997
 20
190.1352
 40
50
 41
1
 50
0
  1
認
  0
TEXT
  8
_0-d_文字
 62
    7
 10
2039.9996
 20
470.13522
 40
50
 41
1
 50
0
  1
尺
  0
TEXT
  8
_0-d_文字
 62
    7
 10
2039.9996
 20
390.13527
 40
50
 41
1
 50
-0.0001417
  1
度
  0
TEXT
  8
_0-d_文字
 62
    7
 10
1709.9997
 20
310.13513
 40
50
 41
1
 50
0
  1
製
  0
TEXT
  8
_0-d_文字
 62
    7
 10
1709.9997
 20
190.1352
 40
50
 41
1
 50
0
  1
図
  0
TEXT
  8
_0-d_文字
 62
    7
 10
3109.9998
 20
470.13522
 40
50
 41
1
 50
0
  1
日
  0
TEXT
  8
_0-d_文字
 62
    7
 10
3109.9998
 20
390.13527
 40
50
 41
1
 50
-0.0001417
  1
付
  0
TEXT
  8
_0-d_文字
 62
    7
 10
2222.8519
 20
322.09974
 40
40
 41
1
 50
0
  1
株式
  0
TEXT
  8
_0-d_文字
 62
    7
 10
2222.8519
 20
278.83888
 40
40
 41
1
 50
0.0000196
  1
会社
  0
TEXT
  8
_0-d_文字
 62
    3
 10
2348.4483
 20
281.62988
 40
80
 41
1
 50
-0.0000039
  1
スズキベンチレーター
  0
TEXT
  8
_0-d_文字
 62
    7
 10
2475.8353
 20
183.18396
 40
40
 41
1
 50
0
  1
TEL(054)296-7000  FAX(054)296-7001
  0
TEXT
  8
_0-d_文字
 62
    3
 10
2168.6976
 20
415.33665
 40
80
 41
1
 50
0
  1
１／２０
  0
TEXT
  8
_0-8_寸法
 62
    3
 10
998.27517
 20
4377.3816
 40
60
 41
1
 50
90
  1
900
  0
TEXT
  8
_0-8_寸法
 62
    3
 10
2045.6251
 20
5110.9972
 40
60
 41
1
 50
0
  1
1,600
  0
TEXT
  8
_0-8_寸法
 62
    3
 10
1937.0858
 20
3806.0928
 40
60
 41
1
 50
-0.0000746
  1
1,270x1,270
  0
TEXT
  8
_0-d_文字
 62
    7
 10
2471.3581
 20
232.42737
 40
40
 41
1
 50
-0.0000034
  1
〒421-2114　静岡市葵区安倍口新田１５２番地
  0
TEXT
  8
_0-d_文字
 62
    3
 10
510.00002
 20
5545.4025
 40
100
 41
1
 50
0
  1
ＳＴ－１０５Ｌ　架台型（低騒音）立面
  0
TEXT
  8
_0-d_文字
 62
    3
 10
562.32177
 20
415.2802
 40
60
 41
1
 50
0
  1
ＳＴ－１０５Ｌ　架台型（低騒音）立面
  0
TEXT
  8
_0-d_文字
 62
    3
 10
596.67529
 20
287.90674
 40
60
 41
1
 50
0
  1
105L-01b
  0
POINT
  8
_0-8_寸法
 62
    2
 10
1013.2748
 20
4056.7565
  0
POINT
  8
_0-8_寸法
 62
    2
 10
1013.2748
 20
4956.7565
  0
POINT
  8
_0-8_寸法
 62
    2
 10
1300
 20
5095.9969
  0
POINT
  8
_0-8_寸法
 62
    2
 10
2899.9999
 20
5095.9969
  0
POINT
  8
_0-8_寸法
 62
    2
 10
1464.9998
 20
3791.1499
  0
POINT
  8
_0-8_寸法
 62
    2
 10
2735.0001
 20
3791.1499
  0
ENDSEC
  0
EOF
