  0
SECTION
  2
HEADER
  9
$ACADVER
  1
AC1009
  9
$INSBASE
 10
0
 20
0
 30
0
  9
$EXTMIN
 10
0
 20
0
  9
$EXTMAX
 10
8400
 20
5940
  9
$LIMMIN
 10
0
 20
0
  9
$LIMMAX
 10
8400
 20
5940
  9
$LTSCALE
 40
20
  0
ENDSEC
  0
SECTION
  2
TABLES
  0
TABLE
  2
LTYPE
 70
     9
  0
LTYPE
  2
CONTINUOUS
 70
    64
  3
実線
 72
    65
 73
     0
 40
0.0
  0
LTYPE
  2
DASHED1
 70
    64
  3
--  --  --  --  --  --  --  --  
 72
    65
 73
     2
 40
2.5
 49
1.25
 49
-1.25
  0
LTYPE
  2
DASHED2
 70
    64
  3
----    ----    ----    ----    
 72
    65
 73
     2
 40
5.0
 49
2.5
 49
-2.5
  0
LTYPE
  2
DASHED3
 70
    64
  3
------  ------  ------  ------  
 72
    65
 73
     2
 40
5.0
 49
3.75
 49
-1.25
  0
LTYPE
  2
CENTER1
 70
    64
  3
----- - ----- - ----- - ----- - 
 72
    65
 73
     4
 40
10.0
 49
6.25
 49
-1.25
 49
1.25
 49
-1.25
  0
LTYPE
  2
CENTER2
 70
    64
  3
----------  --  ----------  --  
 72
    65
 73
     4
 40
20.0
 49
12.5
 49
-2.5
 49
2.5
 49
-2.5
  0
LTYPE
  2
PHANTOM1
 70
    64
  3
--- - - --- - - --- - - --- - - 
 72
    65
 73
     6
 40
10.0
 49
3.25
 49
-1.25
 49
1.25
 49
-1.25
 49
1.25
 49
-1.25
  0
LTYPE
  2
PHANTOM2
 70
    64
  3
--------  -  -  --------  -  -  
 72
    65
 73
     6
 40
20.0
 49
10.0
 49
-2.5
 49
1.25
 49
-2.5
 49
1.25
 49
-2.5
  0
LTYPE
  2
DOT
 70
    64
  3
-   -   -   -   -   -   -   -   
 72
    65
 73
     2
 40
2.5
 49
0.625
 49
-1.875
  0
LTYPE
  2
DUMMY
 70
    64
  3
ダミー
 72
    65
 73
     0
 40
0.0
  0
LTYPE
  2
RAND1
 70
    64
  3
----- - ----- - ----- - ----- - 
 72
    65
 73
     4
 40
10.0
 49
6.25
 49
-1.25
 49
1.25
 49
-1.25
  0
LTYPE
  2
RAND2
 70
    64
  3
----------  --  ----------  --  
 72
    65
 73
     4
 40
20.0
 49
12.5
 49
-2.5
 49
2.5
 49
-2.5
  0
LTYPE
  2
RAND3
 70
    64
  3
--- - - --- - - --- - - --- - - 
 72
    65
 73
     6
 40
10.0
 49
3.25
 49
-1.25
 49
1.25
 49
-1.25
 49
1.25
 49
-1.25
  0
LTYPE
  2
RAND4
 70
    64
  3
--------  -  -  --------  -  -  
 72
    65
 73
     6
 40
20.0
 49
10.0
 49
-2.5
 49
1.25
 49
-2.5
 49
1.25
 49
-2.5
  0
LTYPE
  2
RAND5
 70
    64
  3
----- - ----- - ----- - ----- - 
 72
    65
 73
     4
 40
10.0
 49
6.25
 49
-1.25
 49
1.25
 49
-1.25
  0
LTYPE
  2
LONG1
 70
    64
  3
----------  --  ----------  --  
 72
    65
 73
     4
 40
20.0
 49
12.5
 49
-2.5
 49
2.5
 49
-2.5
  0
LTYPE
  2
LONG2
 70
    64
  3
--- - - --- - - --- - - --- - - 
 72
    65
 73
     6
 40
10.0
 49
3.25
 49
-1.25
 49
1.25
 49
-1.25
 49
1.25
 49
-1.25
  0
LTYPE
  2
LONG3
 70
    64
  3
--------  -  -  --------  -  -  
 72
    65
 73
     6
 40
20.0
 49
10.0
 49
-2.5
 49
1.25
 49
-2.5
 49
1.25
 49
-2.5
  0
LTYPE
  2
LONG4
 70
    64
  3
----- - ----- - ----- - ----- - 
 72
    65
 73
     4
 40
10.0
 49
6.25
 49
-1.25
 49
1.25
 49
-1.25
  0
LTYPE
  2
LONG5
 70
    64
  3
----------  --  ----------  --  
 72
    65
 73
     4
 40
20.0
 49
12.5
 49
-2.5
 49
2.5
 49
-2.5
  0
ENDTAB
  0
TABLE
  2
STYLE
  5
3
100
AcDbSymbolTable
 70
     1
  0
STYLE
  5
10
100
AcDbSymbolTableRecord
100
AcDbTextStyleTableRecord
  2
STANDARD
 70
     0
 40
0.0
 41
1.0
 50
0.0
 71
     0
 42
0.2
  3
txt
  4
bigfont.shx
  0
STYLE
  5
26
100
AcDbSymbolTableRecord
100
AcDbTextStyleTableRecord
  2
TATEGAKI
 70
    68
 40
0.0
 41
1.0
 50
0.0
 71
     0
 42
1.0
  3
txt
  4
bigfont.shx
  0
ENDTAB
  0
TABLE
  2
LAYER
 70
    5
  0
LAYER
  2
_0-1_基準線
 70
   64
 62
    7
  6
CONTINUOUS
  0
LAYER
  2
_0-2_躯体
 70
   64
 62
    7
  6
CONTINUOUS
  0
LAYER
  2
_0-8_寸法
 70
   64
 62
    7
  6
CONTINUOUS
  0
LAYER
  2
_0-d_文字
 70
   64
 62
    7
  6
CONTINUOUS
  0
LAYER
  2
ADD_LINE
 70
   64
 62
    7
  6
CONTINUOUS
  0
ENDTAB
  0
ENDSEC
  0
SECTION
  2
BLOCKS
  0
ENDSEC
  0
SECTION
  2
ENTITIES
  0
LINE
  8
_0-d_文字
  6
CONTINUOUS
 62
    7
 10
500.00004
 20
5515.4024
 11
3700
 21
5515.4024
  0
LINE
  8
_0-d_文字
  6
CONTINUOUS
 62
    7
 10
500.00004
 20
5535.4025
 11
3700
 21
5535.4025
  0
LINE
  8
_0-8_寸法
  6
CONTINUOUS
 62
    7
 10
3249.5715
 20
3120.3713
 11
3249.5715
 21
3720.3713
  0
LINE
  8
_0-8_寸法
  6
CONTINUOUS
 62
    7
 10
2923.7543
 20
3602.6914
 11
3249.5715
 21
3602.6914
  0
LINE
  8
_0-8_寸法
  6
CONTINUOUS
 62
    7
 10
2923.7543
 20
3720.3713
 11
3249.5715
 21
3720.3713
  0
LINE
  8
_0-8_寸法
  6
CONTINUOUS
 62
    7
 10
1597.4373
 20
1517.842
 11
2602.5626
 21
1869.9058
  0
LINE
  8
_0-8_寸法
  6
CONTINUOUS
 62
    7
 10
1475
 20
3068.8088
 11
1475
 21
2833.7419
  0
LINE
  8
_0-d_文字
  6
CONTINUOUS
 62
    7
 10
1037.6054
 20
3187.9599
 11
1201.8872
 21
3187.9599
  0
LINE
  8
_0-d_文字
  6
CONTINUOUS
 62
    7
 10
1037.6054
 20
3187.9599
 11
1201.8872
 21
3237.242
  0
LINE
  8
_0-d_文字
  6
CONTINUOUS
 62
    7
 10
1201.8872
 20
3187.9599
 11
1201.8872
 21
3237.242
  0
LINE
  8
_0-2_躯体
  6
CONTINUOUS
 62
    3
 10
2949.9998
 20
2543.8751
 11
1250.0001
 21
2543.8751
  0
LINE
  8
_0-2_躯体
  6
CONTINUOUS
 62
    3
 10
2949.9998
 20
2543.8751
 11
2949.9998
 21
843.87489
  0
LINE
  8
_0-2_躯体
  6
CONTINUOUS
 62
    3
 10
1250.0001
 20
2543.8751
 11
1250.0001
 21
843.87489
  0
LINE
  8
_0-2_躯体
  6
CONTINUOUS
 62
    3
 10
2724.9998
 20
2318.8751
 11
2579.2097
 21
2173.0845
  0
LINE
  8
_0-2_躯体
  6
CONTINUOUS
 62
    3
 10
1475
 20
2318.8751
 11
1620.7901
 21
2173.0845
  0
LINE
  8
_0-8_寸法
  6
CONTINUOUS
 62
    7
 10
950.42848
 20
843.87489
 11
950.42848
 21
2543.8751
  0
LINE
  8
_0-1_基準線
  6
CENTER2
 62
    7
 10
2949.9998
 20
1693.8746
 11
1250.0001
 21
1693.8746
  0
LINE
  8
_0-2_躯体
  6
CONTINUOUS
 62
    3
 10
2627.5001
 20
3720.3713
 11
2627.5001
 21
3695.3709
  0
LINE
  8
_0-2_躯体
  6
CONTINUOUS
 62
    3
 10
2627.5001
 20
3683.3711
 11
2627.5001
 21
3600.3709
  0
LINE
  8
_0-8_寸法
  6
CONTINUOUS
 62
    3
 10
2627.5001
 20
3600.3709
 11
2724.9998
 21
3120.3713
  0
LINE
  8
_0-2_躯体
  6
CONTINUOUS
 62
    3
 10
1572.4999
 20
3720.3713
 11
1572.4999
 21
3695.3709
  0
LINE
  8
_0-2_躯体
  6
CONTINUOUS
 62
    3
 10
1572.4999
 20
3683.3711
 11
1572.4999
 21
3600.3709
  0
LINE
  8
_0-8_寸法
  6
CONTINUOUS
 62
    3
 10
2627.5001
 20
3695.3709
 11
1572.4999
 21
3695.3709
  0
LINE
  8
_0-8_寸法
  6
CONTINUOUS
 62
    3
 10
2627.5001
 20
3683.3711
 11
1572.4999
 21
3683.3711
  0
LINE
  8
_0-8_寸法
  6
CONTINUOUS
 62
    7
 10
2627.5001
 20
3919.7553
 11
1572.4999
 21
3919.7553
  0
LINE
  8
_0-2_躯体
  6
CONTINUOUS
 62
    3
 10
2627.5001
 20
3720.3713
 11
1572.4999
 21
3720.3713
  0
LINE
  8
_0-2_躯体
  6
CONTINUOUS
 62
    3
 10
2627.5001
 20
3600.3709
 11
1572.4999
 21
3600.3709
  0
LINE
  8
_0-8_寸法
  6
CONTINUOUS
 62
    3
 10
1572.4999
 20
3600.3709
 11
1475
 21
3120.3713
  0
LINE
  8
_0-2_躯体
  6
CONTINUOUS
 62
    3
 10
2724.9998
 20
1068.8748
 11
2579.2097
 21
1214.6651
  0
LINE
  8
_0-2_躯体
  6
CONTINUOUS
 62
    3
 10
1475
 20
1068.8748
 11
1620.7901
 21
1214.6651
  0
LINE
  8
_0-8_寸法
  6
CONTINUOUS
 62
    7
 10
3006.081
 20
1068.8748
 11
3249.5715
 21
1068.8748
  0
LINE
  8
_0-8_寸法
  6
CONTINUOUS
 62
    7
 10
3249.5715
 20
1068.8748
 11
3249.5715
 21
2318.8751
  0
LINE
  8
_0-8_寸法
  6
CONTINUOUS
 62
    7
 10
3006.081
 20
2318.8751
 11
3249.5715
 21
2318.8751
  0
LINE
  8
_0-d_文字
  6
CONTINUOUS
 62
    7
 10
499.99979
 20
375.13522
 11
3699.9998
 21
375.13522
  0
LINE
  8
_0-d_文字
  6
CONTINUOUS
 62
    7
 10
499.99979
 20
175.13518
 11
499.99979
 21
535.13513
  0
LINE
  8
_0-d_文字
  6
CONTINUOUS
 62
    7
 10
499.99979
 20
175.13518
 11
3699.9998
 21
175.13518
  0
LINE
  8
_0-d_文字
  6
CONTINUOUS
 62
    7
 10
2100
 20
535.13513
 11
2100
 21
175.13518
  0
LINE
  8
_0-d_文字
  6
CONTINUOUS
 62
    7
 10
1299.9999
 20
175.13518
 11
1299.9999
 21
375.13522
  0
LINE
  8
_0-d_文字
  6
CONTINUOUS
 62
    7
 10
2100
 20
375.13522
 11
2100
 21
535.13513
  0
LINE
  8
_0-d_文字
  6
CONTINUOUS
 62
    7
 10
1699.9999
 20
175.13518
 11
1699.9999
 21
375.13522
  0
LINE
  8
_0-d_文字
  6
CONTINUOUS
 62
    7
 10
569.99965
 20
175.13518
 11
569.99965
 21
375.13522
  0
LINE
  8
_0-d_文字
  6
CONTINUOUS
 62
    7
 10
1369.9995
 20
175.13518
 11
1369.9995
 21
375.13522
  0
LINE
  8
_0-d_文字
  6
CONTINUOUS
 62
    7
 10
1769.9995
 20
175.13518
 11
1769.9995
 21
375.13522
  0
LINE
  8
_0-d_文字
  6
CONTINUOUS
 62
    7
 10
2029.9998
 20
375.13522
 11
2029.9998
 21
535.13513
  0
LINE
  8
_0-d_文字
  6
CONTINUOUS
 62
    7
 10
3099.9998
 20
375.13522
 11
3099.9998
 21
535.13513
  0
LINE
  8
_0-d_文字
  6
CONTINUOUS
 62
    7
 10
3169.9995
 20
375.13522
 11
3169.9995
 21
535.13513
  0
LINE
  8
_0-8_寸法
  6
CONTINUOUS
 62
    7
 10
2724.9998
 20
2833.7419
 11
1475
 21
2833.7419
  0
LINE
  8
_0-d_文字
  6
CONTINUOUS
 62
    7
 10
499.99979
 20
535.13513
 11
3699.9998
 21
535.13513
  0
LINE
  8
_0-d_文字
  6
CONTINUOUS
 62
    7
 10
3699.9998
 20
535.13513
 11
3699.9998
 21
175.13518
  0
LINE
  8
_0-2_躯体
  6
CONTINUOUS
 62
    3
 10
2100
 20
3309.5271
 11
2949.9998
 21
3052.2748
  0
LINE
  8
_0-8_寸法
  6
CONTINUOUS
 62
    7
 10
1572.4999
 20
3753.6014
 11
1572.4999
 21
3919.7553
  0
LINE
  8
_0-8_寸法
  6
CONTINUOUS
 62
    7
 10
2627.5001
 20
3753.6014
 11
2627.5001
 21
3919.7553
  0
LINE
  8
_0-8_寸法
  6
CONTINUOUS
 62
    7
 10
1145.2702
 20
2543.8751
 11
950.42848
 21
2543.8751
  0
LINE
  8
_0-2_躯体
  6
CONTINUOUS
 62
    3
 10
2949.9998
 20
843.87489
 11
1250.0001
 21
843.87489
  0
LINE
  8
_0-8_寸法
  6
CONTINUOUS
 62
    7
 10
1108.7837
 20
843.87489
 11
950.42848
 21
843.87489
  0
LINE
  8
_0-8_寸法
  6
CONTINUOUS
 62
    7
 10
2724.9998
 20
3045.1218
 11
2724.9998
 21
2833.7419
  0
LINE
  8
_0-2_躯体
  6
CONTINUOUS
 62
    3
 10
2100
 20
3309.5271
 11
1250
 21
3052.2748
  0
LINE
  8
_0-8_寸法
  6
CONTINUOUS
 62
    7
 10
1299.9998
 20
5325.7274
 11
2899.9996
 21
5325.7274
  0
LINE
  8
_0-2_躯体
  6
CONTINUOUS
 62
    3
 10
1300.0003
 20
5001.4862
 11
1299.9998
 21
4764.4864
  0
LINE
  8
_0-8_寸法
  6
CONTINUOUS
 62
    7
 10
1567.4996
 20
4245.129
 11
1567.4996
 21
4129.6701
  0
LINE
  8
_0-8_寸法
  6
CONTINUOUS
 62
    7
 10
2632.4994
 20
4245.129
 11
2632.4994
 21
4129.6701
  0
LINE
  8
_0-8_寸法
  6
CONTINUOUS
 62
    7
 10
1299.9998
 20
5082.0348
 11
1299.9998
 21
5325.7274
  0
LINE
  8
_0-8_寸法
  6
CONTINUOUS
 62
    7
 10
1604.5542
 20
5186.4866
 11
1013.2749
 21
5186.4866
  0
LINE
  8
_0-8_寸法
  6
CONTINUOUS
 62
    7
 10
2899.9996
 20
5082.0348
 11
2899.9996
 21
5325.7274
  0
LINE
  8
_0-2_躯体
  6
CONTINUOUS
 62
    3
 10
1299.9998
 20
4744.9871
 11
1299.9998
 21
4686.4869
  0
LINE
  8
_0-2_躯体
  6
CONTINUOUS
 62
    3
 10
1299.9998
 20
4666.9872
 11
1299.9998
 21
4621.4865
  0
LINE
  8
_0-2_躯体
  6
CONTINUOUS
 62
    3
 10
1300.0003
 20
5001.4862
 11
2100
 21
5001.4862
  0
LINE
  8
_0-2_躯体
  6
CONTINUOUS
 62
    3
 10
1299.9998
 20
4621.4865
 11
2100
 21
4621.4865
  0
LINE
  8
_0-2_躯体
  6
CONTINUOUS
 62
    3
 10
1299.9998
 20
4666.9872
 11
2100
 21
4666.9872
  0
LINE
  8
_0-2_躯体
  6
CONTINUOUS
 62
    3
 10
1299.9998
 20
4686.4869
 11
2100
 21
4686.4869
  0
LINE
  8
_0-2_躯体
  6
CONTINUOUS
 62
    3
 10
1299.9998
 20
4744.9871
 11
2100
 21
4744.9871
  0
LINE
  8
_0-2_躯体
  6
CONTINUOUS
 62
    3
 10
1299.9998
 20
4764.4864
 11
2100
 21
4764.4864
  0
LINE
  8
_0-8_寸法
  6
CONTINUOUS
 62
    7
 10
1567.4996
 20
4129.6701
 11
2632.4994
 21
4129.6701
  0
LINE
  8
_0-8_寸法
  6
CONTINUOUS
 62
    7
 10
1013.2749
 20
4311.4869
 11
1013.2749
 21
5186.4866
  0
LINE
  8
_0-8_寸法
  6
CONTINUOUS
 62
    7
 10
1313.8965
 20
4311.4869
 11
1013.2749
 21
4311.4869
  0
LINE
  8
_0-2_躯体
  6
CONTINUOUS
 62
    3
 10
1567.4996
 20
4311.4869
 11
2632.4994
 21
4311.4869
  0
LINE
  8
_0-2_躯体
  6
CONTINUOUS
 62
    3
 10
1567.4996
 20
4429.486
 11
2100
 21
4429.486
  0
LINE
  8
_0-2_躯体
  6
CONTINUOUS
 62
    3
 10
1567.4996
 20
4409.9858
 11
2100
 21
4409.9858
  0
LINE
  8
_0-2_躯体
  6
CONTINUOUS
 62
    3
 10
1567.4996
 20
4341.4865
 11
2632.4994
 21
4341.4865
  0
LINE
  8
_0-2_躯体
  6
CONTINUOUS
 62
    3
 10
1567.4996
 20
4341.4865
 11
2100
 21
4341.4865
  0
LINE
  8
_0-2_躯体
  6
CONTINUOUS
 62
    3
 10
1567.4996
 20
4360.9868
 11
2632.4994
 21
4360.9868
  0
LINE
  8
_0-2_躯体
  6
CONTINUOUS
 62
    3
 10
1567.4996
 20
4621.487
 11
1567.4996
 21
4429.486
  0
LINE
  8
_0-2_躯体
  6
CONTINUOUS
 62
    3
 10
1567.4996
 20
4409.9858
 11
1567.4996
 21
4360.9868
  0
LINE
  8
_0-2_躯体
  6
CONTINUOUS
 62
    3
 10
1567.4996
 20
4341.4865
 11
1567.4996
 21
4311.4869
  0
LINE
  8
_0-2_躯体
  6
CONTINUOUS
 62
    3
 10
2899.9996
 20
5001.4862
 11
2900.0001
 21
4764.4864
  0
LINE
  8
_0-2_躯体
  6
CONTINUOUS
 62
    3
 10
2900.0001
 20
4744.9871
 11
2900.0001
 21
4686.4869
  0
LINE
  8
_0-2_躯体
  6
CONTINUOUS
 62
    3
 10
2900.0001
 20
4666.9872
 11
2900.0001
 21
4621.4865
  0
LINE
  8
_0-2_躯体
  6
CONTINUOUS
 62
    3
 10
2900.0001
 20
4621.4865
 11
2100
 21
4621.4865
  0
LINE
  8
_0-2_躯体
  6
CONTINUOUS
 62
    3
 10
2900.0001
 20
4666.9872
 11
2100
 21
4666.9872
  0
LINE
  8
_0-2_躯体
  6
CONTINUOUS
 62
    3
 10
2900.0001
 20
4686.4869
 11
2100
 21
4686.4869
  0
LINE
  8
_0-2_躯体
  6
CONTINUOUS
 62
    3
 10
2900.0001
 20
4744.9871
 11
2100
 21
4744.9871
  0
LINE
  8
_0-2_躯体
  6
CONTINUOUS
 62
    3
 10
2900.0001
 20
4764.4864
 11
2100
 21
4764.4864
  0
LINE
  8
_0-2_躯体
  6
CONTINUOUS
 62
    3
 10
2632.5003
 20
4429.486
 11
2100
 21
4429.486
  0
LINE
  8
_0-2_躯体
  6
CONTINUOUS
 62
    3
 10
2632.5003
 20
4409.9858
 11
2100
 21
4409.9858
  0
LINE
  8
_0-2_躯体
  6
CONTINUOUS
 62
    3
 10
2632.5003
 20
4341.4865
 11
2100
 21
4341.4865
  0
LINE
  8
_0-2_躯体
  6
CONTINUOUS
 62
    3
 10
2632.5003
 20
4621.487
 11
2632.5003
 21
4429.486
  0
LINE
  8
_0-2_躯体
  6
CONTINUOUS
 62
    3
 10
2632.5003
 20
4409.9858
 11
2632.5003
 21
4360.9868
  0
LINE
  8
_0-2_躯体
  6
CONTINUOUS
 62
    3
 10
2632.5003
 20
4341.4865
 11
2632.5003
 21
4311.4869
  0
LINE
  8
_0-d_文字
  6
CENTER2
 62
    7
 10
2100
 20
664.86486
 11
2100
 21
5286.4864
  0
LINE
  8
_0-2_躯体
  6
CONTINUOUS
 62
    3
 10
2100
 20
5186.4866
 11
1271.8743
 21
4994.982
  0
LINE
  8
_0-2_躯体
  6
CONTINUOUS
 62
    3
 10
2899.9996
 20
5001.4862
 11
2100
 21
5001.4862
  0
LINE
  8
_0-2_躯体
  6
CONTINUOUS
 62
    3
 10
2100
 20
5186.4866
 11
2928.1256
 21
4994.982
  0
LINE
  8
_0-2_躯体
  6
CONTINUOUS
 62
    3
 10
1475
 20
1068.8748
 11
2724.9998
 21
1068.8748
  0
LINE
  8
_0-2_躯体
  6
CONTINUOUS
 62
    3
 10
2724.9998
 20
2318.8751
 11
2724.9998
 21
1068.8748
  0
LINE
  8
_0-2_躯体
  6
CONTINUOUS
 62
    3
 10
1475
 20
2318.8751
 11
2724.9998
 21
2318.8751
  0
LINE
  8
_0-2_躯体
  6
CONTINUOUS
 62
    3
 10
1475
 20
2318.8751
 11
1475
 21
1068.8748
  0
LINE
  8
_0-8_寸法
  6
CONTINUOUS
 62
    7
 10
2923.7543
 20
3120.3713
 11
3249.5715
 21
3120.3713
  0
CIRCLE
  8
_0-2_躯体
  6
CONTINUOUS
 62
    3
 10
2100
 20
1693.8741
 40
532.50002
  0
ARC
  8
_0-2_躯体
  6
CONTINUOUS
 62
    3
 10
2627.5001
 20
3689.371
 40
5.9999826
 50
90
 51
270
  0
ARC
  8
_0-2_躯体
  6
CONTINUOUS
 62
    3
 10
1572.4999
 20
3689.371
 40
5.9999826
 50
270
 51
90
  0
LINE
  8
_0-2_躯体
  6
CONTINUOUS
 62
    3
 10
1299.9998
 20
4764.4867
 11
1299.9998
 21
4764.4867
  0
LINE
  8
_0-2_躯体
  6
CONTINUOUS
 62
    3
 10
1299.9998
 20
4764.4867
 11
1298.3863
 21
4764.3386
  0
LINE
  8
_0-2_躯体
  6
CONTINUOUS
 62
    3
 10
1298.3863
 20
4764.3386
 11
1296.8219
 21
4763.8987
  0
LINE
  8
_0-2_躯体
  6
CONTINUOUS
 62
    3
 10
1296.8219
 20
4763.8987
 11
1295.354
 21
4763.1804
  0
LINE
  8
_0-2_躯体
  6
CONTINUOUS
 62
    3
 10
1295.354
 20
4763.1804
 11
1294.0272
 21
4762.2056
  0
LINE
  8
_0-2_躯体
  6
CONTINUOUS
 62
    3
 10
1294.0272
 20
4762.2056
 11
1292.882
 21
4761.0039
  0
LINE
  8
_0-2_躯体
  6
CONTINUOUS
 62
    3
 10
1292.882
 20
4761.0039
 11
1291.953
 21
4759.6117
  0
LINE
  8
_0-2_躯体
  6
CONTINUOUS
 62
    3
 10
1291.953
 20
4759.6117
 11
1291.2685
 21
4758.0714
  0
LINE
  8
_0-2_躯体
  6
CONTINUOUS
 62
    3
 10
1291.2685
 20
4758.0714
 11
1290.8493
 21
4756.4298
  0
LINE
  8
_0-2_躯体
  6
CONTINUOUS
 62
    3
 10
1290.8493
 20
4756.4298
 11
1290.7081
 21
4754.7368
  0
LINE
  8
_0-2_躯体
  6
CONTINUOUS
 62
    3
 10
1290.7081
 20
4754.7368
 11
1290.8493
 21
4753.0437
  0
LINE
  8
_0-2_躯体
  6
CONTINUOUS
 62
    3
 10
1290.8493
 20
4753.0437
 11
1291.2685
 21
4751.4021
  0
LINE
  8
_0-2_躯体
  6
CONTINUOUS
 62
    3
 10
1291.2685
 20
4751.4021
 11
1291.953
 21
4749.8618
  0
LINE
  8
_0-2_躯体
  6
CONTINUOUS
 62
    3
 10
1291.953
 20
4749.8618
 11
1292.882
 21
4748.4697
  0
LINE
  8
_0-2_躯体
  6
CONTINUOUS
 62
    3
 10
1292.882
 20
4748.4697
 11
1294.0272
 21
4747.2679
  0
LINE
  8
_0-2_躯体
  6
CONTINUOUS
 62
    3
 10
1294.0272
 20
4747.2679
 11
1295.354
 21
4746.2931
  0
LINE
  8
_0-2_躯体
  6
CONTINUOUS
 62
    3
 10
1295.354
 20
4746.2931
 11
1296.8219
 21
4745.5749
  0
LINE
  8
_0-2_躯体
  6
CONTINUOUS
 62
    3
 10
1296.8219
 20
4745.5749
 11
1298.3863
 21
4745.135
  0
LINE
  8
_0-2_躯体
  6
CONTINUOUS
 62
    3
 10
1298.3863
 20
4745.135
 11
1299.9998
 21
4744.9869
  0
LINE
  8
_0-2_躯体
  6
CONTINUOUS
 62
    3
 10
1299.9998
 20
4744.9869
 11
1299.9998
 21
4744.9869
  0
LINE
  8
_0-2_躯体
  6
CONTINUOUS
 62
    3
 10
1299.9998
 20
4686.4867
 11
1299.9998
 21
4686.4867
  0
LINE
  8
_0-2_躯体
  6
CONTINUOUS
 62
    3
 10
1299.9998
 20
4686.4867
 11
1298.3863
 21
4686.3386
  0
LINE
  8
_0-2_躯体
  6
CONTINUOUS
 62
    3
 10
1298.3863
 20
4686.3386
 11
1296.8219
 21
4685.8987
  0
LINE
  8
_0-2_躯体
  6
CONTINUOUS
 62
    3
 10
1296.8219
 20
4685.8987
 11
1295.354
 21
4685.1805
  0
LINE
  8
_0-2_躯体
  6
CONTINUOUS
 62
    3
 10
1295.354
 20
4685.1805
 11
1294.0272
 21
4684.2057
  0
LINE
  8
_0-2_躯体
  6
CONTINUOUS
 62
    3
 10
1294.0272
 20
4684.2057
 11
1292.882
 21
4683.0039
  0
LINE
  8
_0-2_躯体
  6
CONTINUOUS
 62
    3
 10
1292.882
 20
4683.0039
 11
1291.953
 21
4681.6118
  0
LINE
  8
_0-2_躯体
  6
CONTINUOUS
 62
    3
 10
1291.953
 20
4681.6118
 11
1291.2685
 21
4680.0715
  0
LINE
  8
_0-2_躯体
  6
CONTINUOUS
 62
    3
 10
1291.2685
 20
4680.0715
 11
1290.8493
 21
4678.4299
  0
LINE
  8
_0-2_躯体
  6
CONTINUOUS
 62
    3
 10
1290.8493
 20
4678.4299
 11
1290.7081
 21
4676.7368
  0
LINE
  8
_0-2_躯体
  6
CONTINUOUS
 62
    3
 10
1290.7081
 20
4676.7368
 11
1290.8493
 21
4675.0438
  0
LINE
  8
_0-2_躯体
  6
CONTINUOUS
 62
    3
 10
1290.8493
 20
4675.0438
 11
1291.2685
 21
4673.4022
  0
LINE
  8
_0-2_躯体
  6
CONTINUOUS
 62
    3
 10
1291.2685
 20
4673.4022
 11
1291.953
 21
4671.8619
  0
LINE
  8
_0-2_躯体
  6
CONTINUOUS
 62
    3
 10
1291.953
 20
4671.8619
 11
1292.882
 21
4670.4697
  0
LINE
  8
_0-2_躯体
  6
CONTINUOUS
 62
    3
 10
1292.882
 20
4670.4697
 11
1294.0272
 21
4669.268
  0
LINE
  8
_0-2_躯体
  6
CONTINUOUS
 62
    3
 10
1294.0272
 20
4669.268
 11
1295.354
 21
4668.2932
  0
LINE
  8
_0-2_躯体
  6
CONTINUOUS
 62
    3
 10
1295.354
 20
4668.2932
 11
1296.8219
 21
4667.5749
  0
LINE
  8
_0-2_躯体
  6
CONTINUOUS
 62
    3
 10
1296.8219
 20
4667.5749
 11
1298.3863
 21
4667.135
  0
LINE
  8
_0-2_躯体
  6
CONTINUOUS
 62
    3
 10
1298.3863
 20
4667.135
 11
1299.9998
 21
4666.9869
  0
LINE
  8
_0-2_躯体
  6
CONTINUOUS
 62
    3
 10
1299.9998
 20
4666.9869
 11
1299.9998
 21
4666.9869
  0
LINE
  8
_0-2_躯体
  6
CONTINUOUS
 62
    3
 10
1567.4996
 20
4429.4858
 11
1567.4996
 21
4429.4858
  0
LINE
  8
_0-2_躯体
  6
CONTINUOUS
 62
    3
 10
1567.4996
 20
4429.4858
 11
1565.8861
 21
4429.3377
  0
LINE
  8
_0-2_躯体
  6
CONTINUOUS
 62
    3
 10
1565.8861
 20
4429.3377
 11
1564.3216
 21
4428.8978
  0
LINE
  8
_0-2_躯体
  6
CONTINUOUS
 62
    3
 10
1564.3216
 20
4428.8978
 11
1562.8537
 21
4428.1796
  0
LINE
  8
_0-2_躯体
  6
CONTINUOUS
 62
    3
 10
1562.8537
 20
4428.1796
 11
1561.527
 21
4427.2048
  0
LINE
  8
_0-2_躯体
  6
CONTINUOUS
 62
    3
 10
1561.527
 20
4427.2048
 11
1560.3817
 21
4426.003
  0
LINE
  8
_0-2_躯体
  6
CONTINUOUS
 62
    3
 10
1560.3817
 20
4426.003
 11
1559.4527
 21
4424.6109
  0
LINE
  8
_0-2_躯体
  6
CONTINUOUS
 62
    3
 10
1559.4527
 20
4424.6109
 11
1558.7683
 21
4423.0706
  0
LINE
  8
_0-2_躯体
  6
CONTINUOUS
 62
    3
 10
1558.7683
 20
4423.0706
 11
1558.3491
 21
4421.429
  0
LINE
  8
_0-2_躯体
  6
CONTINUOUS
 62
    3
 10
1558.3491
 20
4421.429
 11
1558.2079
 21
4419.7359
  0
LINE
  8
_0-2_躯体
  6
CONTINUOUS
 62
    3
 10
1558.2079
 20
4419.7359
 11
1558.3491
 21
4418.0429
  0
LINE
  8
_0-2_躯体
  6
CONTINUOUS
 62
    3
 10
1558.3491
 20
4418.0429
 11
1558.7683
 21
4416.4013
  0
LINE
  8
_0-2_躯体
  6
CONTINUOUS
 62
    3
 10
1558.7683
 20
4416.4013
 11
1559.4527
 21
4414.861
  0
LINE
  8
_0-2_躯体
  6
CONTINUOUS
 62
    3
 10
1559.4527
 20
4414.861
 11
1560.3817
 21
4413.4688
  0
LINE
  8
_0-2_躯体
  6
CONTINUOUS
 62
    3
 10
1560.3817
 20
4413.4688
 11
1561.527
 21
4412.2671
  0
LINE
  8
_0-2_躯体
  6
CONTINUOUS
 62
    3
 10
1561.527
 20
4412.2671
 11
1562.8537
 21
4411.2923
  0
LINE
  8
_0-2_躯体
  6
CONTINUOUS
 62
    3
 10
1562.8537
 20
4411.2923
 11
1564.3216
 21
4410.574
  0
LINE
  8
_0-2_躯体
  6
CONTINUOUS
 62
    3
 10
1564.3216
 20
4410.574
 11
1565.8861
 21
4410.1341
  0
LINE
  8
_0-2_躯体
  6
CONTINUOUS
 62
    3
 10
1565.8861
 20
4410.1341
 11
1567.4996
 21
4409.986
  0
LINE
  8
_0-2_躯体
  6
CONTINUOUS
 62
    3
 10
1567.4996
 20
4409.986
 11
1567.4996
 21
4409.986
  0
LINE
  8
_0-2_躯体
  6
CONTINUOUS
 62
    3
 10
1567.4996
 20
4360.9866
 11
1567.4996
 21
4360.9866
  0
LINE
  8
_0-2_躯体
  6
CONTINUOUS
 62
    3
 10
1567.4996
 20
4360.9866
 11
1565.8861
 21
4360.8384
  0
LINE
  8
_0-2_躯体
  6
CONTINUOUS
 62
    3
 10
1565.8861
 20
4360.8384
 11
1564.3216
 21
4360.3986
  0
LINE
  8
_0-2_躯体
  6
CONTINUOUS
 62
    3
 10
1564.3216
 20
4360.3986
 11
1562.8537
 21
4359.6803
  0
LINE
  8
_0-2_躯体
  6
CONTINUOUS
 62
    3
 10
1562.8537
 20
4359.6803
 11
1561.527
 21
4358.7055
  0
LINE
  8
_0-2_躯体
  6
CONTINUOUS
 62
    3
 10
1561.527
 20
4358.7055
 11
1560.3817
 21
4357.5038
  0
LINE
  8
_0-2_躯体
  6
CONTINUOUS
 62
    3
 10
1560.3817
 20
4357.5038
 11
1559.4527
 21
4356.1116
  0
LINE
  8
_0-2_躯体
  6
CONTINUOUS
 62
    3
 10
1559.4527
 20
4356.1116
 11
1558.7683
 21
4354.5713
  0
LINE
  8
_0-2_躯体
  6
CONTINUOUS
 62
    3
 10
1558.7683
 20
4354.5713
 11
1558.3491
 21
4352.9297
  0
LINE
  8
_0-2_躯体
  6
CONTINUOUS
 62
    3
 10
1558.3491
 20
4352.9297
 11
1558.2079
 21
4351.2367
  0
LINE
  8
_0-2_躯体
  6
CONTINUOUS
 62
    3
 10
1558.2079
 20
4351.2367
 11
1558.3491
 21
4349.5436
  0
LINE
  8
_0-2_躯体
  6
CONTINUOUS
 62
    3
 10
1558.3491
 20
4349.5436
 11
1558.7683
 21
4347.902
  0
LINE
  8
_0-2_躯体
  6
CONTINUOUS
 62
    3
 10
1558.7683
 20
4347.902
 11
1559.4527
 21
4346.3617
  0
LINE
  8
_0-2_躯体
  6
CONTINUOUS
 62
    3
 10
1559.4527
 20
4346.3617
 11
1560.3817
 21
4344.9695
  0
LINE
  8
_0-2_躯体
  6
CONTINUOUS
 62
    3
 10
1560.3817
 20
4344.9695
 11
1561.527
 21
4343.7678
  0
LINE
  8
_0-2_躯体
  6
CONTINUOUS
 62
    3
 10
1561.527
 20
4343.7678
 11
1562.8537
 21
4342.793
  0
LINE
  8
_0-2_躯体
  6
CONTINUOUS
 62
    3
 10
1562.8537
 20
4342.793
 11
1564.3216
 21
4342.0747
  0
LINE
  8
_0-2_躯体
  6
CONTINUOUS
 62
    3
 10
1564.3216
 20
4342.0747
 11
1565.8861
 21
4341.6349
  0
LINE
  8
_0-2_躯体
  6
CONTINUOUS
 62
    3
 10
1565.8861
 20
4341.6349
 11
1567.4996
 21
4341.4868
  0
LINE
  8
_0-2_躯体
  6
CONTINUOUS
 62
    3
 10
1567.4996
 20
4341.4868
 11
1567.4996
 21
4341.4868
  0
LINE
  8
_0-2_躯体
  6
CONTINUOUS
 62
    3
 10
2900.0001
 20
4744.9869
 11
2900.0001
 21
4744.9869
  0
LINE
  8
_0-2_躯体
  6
CONTINUOUS
 62
    3
 10
2900.0001
 20
4744.9869
 11
2901.6136
 21
4745.135
  0
LINE
  8
_0-2_躯体
  6
CONTINUOUS
 62
    3
 10
2901.6136
 20
4745.135
 11
2903.178
 21
4745.5749
  0
LINE
  8
_0-2_躯体
  6
CONTINUOUS
 62
    3
 10
2903.178
 20
4745.5749
 11
2904.6459
 21
4746.2931
  0
LINE
  8
_0-2_躯体
  6
CONTINUOUS
 62
    3
 10
2904.6459
 20
4746.2931
 11
2905.9727
 21
4747.2679
  0
LINE
  8
_0-2_躯体
  6
CONTINUOUS
 62
    3
 10
2905.9727
 20
4747.2679
 11
2907.1179
 21
4748.4697
  0
LINE
  8
_0-2_躯体
  6
CONTINUOUS
 62
    3
 10
2907.1179
 20
4748.4697
 11
2908.0469
 21
4749.8618
  0
LINE
  8
_0-2_躯体
  6
CONTINUOUS
 62
    3
 10
2908.0469
 20
4749.8618
 11
2908.7314
 21
4751.4021
  0
LINE
  8
_0-2_躯体
  6
CONTINUOUS
 62
    3
 10
2908.7314
 20
4751.4021
 11
2909.1506
 21
4753.0437
  0
LINE
  8
_0-2_躯体
  6
CONTINUOUS
 62
    3
 10
2909.1506
 20
4753.0437
 11
2909.2918
 21
4754.7368
  0
LINE
  8
_0-2_躯体
  6
CONTINUOUS
 62
    3
 10
2909.2918
 20
4754.7368
 11
2909.1506
 21
4756.4298
  0
LINE
  8
_0-2_躯体
  6
CONTINUOUS
 62
    3
 10
2909.1506
 20
4756.4298
 11
2908.7314
 21
4758.0714
  0
LINE
  8
_0-2_躯体
  6
CONTINUOUS
 62
    3
 10
2908.7314
 20
4758.0714
 11
2908.0469
 21
4759.6117
  0
LINE
  8
_0-2_躯体
  6
CONTINUOUS
 62
    3
 10
2908.0469
 20
4759.6117
 11
2907.1179
 21
4761.0039
  0
LINE
  8
_0-2_躯体
  6
CONTINUOUS
 62
    3
 10
2907.1179
 20
4761.0039
 11
2905.9727
 21
4762.2056
  0
LINE
  8
_0-2_躯体
  6
CONTINUOUS
 62
    3
 10
2905.9727
 20
4762.2056
 11
2904.6459
 21
4763.1804
  0
LINE
  8
_0-2_躯体
  6
CONTINUOUS
 62
    3
 10
2904.6459
 20
4763.1804
 11
2903.178
 21
4763.8987
  0
LINE
  8
_0-2_躯体
  6
CONTINUOUS
 62
    3
 10
2903.178
 20
4763.8987
 11
2901.6136
 21
4764.3386
  0
LINE
  8
_0-2_躯体
  6
CONTINUOUS
 62
    3
 10
2901.6136
 20
4764.3386
 11
2900.0001
 21
4764.4867
  0
LINE
  8
_0-2_躯体
  6
CONTINUOUS
 62
    3
 10
2900.0001
 20
4764.4867
 11
2900.0001
 21
4764.4867
  0
LINE
  8
_0-2_躯体
  6
CONTINUOUS
 62
    3
 10
2900.0001
 20
4666.9869
 11
2900.0001
 21
4666.9869
  0
LINE
  8
_0-2_躯体
  6
CONTINUOUS
 62
    3
 10
2900.0001
 20
4666.9869
 11
2901.6136
 21
4667.135
  0
LINE
  8
_0-2_躯体
  6
CONTINUOUS
 62
    3
 10
2901.6136
 20
4667.135
 11
2903.178
 21
4667.5749
  0
LINE
  8
_0-2_躯体
  6
CONTINUOUS
 62
    3
 10
2903.178
 20
4667.5749
 11
2904.6459
 21
4668.2932
  0
LINE
  8
_0-2_躯体
  6
CONTINUOUS
 62
    3
 10
2904.6459
 20
4668.2932
 11
2905.9727
 21
4669.268
  0
LINE
  8
_0-2_躯体
  6
CONTINUOUS
 62
    3
 10
2905.9727
 20
4669.268
 11
2907.1179
 21
4670.4697
  0
LINE
  8
_0-2_躯体
  6
CONTINUOUS
 62
    3
 10
2907.1179
 20
4670.4697
 11
2908.0469
 21
4671.8619
  0
LINE
  8
_0-2_躯体
  6
CONTINUOUS
 62
    3
 10
2908.0469
 20
4671.8619
 11
2908.7314
 21
4673.4022
  0
LINE
  8
_0-2_躯体
  6
CONTINUOUS
 62
    3
 10
2908.7314
 20
4673.4022
 11
2909.1506
 21
4675.0438
  0
LINE
  8
_0-2_躯体
  6
CONTINUOUS
 62
    3
 10
2909.1506
 20
4675.0438
 11
2909.2918
 21
4676.7368
  0
LINE
  8
_0-2_躯体
  6
CONTINUOUS
 62
    3
 10
2909.2918
 20
4676.7368
 11
2909.1506
 21
4678.4299
  0
LINE
  8
_0-2_躯体
  6
CONTINUOUS
 62
    3
 10
2909.1506
 20
4678.4299
 11
2908.7314
 21
4680.0715
  0
LINE
  8
_0-2_躯体
  6
CONTINUOUS
 62
    3
 10
2908.7314
 20
4680.0715
 11
2908.0469
 21
4681.6118
  0
LINE
  8
_0-2_躯体
  6
CONTINUOUS
 62
    3
 10
2908.0469
 20
4681.6118
 11
2907.1179
 21
4683.0039
  0
LINE
  8
_0-2_躯体
  6
CONTINUOUS
 62
    3
 10
2907.1179
 20
4683.0039
 11
2905.9727
 21
4684.2057
  0
LINE
  8
_0-2_躯体
  6
CONTINUOUS
 62
    3
 10
2905.9727
 20
4684.2057
 11
2904.6459
 21
4685.1805
  0
LINE
  8
_0-2_躯体
  6
CONTINUOUS
 62
    3
 10
2904.6459
 20
4685.1805
 11
2903.178
 21
4685.8987
  0
LINE
  8
_0-2_躯体
  6
CONTINUOUS
 62
    3
 10
2903.178
 20
4685.8987
 11
2901.6136
 21
4686.3386
  0
LINE
  8
_0-2_躯体
  6
CONTINUOUS
 62
    3
 10
2901.6136
 20
4686.3386
 11
2900.0001
 21
4686.4867
  0
LINE
  8
_0-2_躯体
  6
CONTINUOUS
 62
    3
 10
2900.0001
 20
4686.4867
 11
2900.0001
 21
4686.4867
  0
LINE
  8
_0-2_躯体
  6
CONTINUOUS
 62
    3
 10
2632.5003
 20
4409.986
 11
2632.5003
 21
4409.986
  0
LINE
  8
_0-2_躯体
  6
CONTINUOUS
 62
    3
 10
2632.5003
 20
4409.986
 11
2634.1138
 21
4410.1341
  0
LINE
  8
_0-2_躯体
  6
CONTINUOUS
 62
    3
 10
2634.1138
 20
4410.1341
 11
2635.6783
 21
4410.574
  0
LINE
  8
_0-2_躯体
  6
CONTINUOUS
 62
    3
 10
2635.6783
 20
4410.574
 11
2637.1462
 21
4411.2923
  0
LINE
  8
_0-2_躯体
  6
CONTINUOUS
 62
    3
 10
2637.1462
 20
4411.2923
 11
2638.4729
 21
4412.2671
  0
LINE
  8
_0-2_躯体
  6
CONTINUOUS
 62
    3
 10
2638.4729
 20
4412.2671
 11
2639.6182
 21
4413.4688
  0
LINE
  8
_0-2_躯体
  6
CONTINUOUS
 62
    3
 10
2639.6182
 20
4413.4688
 11
2640.5472
 21
4414.861
  0
LINE
  8
_0-2_躯体
  6
CONTINUOUS
 62
    3
 10
2640.5472
 20
4414.861
 11
2641.2316
 21
4416.4013
  0
LINE
  8
_0-2_躯体
  6
CONTINUOUS
 62
    3
 10
2641.2316
 20
4416.4013
 11
2641.6508
 21
4418.0429
  0
LINE
  8
_0-2_躯体
  6
CONTINUOUS
 62
    3
 10
2641.6508
 20
4418.0429
 11
2641.792
 21
4419.7359
  0
LINE
  8
_0-2_躯体
  6
CONTINUOUS
 62
    3
 10
2641.792
 20
4419.7359
 11
2641.6508
 21
4421.429
  0
LINE
  8
_0-2_躯体
  6
CONTINUOUS
 62
    3
 10
2641.6508
 20
4421.429
 11
2641.2316
 21
4423.0706
  0
LINE
  8
_0-2_躯体
  6
CONTINUOUS
 62
    3
 10
2641.2316
 20
4423.0706
 11
2640.5472
 21
4424.6109
  0
LINE
  8
_0-2_躯体
  6
CONTINUOUS
 62
    3
 10
2640.5472
 20
4424.6109
 11
2639.6182
 21
4426.003
  0
LINE
  8
_0-2_躯体
  6
CONTINUOUS
 62
    3
 10
2639.6182
 20
4426.003
 11
2638.4729
 21
4427.2048
  0
LINE
  8
_0-2_躯体
  6
CONTINUOUS
 62
    3
 10
2638.4729
 20
4427.2048
 11
2637.1462
 21
4428.1796
  0
LINE
  8
_0-2_躯体
  6
CONTINUOUS
 62
    3
 10
2637.1462
 20
4428.1796
 11
2635.6783
 21
4428.8978
  0
LINE
  8
_0-2_躯体
  6
CONTINUOUS
 62
    3
 10
2635.6783
 20
4428.8978
 11
2634.1138
 21
4429.3377
  0
LINE
  8
_0-2_躯体
  6
CONTINUOUS
 62
    3
 10
2634.1138
 20
4429.3377
 11
2632.5003
 21
4429.4858
  0
LINE
  8
_0-2_躯体
  6
CONTINUOUS
 62
    3
 10
2632.5003
 20
4429.4858
 11
2632.5003
 21
4429.4858
  0
LINE
  8
_0-2_躯体
  6
CONTINUOUS
 62
    3
 10
2632.5003
 20
4341.4868
 11
2632.5003
 21
4341.4868
  0
LINE
  8
_0-2_躯体
  6
CONTINUOUS
 62
    3
 10
2632.5003
 20
4341.4868
 11
2634.1138
 21
4341.6349
  0
LINE
  8
_0-2_躯体
  6
CONTINUOUS
 62
    3
 10
2634.1138
 20
4341.6349
 11
2635.6783
 21
4342.0747
  0
LINE
  8
_0-2_躯体
  6
CONTINUOUS
 62
    3
 10
2635.6783
 20
4342.0747
 11
2637.1462
 21
4342.793
  0
LINE
  8
_0-2_躯体
  6
CONTINUOUS
 62
    3
 10
2637.1462
 20
4342.793
 11
2638.4729
 21
4343.7678
  0
LINE
  8
_0-2_躯体
  6
CONTINUOUS
 62
    3
 10
2638.4729
 20
4343.7678
 11
2639.6182
 21
4344.9695
  0
LINE
  8
_0-2_躯体
  6
CONTINUOUS
 62
    3
 10
2639.6182
 20
4344.9695
 11
2640.5472
 21
4346.3617
  0
LINE
  8
_0-2_躯体
  6
CONTINUOUS
 62
    3
 10
2640.5472
 20
4346.3617
 11
2641.2316
 21
4347.902
  0
LINE
  8
_0-2_躯体
  6
CONTINUOUS
 62
    3
 10
2641.2316
 20
4347.902
 11
2641.6508
 21
4349.5436
  0
LINE
  8
_0-2_躯体
  6
CONTINUOUS
 62
    3
 10
2641.6508
 20
4349.5436
 11
2641.792
 21
4351.2367
  0
LINE
  8
_0-2_躯体
  6
CONTINUOUS
 62
    3
 10
2641.792
 20
4351.2367
 11
2641.6508
 21
4352.9297
  0
LINE
  8
_0-2_躯体
  6
CONTINUOUS
 62
    3
 10
2641.6508
 20
4352.9297
 11
2641.2316
 21
4354.5713
  0
LINE
  8
_0-2_躯体
  6
CONTINUOUS
 62
    3
 10
2641.2316
 20
4354.5713
 11
2640.5472
 21
4356.1116
  0
LINE
  8
_0-2_躯体
  6
CONTINUOUS
 62
    3
 10
2640.5472
 20
4356.1116
 11
2639.6182
 21
4357.5038
  0
LINE
  8
_0-2_躯体
  6
CONTINUOUS
 62
    3
 10
2639.6182
 20
4357.5038
 11
2638.4729
 21
4358.7055
  0
LINE
  8
_0-2_躯体
  6
CONTINUOUS
 62
    3
 10
2638.4729
 20
4358.7055
 11
2637.1462
 21
4359.6803
  0
LINE
  8
_0-2_躯体
  6
CONTINUOUS
 62
    3
 10
2637.1462
 20
4359.6803
 11
2635.6783
 21
4360.3986
  0
LINE
  8
_0-2_躯体
  6
CONTINUOUS
 62
    3
 10
2635.6783
 20
4360.3986
 11
2634.1138
 21
4360.8384
  0
LINE
  8
_0-2_躯体
  6
CONTINUOUS
 62
    3
 10
2634.1138
 20
4360.8384
 11
2632.5003
 21
4360.9866
  0
LINE
  8
_0-2_躯体
  6
CONTINUOUS
 62
    3
 10
2632.5003
 20
4360.9866
 11
2632.5003
 21
4360.9866
  0
TEXT
  8
_0-d_文字
 62
    3
 10
1246.6911
 20
3217.8284
 40
60
 41
1
 50
0.0009451
  1
3
  0
TEXT
  8
_0-d_文字
 62
    3
 10
1086.6317
 20
3112.0969
 40
60
 41
1
 50
0
  1
10
  0
TEXT
  8
_0-8_寸法
 62
    3
 10
1967.0585
 20
3935.3638
 40
60
 41
1
 50
0
  1
1,055φ
  0
TEXT
  8
_0-8_寸法
 62
    3
 10
3315.8371
 20
3310.0468
 40
60
 41
1
 50
90
  1
480
  0
TEXT
  8
_0-8_寸法
 62
    3
 10
3315.8371
 20
3611.4562
 40
60
 41
1
 50
90
  1
120
  0
TEXT
  8
_0-8_寸法
 62
    3
 10
2004.5607
 20
2850.6015
 40
60
 41
1
 50
0
  1
1,250
  0
TEXT
  8
_0-8_寸法
 62
    3
 10
2115.2125
 20
1720.5922
 40
60
 41
1
 50
19.303777
  1
1,055φ
  0
TEXT
  8
_0-8_寸法
 62
    3
 10
3309.5714
 20
1618.2496
 40
60
 41
1
 50
90
  1
1,250
  0
TEXT
  8
_0-d_文字
 62
    7
 10
509.99969
 20
310.13513
 40
50
 41
1
 50
0
  1
図
  0
TEXT
  8
_0-d_文字
 62
    7
 10
509.99969
 20
190.1352
 40
50
 41
1
 50
0
  1
番
  0
TEXT
  8
_0-d_文字
 62
    7
 10
1309.9997
 20
310.13513
 40
50
 41
1
 50
0
  1
承
  0
TEXT
  8
_0-d_文字
 62
    7
 10
1309.9997
 20
190.1352
 40
50
 41
1
 50
0
  1
認
  0
TEXT
  8
_0-d_文字
 62
    7
 10
2039.9996
 20
470.13522
 40
50
 41
1
 50
0
  1
尺
  0
TEXT
  8
_0-d_文字
 62
    7
 10
2039.9996
 20
390.13527
 40
50
 41
1
 50
-0.0001417
  1
度
  0
TEXT
  8
_0-d_文字
 62
    7
 10
1709.9997
 20
310.13513
 40
50
 41
1
 50
0
  1
製
  0
TEXT
  8
_0-d_文字
 62
    7
 10
1709.9997
 20
190.1352
 40
50
 41
1
 50
0
  1
図
  0
TEXT
  8
_0-d_文字
 62
    7
 10
3109.9998
 20
470.13522
 40
50
 41
1
 50
0
  1
日
  0
TEXT
  8
_0-d_文字
 62
    7
 10
3109.9998
 20
390.13527
 40
50
 41
1
 50
-0.0001417
  1
付
  0
TEXT
  8
_0-d_文字
 62
    7
 10
2222.8519
 20
322.09974
 40
40
 41
1
 50
0
  1
株式
  0
TEXT
  8
_0-d_文字
 62
    7
 10
2222.8519
 20
278.83888
 40
40
 41
1
 50
0.0000196
  1
会社
  0
TEXT
  8
_0-d_文字
 62
    3
 10
2348.4483
 20
281.62988
 40
80
 41
1
 50
-0.0000039
  1
スズキベンチレーター
  0
TEXT
  8
_0-d_文字
 62
    7
 10
2475.8353
 20
183.18396
 40
40
 41
1
 50
0
  1
TEL(054)296-7000  FAX(054)296-7001
  0
TEXT
  8
_0-8_寸法
 62
    3
 10
925.19667
 20
1590.7561
 40
60
 41
1
 50
90
  1
≒ 1,700
  0
TEXT
  8
_0-8_寸法
 62
    3
 10
2024.375
 20
5340.7272
 40
60
 41
1
 50
0
  1
1,600
  0
TEXT
  8
_0-8_寸法
 62
    3
 10
998.27517
 20
4594.611
 40
60
 41
1
 50
90
  1
875
  0
TEXT
  8
_0-8_寸法
 62
    3
 10
2024.3745
 20
4144.6699
 40
60
 41
1
 50
0
  1
1,065
  0
TEXT
  8
_0-d_文字
 62
    3
 10
2168.6976
 20
415.33665
 40
80
 41
1
 50
0
  1
１／２０
  0
TEXT
  8
_0-d_文字
 62
    7
 10
2471.3581
 20
232.42737
 40
40
 41
1
 50
-0.0000034
  1
〒421-2114　静岡市葵区安倍口新田１５２番地
  0
TEXT
  8
_0-d_文字
 62
    3
 10
596.67526
 20
287.90674
 40
60
 41
1
 50
0
  1
105L-01
  0
TEXT
  8
_0-d_文字
 62
    3
 10
509.99993
 20
5545.4025
 40
100
 41
1
 50
0
  1
ＳＴ－１０５Ｌ　直付型（低騒音）立面、袴立面・平面
  0
TEXT
  8
_0-2_躯体
 62
    7
 10
525.9448
 20
419.66304
 40
50
 41
1
 50
0
  1
ＳＴ－１０５Ｌ　直付型（低騒音）立面、袴立面・平面
  0
POINT
  8
_0-8_寸法
 62
    2
 10
3249.5715
 20
3602.6914
  0
POINT
  8
_0-8_寸法
 62
    2
 10
3249.5715
 20
3720.3713
  0
POINT
  8
_0-8_寸法
 62
    2
 10
950.42848
 20
843.87489
  0
POINT
  8
_0-8_寸法
 62
    2
 10
950.42848
 20
2543.8751
  0
POINT
  8
_0-8_寸法
 62
    2
 10
2724.9998
 20
2833.7419
  0
POINT
  8
_0-8_寸法
 62
    2
 10
1475
 20
2833.7419
  0
POINT
  8
_0-8_寸法
 62
    2
 10
1597.4373
 20
1517.842
  0
POINT
  8
_0-8_寸法
 62
    2
 10
2602.5626
 20
1869.9058
  0
POINT
  8
_0-8_寸法
 62
    2
 10
2627.5001
 20
3919.7553
  0
POINT
  8
_0-8_寸法
 62
    2
 10
1572.4999
 20
3919.7553
  0
POINT
  8
_0-8_寸法
 62
    2
 10
3249.5715
 20
1068.8748
  0
POINT
  8
_0-8_寸法
 62
    2
 10
3249.5715
 20
2318.8751
  0
POINT
  8
_0-8_寸法
 62
    2
 10
1013.2749
 20
4311.4869
  0
POINT
  8
_0-8_寸法
 62
    2
 10
1013.2749
 20
5186.4866
  0
POINT
  8
_0-8_寸法
 62
    2
 10
1299.9998
 20
5325.7274
  0
POINT
  8
_0-8_寸法
 62
    2
 10
2899.9996
 20
5325.7274
  0
POINT
  8
_0-8_寸法
 62
    2
 10
1567.4996
 20
4129.6701
  0
POINT
  8
_0-8_寸法
 62
    2
 10
2632.4994
 20
4129.6701
  0
POINT
  8
_0-8_寸法
 62
    2
 10
3249.5715
 20
3120.3713
  0
ENDSEC
  0
EOF
