  0
SECTION
  2
HEADER
  9
$EXTMIN
 10
0
 20
0
  9
$EXTMAX
 10
4200
 20
2970
  0
ENDSEC
  0
SECTION
  2
TABLES
  0
TABLE
  2
LTYPE
 70
     9
  0
LTYPE
  2
CONTINUOUS
 70
    64
  3
実線
 72
    65
 73
     0
 40
0.0
  0
LTYPE
  2
DASHED1
 70
    64
  3
--  --  --  --  --  --  --  --  
 72
    65
 73
     2
 40
2.5
 49
1.25
 49
-1.25
  0
LTYPE
  2
DASHED2
 70
    64
  3
----    ----    ----    ----    
 72
    65
 73
     2
 40
5.0
 49
2.5
 49
-2.5
  0
LTYPE
  2
DASHED3
 70
    64
  3
------  ------  ------  ------  
 72
    65
 73
     2
 40
5.0
 49
3.75
 49
-1.25
  0
LTYPE
  2
CENTER1
 70
    64
  3
----- - ----- - ----- - ----- - 
 72
    65
 73
     4
 40
10.0
 49
6.25
 49
-1.25
 49
1.25
 49
-1.25
  0
LTYPE
  2
CENTER2
 70
    64
  3
----------  --  ----------  --  
 72
    65
 73
     4
 40
20.0
 49
12.5
 49
-2.5
 49
2.5
 49
-2.5
  0
LTYPE
  2
PHANTOM1
 70
    64
  3
--- - - --- - - --- - - --- - - 
 72
    65
 73
     6
 40
10.0
 49
3.25
 49
-1.25
 49
1.25
 49
-1.25
 49
1.25
 49
-1.25
  0
LTYPE
  2
PHANTOM2
 70
    64
  3
--------  -  -  --------  -  -  
 72
    65
 73
     6
 40
20.0
 49
10.0
 49
-2.5
 49
1.25
 49
-2.5
 49
1.25
 49
-2.5
  0
LTYPE
  2
DOT
 70
    64
  3
-   -   -   -   -   -   -   -   
 72
    65
 73
     2
 40
2.5
 49
0.625
 49
-1.875
  0
ENDTAB
  0
TABLE
  2
STYLE
 70
    1
  0
STYLE
  2
STANDARD
 70
    64
 40
0.0
 41
1.0
 42
0.0
 50
0.0
 71
     0
  3
TXT
  4
BIGFONT
  0
ENDTAB
  0
TABLE
  2
LAYER
 70
    6
  0
LAYER
  2
1-1
 70
   64
 62
    7
  6
CONTINUOUS
  0
LAYER
  2
1-2
 70
   64
 62
    7
  6
CONTINUOUS
  0
LAYER
  2
1-5
 70
   64
 62
    7
  6
CONTINUOUS
  0
LAYER
  2
1-8
 70
   64
 62
    7
  6
CONTINUOUS
  0
LAYER
  2
1-d
 70
   64
 62
    7
  6
CONTINUOUS
  0
LAYER
  2
ADD_LINE
 70
   64
 62
    7
  6
CONTINUOUS
  0
ENDTAB
  0
ENDSEC
  0
SECTION
  2
ENTITIES
  0
LINE
  8
1-d
  6
CONTINUOUS
 62
    7
 10
250.00006
 20
2757.7013
 11
1850.0001
 21
2757.7013
  0
LINE
  8
1-d
  6
CONTINUOUS
 62
    7
 10
250.00006
 20
2767.7016
 11
1850.0001
 21
2767.7016
  0
LINE
  8
1-d
  6
CONTINUOUS
 62
    7
 10
249.99969
 20
189.99989
 11
1850.0005
 21
189.99989
  0
LINE
  8
1-d
  6
CONTINUOUS
 62
    7
 10
249.99969
 20
89.999806
 11
249.99969
 21
269.99991
  0
LINE
  8
1-d
  6
CONTINUOUS
 62
    7
 10
249.99969
 20
89.999806
 11
1850.0005
 21
89.999806
  0
LINE
  8
1-d
  6
CONTINUOUS
 62
    7
 10
1850.0005
 20
269.99991
 11
1850.0005
 21
89.999806
  0
LINE
  8
1-d
  6
CONTINUOUS
 62
    7
 10
249.99969
 20
269.99991
 11
1850.0005
 21
269.99991
  0
LINE
  8
1-d
  6
CONTINUOUS
 62
    7
 10
1050
 20
269.99991
 11
1050
 21
89.999806
  0
LINE
  8
1-d
  6
CONTINUOUS
 62
    7
 10
650.00019
 20
89.999806
 11
650.00019
 21
189.99989
  0
LINE
  8
1-d
  6
CONTINUOUS
 62
    7
 10
1050
 20
189.99989
 11
1050
 21
269.99991
  0
LINE
  8
1-d
  6
CONTINUOUS
 62
    7
 10
849.99981
 20
89.999806
 11
849.99981
 21
189.99989
  0
LINE
  8
1-d
  6
CONTINUOUS
 62
    7
 10
285.00002
 20
89.999806
 11
285.00002
 21
189.99989
  0
LINE
  8
1-d
  6
CONTINUOUS
 62
    7
 10
685.00006
 20
89.999806
 11
685.00006
 21
189.99989
  0
LINE
  8
1-d
  6
CONTINUOUS
 62
    7
 10
885.00018
 20
89.999806
 11
885.00018
 21
189.99989
  0
LINE
  8
1-d
  6
CONTINUOUS
 62
    7
 10
1015
 20
189.99989
 11
1015
 21
269.99991
  0
LINE
  8
1-d
  6
CONTINUOUS
 62
    7
 10
1550.0004
 20
189.99989
 11
1550.0004
 21
269.99991
  0
LINE
  8
1-d
  6
CONTINUOUS
 62
    7
 10
1585.0002
 20
189.99989
 11
1585.0002
 21
269.99991
  0
LINE
  8
1-8
  6
CONTINUOUS
 62
    7
 10
643.3333
 20
2502.8168
 11
1456.6665
 21
2502.8168
  0
LINE
  8
1-8
  6
CONTINUOUS
 62
    7
 10
643.3333
 20
2293.0214
 11
643.3333
 21
2502.8168
  0
LINE
  8
1-8
  6
CONTINUOUS
 62
    7
 10
719.70276
 20
2356.656
 11
325.51662
 21
2356.656
  0
LINE
  8
1-8
  6
CONTINUOUS
 62
    7
 10
1456.6665
 20
2293.0214
 11
1456.6665
 21
2502.8168
  0
LINE
  8
1-2
  6
CONTINUOUS
 62
    3
 10
1050
 20
2356.656
 11
836.3814
 21
2233.3231
  0
LINE
  8
1-2
  6
CONTINUOUS
 62
    3
 10
643.3333
 20
2233.3231
 11
1050
 21
2233.3231
  0
LINE
  8
1-2
  6
CONTINUOUS
 62
    3
 10
1236.6555
 20
2233.3231
 11
1456.6668
 21
2233.3231
  0
LINE
  8
1-8
  6
CONTINUOUS
 62
    7
 10
583.33477
 20
1656.6559
 11
325.51662
 21
1656.6559
  0
LINE
  8
1-8
  6
CONTINUOUS
 62
    7
 10
325.51662
 20
1656.6559
 11
325.51662
 21
2356.656
  0
LINE
  8
1-8
  6
CONTINUOUS
 62
    7
 10
676.66666
 20
1482.3519
 11
1423.3334
 21
1482.3519
  0
LINE
  8
1-8
  6
CONTINUOUS
 62
    7
 10
676.66666
 20
1612.4183
 11
676.66666
 21
1482.3519
  0
LINE
  8
1-8
  6
CONTINUOUS
 62
    7
 10
1423.3334
 20
1612.4183
 11
1423.3334
 21
1482.3519
  0
LINE
  8
1-2
  6
CONTINUOUS
 62
    3
 10
643.3333
 20
1823.3232
 11
643.3333
 21
1796.6566
  0
LINE
  8
1-2
  6
CONTINUOUS
 62
    3
 10
1456.6654
 20
1823.3232
 11
1456.6654
 21
1796.6566
  0
LINE
  8
1-2
  6
CONTINUOUS
 62
    3
 10
643.3333
 20
1786.6568
 11
643.3333
 21
1766.656
  0
LINE
  8
1-2
  6
CONTINUOUS
 62
    3
 10
1354.9999
 20
1786.6568
 11
1456.6654
 21
1786.6568
  0
LINE
  8
1-2
  6
CONTINUOUS
 62
    3
 10
1354.9999
 20
1796.6566
 11
1456.6654
 21
1796.6566
  0
LINE
  8
1-2
  6
CONTINUOUS
 62
    3
 10
1354.9999
 20
1823.3232
 11
1456.6654
 21
1823.3232
  0
LINE
  8
1-2
  6
CONTINUOUS
 62
    3
 10
1354.9999
 20
1833.3233
 11
1456.6654
 21
1833.3233
  0
LINE
  8
1-2
  6
CONTINUOUS
 62
    3
 10
1354.9999
 20
1766.656
 11
1456.6668
 21
1766.656
  0
LINE
  8
1-2
  6
CONTINUOUS
 62
    3
 10
1456.6654
 20
1786.6568
 11
1456.6654
 21
1766.656
  0
LINE
  8
1-2
  6
CONTINUOUS
 62
    3
 10
643.3333
 20
1766.656
 11
1050
 21
1766.656
  0
LINE
  8
1-2
  6
CONTINUOUS
 62
    3
 10
643.3333
 20
1833.3233
 11
1050
 21
1833.3233
  0
LINE
  8
1-2
  6
CONTINUOUS
 62
    3
 10
643.3333
 20
1823.3232
 11
1050
 21
1823.3232
  0
LINE
  8
1-2
  6
CONTINUOUS
 62
    3
 10
643.3333
 20
1796.6566
 11
1050
 21
1796.6566
  0
LINE
  8
1-2
  6
CONTINUOUS
 62
    3
 10
643.3333
 20
1786.6568
 11
1050
 21
1786.6568
  0
LINE
  8
1-2
  6
CONTINUOUS
 62
    3
 10
643.3333
 20
2176.6559
 11
643.3333
 21
2203.3225
  0
LINE
  8
1-2
  6
CONTINUOUS
 62
    3
 10
1456.6654
 20
2176.6559
 11
1456.6654
 21
2203.3225
  0
LINE
  8
1-2
  6
CONTINUOUS
 62
    3
 10
643.3333
 20
2213.3226
 11
643.3333
 21
2233.3231
  0
LINE
  8
1-2
  6
CONTINUOUS
 62
    3
 10
643.3333
 20
2166.6559
 11
643.3333
 21
1833.3233
  0
LINE
  8
1-2
  6
CONTINUOUS
 62
    3
 10
1337.5514
 20
2166.6559
 11
1456.6654
 21
2166.6559
  0
LINE
  8
1-2
  6
CONTINUOUS
 62
    3
 10
1322.4172
 20
2176.6559
 11
1456.6654
 21
2176.6559
  0
LINE
  8
1-2
  6
CONTINUOUS
 62
    3
 10
1282.0592
 20
2203.3225
 11
1456.6654
 21
2203.3225
  0
LINE
  8
1-2
  6
CONTINUOUS
 62
    3
 10
1266.9253
 20
2213.3226
 11
1456.6654
 21
2213.3226
  0
LINE
  8
1-2
  6
CONTINUOUS
 62
    3
 10
1456.6654
 20
2213.3226
 11
1456.6654
 21
2233.3231
  0
LINE
  8
1-2
  6
CONTINUOUS
 62
    3
 10
1456.6668
 20
2166.6559
 11
1456.6668
 21
1833.3233
  0
LINE
  8
1-2
  6
CONTINUOUS
 62
    3
 10
834.33254
 20
1766.656
 11
834.33254
 21
1722.9903
  0
LINE
  8
1-2
  6
CONTINUOUS
 62
    3
 10
1392.4355
 20
2130.3914
 11
1050
 21
2356.656
  0
LINE
  8
1-2
  6
CONTINUOUS
 62
    3
 10
1354.9999
 20
2070.2256
 11
1354.9999
 21
2107.3911
  0
LINE
  8
1-2
  6
CONTINUOUS
 62
    3
 10
1050
 20
2070.2254
 11
1354.9999
 21
2070.2254
  0
LINE
  8
1-2
  6
CONTINUOUS
 62
    3
 10
1050
 20
2057.2254
 11
1354.9999
 21
2057.2254
  0
LINE
  8
1-2
  6
CONTINUOUS
 62
    3
 10
1354.9999
 20
2107.3913
 11
1050
 21
2107.3913
  0
LINE
  8
1-2
  6
CONTINUOUS
 62
    3
 10
1354.9999
 20
2120.3913
 11
1050
 21
2120.3913
  0
LINE
  8
1-2
  6
CONTINUOUS
 62
    3
 10
643.3333
 20
2213.3226
 11
1050
 21
2213.3226
  0
LINE
  8
1-2
  6
CONTINUOUS
 62
    3
 10
643.3333
 20
2203.3225
 11
1050
 21
2203.3225
  0
LINE
  8
1-2
  6
CONTINUOUS
 62
    3
 10
643.3333
 20
2176.6559
 11
1050
 21
2176.6559
  0
LINE
  8
1-2
  6
CONTINUOUS
 62
    3
 10
643.3333
 20
2166.6559
 11
1050
 21
2166.6559
  0
LINE
  8
1-1
  6
CENTER2
 62
    7
 10
1050
 20
2448.6487
 11
1050
 21
1572.973
  0
LINE
  8
1-2
  6
CONTINUOUS
 62
    3
 10
1392.4355
 20
2130.3914
 11
1050
 21
2130.3914
  0
LINE
  8
1-2
  6
CONTINUOUS
 62
    3
 10
676.66666
 20
1656.6564
 11
1423.3334
 21
1656.6564
  0
LINE
  8
1-2
  6
CONTINUOUS
 62
    3
 10
676.66666
 20
1656.6564
 11
676.66666
 21
1696.6564
  0
LINE
  8
1-2
  6
CONTINUOUS
 62
    3
 10
676.66666
 20
1696.6564
 11
809.45667
 21
1766.656
  0
LINE
  8
1-2
  6
CONTINUOUS
 62
    3
 10
1423.3334
 20
1656.6564
 11
1423.3334
 21
1696.6564
  0
LINE
  8
1-2
  6
CONTINUOUS
 62
    3
 10
834.33254
 20
1766.656
 11
834.33254
 21
1696.6564
  0
LINE
  8
1-5
  6
CONTINUOUS
 62
    3
 10
676.66666
 20
1696.6564
 11
1423.3334
 21
1696.6564
  0
LINE
  8
1-2
  6
CONTINUOUS
 62
    3
 10
1354.9999
 20
1766.656
 11
1354.9999
 21
1732.6781
  0
LINE
  8
1-2
  6
CONTINUOUS
 62
    3
 10
745.00014
 20
1766.656
 11
745.00014
 21
1732.6781
  0
LINE
  8
1-2
  6
CONTINUOUS
 62
    3
 10
1423.3334
 20
1696.6564
 11
1354.9999
 21
1732.6781
  0
LINE
  8
1-2
  6
CONTINUOUS
 62
    3
 10
834.33254
 20
1722.9903
 11
1354.9999
 21
1722.9903
  0
LINE
  8
1-2
  6
CONTINUOUS
 62
    3
 10
834.33254
 20
1712.9903
 11
1354.9999
 21
1712.9903
  0
LINE
  8
1-2
  6
CONTINUOUS
 62
    3
 10
1354.9999
 20
2057.2254
 11
1354.9999
 21
1722.9902
  0
LINE
  8
1-2
  6
CONTINUOUS
 62
    3
 10
1354.9999
 20
1712.9903
 11
1354.9999
 21
1696.6564
  0
ARC
  8
1-2
  6
CONTINUOUS
 62
    3
 10
1456.6654
 20
1828.3232
 40
4.9999345
 50
270
 51
90
  0
ARC
  8
1-2
  6
CONTINUOUS
 62
    3
 10
1456.6654
 20
1791.6566
 40
4.9999345
 50
270
 51
90
  0
ARC
  8
1-2
  6
CONTINUOUS
 62
    3
 10
643.3333
 20
1828.3232
 40
4.9999345
 50
90
 51
270
  0
ARC
  8
1-2
  6
CONTINUOUS
 62
    3
 10
643.3333
 20
1791.6566
 40
4.9999345
 50
90
 51
270
  0
ARC
  8
1-2
  6
CONTINUOUS
 62
    3
 10
1456.6654
 20
2171.6562
 40
4.9999345
 50
270
 51
90
  0
ARC
  8
1-2
  6
CONTINUOUS
 62
    3
 10
1456.6654
 20
2208.3225
 40
4.9999345
 50
270
 51
90
  0
ARC
  8
1-2
  6
CONTINUOUS
 62
    3
 10
643.3333
 20
2171.6562
 40
4.9999345
 50
90
 51
270
  0
ARC
  8
1-2
  6
CONTINUOUS
 62
    3
 10
643.3333
 20
2208.3225
 40
4.9999345
 50
90
 51
270
  0
LINE
  8
1-2
  6
CONTINUOUS
 62
    3
 10
1354.9999
 20
2107.3914
 11
1356.0756
 21
2107.4901
  0
LINE
  8
1-2
  6
CONTINUOUS
 62
    3
 10
1356.0756
 20
2107.4901
 11
1357.1185
 21
2107.7834
  0
LINE
  8
1-2
  6
CONTINUOUS
 62
    3
 10
1357.1185
 20
2107.7834
 11
1358.0971
 21
2108.2622
  0
LINE
  8
1-2
  6
CONTINUOUS
 62
    3
 10
1358.0971
 20
2108.2622
 11
1358.9816
 21
2108.9121
  0
LINE
  8
1-2
  6
CONTINUOUS
 62
    3
 10
1358.9816
 20
2108.9121
 11
1359.7451
 21
2109.7133
  0
LINE
  8
1-2
  6
CONTINUOUS
 62
    3
 10
1359.7451
 20
2109.7133
 11
1360.3645
 21
2110.6414
  0
LINE
  8
1-2
  6
CONTINUOUS
 62
    3
 10
1360.3645
 20
2110.6414
 11
1360.8208
 21
2111.6682
  0
LINE
  8
1-2
  6
CONTINUOUS
 62
    3
 10
1360.8208
 20
2111.6682
 11
1361.1002
 21
2112.7626
  0
LINE
  8
1-2
  6
CONTINUOUS
 62
    3
 10
1361.1002
 20
2112.7626
 11
1361.1943
 21
2113.8913
  0
LINE
  8
1-2
  6
CONTINUOUS
 62
    3
 10
1361.1943
 20
2113.8913
 11
1361.1002
 21
2115.02
  0
LINE
  8
1-2
  6
CONTINUOUS
 62
    3
 10
1361.1002
 20
2115.02
 11
1360.8208
 21
2116.1144
  0
LINE
  8
1-2
  6
CONTINUOUS
 62
    3
 10
1360.8208
 20
2116.1144
 11
1360.3645
 21
2117.1413
  0
LINE
  8
1-2
  6
CONTINUOUS
 62
    3
 10
1360.3645
 20
2117.1413
 11
1359.7451
 21
2118.0694
  0
LINE
  8
1-2
  6
CONTINUOUS
 62
    3
 10
1359.7451
 20
2118.0694
 11
1358.9816
 21
2118.8706
  0
LINE
  8
1-2
  6
CONTINUOUS
 62
    3
 10
1358.9816
 20
2118.8706
 11
1358.0971
 21
2119.5204
  0
LINE
  8
1-2
  6
CONTINUOUS
 62
    3
 10
1358.0971
 20
2119.5204
 11
1357.1185
 21
2119.9993
  0
LINE
  8
1-2
  6
CONTINUOUS
 62
    3
 10
1357.1185
 20
2119.9993
 11
1356.0756
 21
2120.2925
  0
LINE
  8
1-2
  6
CONTINUOUS
 62
    3
 10
1356.0756
 20
2120.2925
 11
1354.9999
 21
2120.3913
  0
LINE
  8
1-2
  6
CONTINUOUS
 62
    3
 10
1354.9999
 20
2057.2257
 11
1356.0756
 21
2057.3244
  0
LINE
  8
1-2
  6
CONTINUOUS
 62
    3
 10
1356.0756
 20
2057.3244
 11
1357.1185
 21
2057.6177
  0
LINE
  8
1-2
  6
CONTINUOUS
 62
    3
 10
1357.1185
 20
2057.6177
 11
1358.0971
 21
2058.0965
  0
LINE
  8
1-2
  6
CONTINUOUS
 62
    3
 10
1358.0971
 20
2058.0965
 11
1358.9816
 21
2058.7464
  0
LINE
  8
1-2
  6
CONTINUOUS
 62
    3
 10
1358.9816
 20
2058.7464
 11
1359.7451
 21
2059.5475
  0
LINE
  8
1-2
  6
CONTINUOUS
 62
    3
 10
1359.7451
 20
2059.5475
 11
1360.3645
 21
2060.4757
  0
LINE
  8
1-2
  6
CONTINUOUS
 62
    3
 10
1360.3645
 20
2060.4757
 11
1360.8208
 21
2061.5025
  0
LINE
  8
1-2
  6
CONTINUOUS
 62
    3
 10
1360.8208
 20
2061.5025
 11
1361.1002
 21
2062.5969
  0
LINE
  8
1-2
  6
CONTINUOUS
 62
    3
 10
1361.1002
 20
2062.5969
 11
1361.1943
 21
2063.7256
  0
LINE
  8
1-2
  6
CONTINUOUS
 62
    3
 10
1361.1943
 20
2063.7256
 11
1361.1002
 21
2064.8543
  0
LINE
  8
1-2
  6
CONTINUOUS
 62
    3
 10
1361.1002
 20
2064.8543
 11
1360.8208
 21
2065.9487
  0
LINE
  8
1-2
  6
CONTINUOUS
 62
    3
 10
1360.8208
 20
2065.9487
 11
1360.3645
 21
2066.9756
  0
LINE
  8
1-2
  6
CONTINUOUS
 62
    3
 10
1360.3645
 20
2066.9756
 11
1359.7451
 21
2067.9037
  0
LINE
  8
1-2
  6
CONTINUOUS
 62
    3
 10
1359.7451
 20
2067.9037
 11
1358.9816
 21
2068.7049
  0
LINE
  8
1-2
  6
CONTINUOUS
 62
    3
 10
1358.9816
 20
2068.7049
 11
1358.0971
 21
2069.3547
  0
LINE
  8
1-2
  6
CONTINUOUS
 62
    3
 10
1358.0971
 20
2069.3547
 11
1357.1185
 21
2069.8336
  0
LINE
  8
1-2
  6
CONTINUOUS
 62
    3
 10
1357.1185
 20
2069.8336
 11
1356.0756
 21
2070.1268
  0
LINE
  8
1-2
  6
CONTINUOUS
 62
    3
 10
1356.0756
 20
2070.1268
 11
1354.9999
 21
2070.2256
  0
ARC
  8
1-2
  6
CONTINUOUS
 62
    3
 10
1354.9999
 20
1717.9903
 40
4.9999345
 50
270
 51
90
  0
TEXT
  8
1-d
 10
254.9998
 20
97.49997
 40
25
 41
1
 50
0
  1
番
  0
TEXT
  8
1-d
 10
655.00046
 20
157.4999
 40
25
 41
1
 50
0
  1
承
  0
TEXT
  8
1-d
 10
655.00046
 20
97.49997
 40
25
 41
1
 50
0
  1
認
  0
TEXT
  8
1-d
 10
1020.0003
 20
237.49996
 40
25
 41
1
 50
0
  1
尺
  0
TEXT
  8
1-d
 10
1020.0003
 20
197.49979
 40
25
 41
1
 50
0.0000762
  1
度
  0
TEXT
  8
1-d
 10
855.00014
 20
157.4999
 40
25
 41
1
 50
0
  1
製
  0
TEXT
  8
1-d
 10
855.00014
 20
97.49997
 40
25
 41
1
 50
0
  1
図
  0
TEXT
  8
1-d
 10
1555.0001
 20
237.49996
 40
25
 41
1
 50
0
  1
日
  0
TEXT
  8
1-d
 10
1555.0001
 20
197.49979
 40
25
 41
1
 50
0.0000762
  1
付
  0
TEXT
  8
1-d
 10
1111.4263
 20
163.48226
 40
20
 41
1
 50
0
  1
株式
  0
TEXT
  8
1-d
 10
1111.4263
 20
141.85181
 40
20
 41
1
 50
0.0000152
  1
会社
  0
TEXT
  8
1-d
 10
1174.2247
 20
143.24712
 40
40
 41
1
 50
0
  1
スズキベンチレーター
  0
TEXT
  8
1-d
 10
1237.9182
 20
94.024183
 40
20
 41
1
 50
0
  1
TEL(054)296-7000  FAX(054)296-7001
  0
TEXT
  8
1-d
 10
1084.349
 20
210.10066
 40
40
 41
1
 50
0
  1
１／１５
  0
TEXT
  8
1-d
 10
254.9998
 20
157.4999
 40
25
 41
1
 50
0
  1
図
  0
TEXT
  8
1-8
 10
1012.5646
 20
2510.2548
 40
30
 41
1
 50
0
  1
1,220
  0
TEXT
  8
1-d
 10
308.45927
 20
140.30214
 40
30
 41
1
 50
0
  1
90-F08b
  0
TEXT
  8
1-8
 10
310.76377
 20
1916.2997
 40
30
 41
1
 50
90
  1
1,050
  0
TEXT
  8
1-8
 10
1013.75
 20
1492.3519
 40
30
 41
1
 50
0
  1
1,120x1,120
  0
TEXT
  8
1-d
 10
255.00006
 20
2772.7016
 40
50
 41
1
 50
0
  1
ＤＳ－９００　自然換気  架台型断面
  0
TEXT
  8
1-2
 10
276.65292
 20
220.41273
 40
30
 41
1
 50
0
  1
ＤＳ－９００　自然換気  架台型断面
  0
TEXT
  8
1-d
 10
1235.6794
 20
118.64593
 40
20
 41
1
 50
0
  1
〒421-2114　静岡市葵区安倍口新田１５２番地
  0
POINT
  8
1-8
 62
    2
 10
325.51662
 20
2356.656
  0
POINT
  8
1-8
 62
    2
 10
643.3333
 20
2502.8168
  0
POINT
  8
1-8
 62
    2
 10
1456.6665
 20
2502.8168
  0
POINT
  8
1-8
 62
    2
 10
325.51662
 20
1656.6559
  0
POINT
  8
1-8
 62
    2
 10
676.66666
 20
1482.3519
  0
POINT
  8
1-8
 62
    2
 10
1423.3334
 20
1482.3519
  0
ENDSEC
  0
EOF
