  0
SECTION
  2
HEADER
  9
$EXTMIN
 10
0
 20
0
  9
$EXTMAX
 10
6300
 20
4455
  0
ENDSEC
  0
SECTION
  2
TABLES
  0
TABLE
  2
LTYPE
 70
     9
  0
LTYPE
  2
CONTINUOUS
 70
    64
  3
実線
 72
    65
 73
     0
 40
0.0
  0
LTYPE
  2
DASHED1
 70
    64
  3
--  --  --  --  --  --  --  --  
 72
    65
 73
     2
 40
2.5
 49
1.25
 49
-1.25
  0
LTYPE
  2
DASHED2
 70
    64
  3
----    ----    ----    ----    
 72
    65
 73
     2
 40
5.0
 49
2.5
 49
-2.5
  0
LTYPE
  2
DASHED3
 70
    64
  3
------  ------  ------  ------  
 72
    65
 73
     2
 40
5.0
 49
3.75
 49
-1.25
  0
LTYPE
  2
CENTER1
 70
    64
  3
----- - ----- - ----- - ----- - 
 72
    65
 73
     4
 40
10.0
 49
6.25
 49
-1.25
 49
1.25
 49
-1.25
  0
LTYPE
  2
CENTER2
 70
    64
  3
----------  --  ----------  --  
 72
    65
 73
     4
 40
20.0
 49
12.5
 49
-2.5
 49
2.5
 49
-2.5
  0
LTYPE
  2
PHANTOM1
 70
    64
  3
--- - - --- - - --- - - --- - - 
 72
    65
 73
     6
 40
10.0
 49
3.25
 49
-1.25
 49
1.25
 49
-1.25
 49
1.25
 49
-1.25
  0
LTYPE
  2
PHANTOM2
 70
    64
  3
--------  -  -  --------  -  -  
 72
    65
 73
     6
 40
20.0
 49
10.0
 49
-2.5
 49
1.25
 49
-2.5
 49
1.25
 49
-2.5
  0
LTYPE
  2
DOT
 70
    64
  3
-   -   -   -   -   -   -   -   
 72
    65
 73
     2
 40
2.5
 49
0.625
 49
-1.875
  0
ENDTAB
  0
TABLE
  2
STYLE
 70
    1
  0
STYLE
  2
STANDARD
 70
    64
 40
0.0
 41
1.0
 42
0.0
 50
0.0
 71
     0
  3
TXT
  4
BIGFONT
  0
ENDTAB
  0
TABLE
  2
LAYER
 70
    5
  0
LAYER
  2
1-1
 70
   64
 62
    7
  6
CONTINUOUS
  0
LAYER
  2
1-2
 70
   64
 62
    7
  6
CONTINUOUS
  0
LAYER
  2
1-8
 70
   64
 62
    7
  6
CONTINUOUS
  0
LAYER
  2
1-d
 70
   64
 62
    7
  6
CONTINUOUS
  0
LAYER
  2
ADD_LINE
 70
   64
 62
    7
  6
CONTINUOUS
  0
ENDTAB
  0
ENDSEC
  0
SECTION
  2
ENTITIES
  0
LINE
  8
1-8
  6
CONTINUOUS
 62
    7
 10
2390.0461
 20
2131.9241
 11
2390.0461
 21
2536.9245
  0
LINE
  8
1-8
  6
CONTINUOUS
 62
    7
 10
2094.3598
 20
2131.9241
 11
2390.0461
 21
2131.9241
  0
LINE
  8
1-8
  6
CONTINUOUS
 62
    7
 10
2100.0007
 20
2461.9245
 11
2390.0461
 21
2461.9245
  0
LINE
  8
1-8
  6
CONTINUOUS
 62
    7
 10
2100.0007
 20
2536.9245
 11
2390.0461
 21
2536.9245
  0
LINE
  8
1-8
  6
CONTINUOUS
 62
    7
 10
1987.5024
 20
1930.657
 11
1162.5025
 21
1930.657
  0
LINE
  8
1-8
  6
CONTINUOUS
 62
    7
 10
1254.7047
 20
1103.2707
 11
1895.2952
 21
1327.6489
  0
LINE
  8
1-2
  6
CONTINUOUS
 62
    3
 10
1235.625
 20
2461.9245
 11
1914.375
 21
2461.9245
  0
LINE
  8
1-2
  6
CONTINUOUS
 62
    3
 10
1235.625
 20
2536.9245
 11
1914.375
 21
2536.9245
  0
LINE
  8
1-8
  6
CONTINUOUS
 62
    7
 10
1914.3774
 20
2695.8631
 11
1235.6274
 21
2695.8631
  0
LINE
  8
1-d
  6
CONTINUOUS
 62
    7
 10
375.00002
 20
4136.5517
 11
2774.9999
 21
4136.5517
  0
LINE
  8
1-d
  6
CONTINUOUS
 62
    7
 10
375.00002
 20
4151.5521
 11
2774.9999
 21
4151.5521
  0
LINE
  8
1-8
  6
CONTINUOUS
 62
    7
 10
1987.5024
 20
2057.9357
 11
1987.5024
 21
1930.657
  0
LINE
  8
1-8
  6
CONTINUOUS
 62
    7
 10
1162.5025
 20
2057.9357
 11
1162.5025
 21
1930.657
  0
LINE
  8
1-8
  6
CONTINUOUS
 62
    7
 10
909.71109
 20
1822.96
 11
759.95621
 21
1822.96
  0
LINE
  8
1-8
  6
CONTINUOUS
 62
    7
 10
909.71109
 20
607.96036
 11
759.95621
 21
607.96036
  0
LINE
  8
1-8
  6
CONTINUOUS
 62
    7
 10
2239.4454
 20
1627.9609
 11
2390.0442
 21
1627.9609
  0
LINE
  8
1-8
  6
CONTINUOUS
 62
    7
 10
2239.4454
 20
802.96082
 11
2390.0442
 21
802.96082
  0
LINE
  8
1-8
  6
CONTINUOUS
 62
    7
 10
1914.3774
 20
2586.176
 11
1914.3774
 21
2695.8631
  0
LINE
  8
1-8
  6
CONTINUOUS
 62
    7
 10
1235.6274
 20
2586.176
 11
1235.6274
 21
2695.8631
  0
LINE
  8
1-d
  6
CONTINUOUS
 62
    7
 10
885.5085
 20
2166.7391
 11
990.20895
 21
2166.7391
  0
LINE
  8
1-d
  6
CONTINUOUS
 62
    7
 10
885.5085
 20
2166.7391
 11
990.20895
 21
2198.1479
  0
LINE
  8
1-d
  6
CONTINUOUS
 62
    7
 10
990.20895
 20
2166.7391
 11
990.20895
 21
2198.1479
  0
LINE
  8
1-2
  6
CONTINUOUS
 62
    3
 10
1235.625
 20
2536.9245
 11
1235.625
 21
2522.986
  0
LINE
  8
1-2
  6
CONTINUOUS
 62
    3
 10
1235.625
 20
2509.0482
 11
1235.625
 21
2461.9245
  0
LINE
  8
1-2
  6
CONTINUOUS
 62
    3
 10
1235.625
 20
2509.0482
 11
1914.375
 21
2509.0482
  0
LINE
  8
1-2
  6
CONTINUOUS
 62
    3
 10
1914.375
 20
2509.0482
 11
1914.375
 21
2461.9245
  0
LINE
  8
1-2
  6
CONTINUOUS
 62
    3
 10
1235.625
 20
2522.986
 11
1914.3752
 21
2522.986
  0
LINE
  8
1-2
  6
CONTINUOUS
 62
    3
 10
1914.3752
 20
2536.9245
 11
1914.3752
 21
2522.986
  0
LINE
  8
1-2
  6
CONTINUOUS
 62
    3
 10
2182.5025
 20
1822.96
 11
967.5026
 21
1822.96
  0
LINE
  8
1-2
  6
CONTINUOUS
 62
    3
 10
2182.5025
 20
1822.96
 11
2182.5025
 21
607.96036
  0
LINE
  8
1-2
  6
CONTINUOUS
 62
    3
 10
2182.5025
 20
607.96036
 11
967.5026
 21
607.96036
  0
LINE
  8
1-2
  6
CONTINUOUS
 62
    3
 10
967.5026
 20
1822.96
 11
967.5026
 21
607.96036
  0
LINE
  8
1-2
  6
CONTINUOUS
 62
    3
 10
1987.5024
 20
1627.9609
 11
1987.5024
 21
802.96082
  0
LINE
  8
1-2
  6
CONTINUOUS
 62
    3
 10
1162.5025
 20
1627.9609
 11
1162.5025
 21
802.96082
  0
LINE
  8
1-2
  6
CONTINUOUS
 62
    3
 10
1162.5025
 20
1627.9609
 11
1255.4178
 21
1535.0455
  0
LINE
  8
1-2
  6
CONTINUOUS
 62
    3
 10
1987.5024
 20
1627.9609
 11
1162.5025
 21
1627.9609
  0
LINE
  8
1-2
  6
CONTINUOUS
 62
    3
 10
1987.5024
 20
1627.9609
 11
1894.587
 21
1535.0455
  0
LINE
  8
1-2
  6
CONTINUOUS
 62
    3
 10
1987.5024
 20
802.96082
 11
1894.587
 21
895.87601
  0
LINE
  8
1-2
  6
CONTINUOUS
 62
    3
 10
1987.5024
 20
802.96082
 11
1162.5025
 21
802.96082
  0
LINE
  8
1-2
  6
CONTINUOUS
 62
    3
 10
1162.5025
 20
802.96082
 11
1255.4178
 21
895.87601
  0
LINE
  8
1-8
  6
CONTINUOUS
 62
    7
 10
759.95621
 20
607.96036
 11
759.95621
 21
1822.96
  0
LINE
  8
1-8
  6
CONTINUOUS
 62
    7
 10
2390.0442
 20
802.96082
 11
2390.0442
 21
1627.9609
  0
LINE
  8
1-1
  6
CENTER2
 62
    7
 10
2182.5025
 20
1215.4603
 11
967.5026
 21
1215.4603
  0
LINE
  8
1-d
  6
CONTINUOUS
 62
    7
 10
374.99983
 20
277.92115
 11
2774.9997
 21
277.92115
  0
LINE
  8
1-d
  6
CONTINUOUS
 62
    7
 10
374.99983
 20
127.92112
 11
374.99983
 21
397.92108
  0
LINE
  8
1-d
  6
CONTINUOUS
 62
    7
 10
374.99983
 20
127.92112
 11
2774.9997
 21
127.92112
  0
LINE
  8
1-d
  6
CONTINUOUS
 62
    7
 10
2774.9997
 20
397.92108
 11
2774.9997
 21
127.92112
  0
LINE
  8
1-d
  6
CONTINUOUS
 62
    7
 10
374.99983
 20
397.92108
 11
2774.9997
 21
397.92108
  0
LINE
  8
1-d
  6
CONTINUOUS
 62
    7
 10
1574.9999
 20
397.92108
 11
1574.9999
 21
127.92112
  0
LINE
  8
1-d
  6
CONTINUOUS
 62
    7
 10
974.99994
 20
127.92112
 11
974.99994
 21
277.92115
  0
LINE
  8
1-d
  6
CONTINUOUS
 62
    7
 10
1574.9999
 20
277.92115
 11
1574.9999
 21
397.92108
  0
LINE
  8
1-d
  6
CONTINUOUS
 62
    7
 10
1274.9999
 20
127.92112
 11
1274.9999
 21
277.92115
  0
LINE
  8
1-d
  6
CONTINUOUS
 62
    7
 10
427.49972
 20
127.92112
 11
427.49972
 21
277.92115
  0
LINE
  8
1-d
  6
CONTINUOUS
 62
    7
 10
1027.4996
 20
127.92112
 11
1027.4996
 21
277.92115
  0
LINE
  8
1-d
  6
CONTINUOUS
 62
    7
 10
1327.4996
 20
127.92112
 11
1327.4996
 21
277.92115
  0
LINE
  8
1-d
  6
CONTINUOUS
 62
    7
 10
1522.4998
 20
277.92115
 11
1522.4998
 21
397.92108
  0
LINE
  8
1-d
  6
CONTINUOUS
 62
    7
 10
2324.9998
 20
277.92115
 11
2324.9998
 21
397.92108
  0
LINE
  8
1-d
  6
CONTINUOUS
 62
    7
 10
2377.4996
 20
277.92115
 11
2377.4996
 21
397.92108
  0
LINE
  8
1-8
  6
CONTINUOUS
 62
    7
 10
2390.0442
 20
607.96036
 11
2390.0442
 21
802.96082
  0
LINE
  8
1-8
  6
CONTINUOUS
 62
    7
 10
2239.4454
 20
607.96036
 11
2390.0442
 21
607.96036
  0
LINE
  8
1-8
  6
CONTINUOUS
 62
    7
 10
2390.0442
 20
1627.9609
 11
2390.0442
 21
1822.96
  0
LINE
  8
1-8
  6
CONTINUOUS
 62
    7
 10
2239.4454
 20
1822.96
 11
2390.0442
 21
1822.96
  0
LINE
  8
1-2
  6
CONTINUOUS
 62
    3
 10
1574.9999
 20
2255.9264
 11
967.50001
 21
2072.0663
  0
LINE
  8
1-2
  6
CONTINUOUS
 62
    3
 10
2182.4999
 20
2073.3048
 11
1574.9999
 21
2255.9264
  0
LINE
  8
1-2
  6
CONTINUOUS
 62
    3
 10
1235.625
 20
2461.9245
 11
1162.4999
 21
2132.5338
  0
LINE
  8
1-2
  6
CONTINUOUS
 62
    3
 10
1987.4998
 20
2131.9241
 11
1914.375
 21
2461.9245
  0
LINE
  8
1-d
  6
CENTER2
 62
    7
 10
1574.9999
 20
3759.6397
 11
1574.9999
 21
607.96036
  0
LINE
  8
1-8
  6
CONTINUOUS
 62
    7
 10
1050.0015
 20
3009.6397
 11
759.95621
 21
3009.6397
  0
LINE
  8
1-8
  6
CONTINUOUS
 62
    7
 10
1117.4999
 20
3924.0705
 11
2032.4995
 21
3924.0705
  0
LINE
  8
1-8
  6
CONTINUOUS
 62
    7
 10
1231.875
 20
2873.278
 11
1918.1248
 21
2873.278
  0
LINE
  8
1-8
  6
CONTINUOUS
 62
    7
 10
1231.875
 20
2959.8722
 11
1231.875
 21
2873.278
  0
LINE
  8
1-8
  6
CONTINUOUS
 62
    7
 10
1918.1248
 20
2959.8722
 11
1918.1248
 21
2873.278
  0
LINE
  8
1-8
  6
CONTINUOUS
 62
    7
 10
1117.4999
 20
3688.0508
 11
1117.4999
 21
3924.0705
  0
LINE
  8
1-8
  6
CONTINUOUS
 62
    7
 10
1203.4156
 20
3759.6397
 11
759.95621
 21
3759.6397
  0
LINE
  8
1-8
  6
CONTINUOUS
 62
    7
 10
2032.4995
 20
3688.0508
 11
2032.4995
 21
3924.0705
  0
LINE
  8
1-2
  6
CONTINUOUS
 62
    3
 10
1117.4999
 20
3188.5151
 11
1117.4999
 21
3144.6403
  0
LINE
  8
1-2
  6
CONTINUOUS
 62
    3
 10
1117.4999
 20
3130.0151
 11
1117.4999
 21
3095.8898
  0
LINE
  8
1-2
  6
CONTINUOUS
 62
    3
 10
1231.875
 20
3046.7659
 11
1918.1248
 21
3046.7659
  0
LINE
  8
1-2
  6
CONTINUOUS
 62
    3
 10
1231.875
 20
3009.6402
 11
1918.1248
 21
3009.6402
  0
LINE
  8
1-2
  6
CONTINUOUS
 62
    3
 10
1231.875
 20
3032.1409
 11
1918.1248
 21
3032.1409
  0
LINE
  8
1-2
  6
CONTINUOUS
 62
    3
 10
1231.875
 20
3032.1409
 11
1231.875
 21
3009.6402
  0
LINE
  8
1-8
  6
CONTINUOUS
 62
    7
 10
759.95621
 20
3009.6397
 11
759.95621
 21
3759.6397
  0
LINE
  8
1-2
  6
CONTINUOUS
 62
    3
 10
1117.4999
 20
3528.2647
 11
1117.4999
 21
3572.1399
  0
LINE
  8
1-2
  6
CONTINUOUS
 62
    3
 10
1117.4999
 20
3586.7647
 11
1117.4999
 21
3620.8902
  0
LINE
  8
1-2
  6
CONTINUOUS
 62
    3
 10
1117.4999
 20
3513.6403
 11
1117.4999
 21
3203.1399
  0
LINE
  8
1-2
  6
CONTINUOUS
 62
    3
 10
1574.9999
 20
3759.6397
 11
1334.6788
 21
3620.8902
  0
LINE
  8
1-2
  6
CONTINUOUS
 62
    3
 10
1117.4999
 20
3586.7647
 11
1574.9999
 21
3586.7647
  0
LINE
  8
1-2
  6
CONTINUOUS
 62
    3
 10
1117.4999
 20
3572.1399
 11
1574.9999
 21
3572.1399
  0
LINE
  8
1-2
  6
CONTINUOUS
 62
    3
 10
1117.4999
 20
3513.6403
 11
1574.9999
 21
3513.6403
  0
LINE
  8
1-2
  6
CONTINUOUS
 62
    3
 10
1117.4999
 20
3528.2647
 11
1574.9999
 21
3528.2647
  0
LINE
  8
1-2
  6
CONTINUOUS
 62
    3
 10
1117.4999
 20
3620.8902
 11
1574.9999
 21
3620.8902
  0
LINE
  8
1-2
  6
CONTINUOUS
 62
    3
 10
1117.4999
 20
3130.0151
 11
1574.9999
 21
3130.0151
  0
LINE
  8
1-2
  6
CONTINUOUS
 62
    3
 10
1117.4999
 20
3144.6403
 11
1574.9999
 21
3144.6403
  0
LINE
  8
1-2
  6
CONTINUOUS
 62
    3
 10
1117.4999
 20
3203.1399
 11
1574.9999
 21
3203.1399
  0
LINE
  8
1-2
  6
CONTINUOUS
 62
    3
 10
1117.4999
 20
3188.5151
 11
1574.9999
 21
3188.5151
  0
LINE
  8
1-2
  6
CONTINUOUS
 62
    3
 10
1117.4999
 20
3095.8898
 11
1574.9999
 21
3095.8898
  0
LINE
  8
1-2
  6
CONTINUOUS
 62
    3
 10
1574.9999
 20
3088.5772
 11
1231.875
 21
3088.5772
  0
LINE
  8
1-2
  6
CONTINUOUS
 62
    3
 10
1231.875
 20
3088.5772
 11
1231.875
 21
3046.7659
  0
LINE
  8
1-2
  6
CONTINUOUS
 62
    3
 10
2032.4999
 20
3188.5151
 11
2032.4999
 21
3144.6403
  0
LINE
  8
1-2
  6
CONTINUOUS
 62
    3
 10
2032.4999
 20
3130.0151
 11
2032.4999
 21
3095.8898
  0
LINE
  8
1-2
  6
CONTINUOUS
 62
    3
 10
1918.1248
 20
3032.1409
 11
1918.1248
 21
3009.6402
  0
LINE
  8
1-2
  6
CONTINUOUS
 62
    3
 10
2032.4999
 20
3528.2647
 11
2032.4999
 21
3572.1399
  0
LINE
  8
1-2
  6
CONTINUOUS
 62
    3
 10
2032.4999
 20
3586.7647
 11
2032.4999
 21
3620.8902
  0
LINE
  8
1-2
  6
CONTINUOUS
 62
    3
 10
2032.4999
 20
3513.6403
 11
2032.4999
 21
3203.1399
  0
LINE
  8
1-2
  6
CONTINUOUS
 62
    3
 10
1574.9999
 20
3759.6397
 11
1815.321
 21
3620.8902
  0
LINE
  8
1-2
  6
CONTINUOUS
 62
    3
 10
2032.4999
 20
3586.7647
 11
1574.9999
 21
3586.7647
  0
LINE
  8
1-2
  6
CONTINUOUS
 62
    3
 10
2032.4999
 20
3572.1399
 11
1574.9999
 21
3572.1399
  0
LINE
  8
1-2
  6
CONTINUOUS
 62
    3
 10
2032.4999
 20
3513.6403
 11
1574.9999
 21
3513.6403
  0
LINE
  8
1-2
  6
CONTINUOUS
 62
    3
 10
2032.4999
 20
3528.2647
 11
1574.9999
 21
3528.2647
  0
LINE
  8
1-2
  6
CONTINUOUS
 62
    3
 10
2032.4999
 20
3620.8902
 11
1574.9999
 21
3620.8902
  0
LINE
  8
1-2
  6
CONTINUOUS
 62
    3
 10
2032.4999
 20
3130.0151
 11
1574.9999
 21
3130.0151
  0
LINE
  8
1-2
  6
CONTINUOUS
 62
    3
 10
2032.4999
 20
3144.6403
 11
1574.9999
 21
3144.6403
  0
LINE
  8
1-2
  6
CONTINUOUS
 62
    3
 10
2032.4999
 20
3203.1399
 11
1574.9999
 21
3203.1399
  0
LINE
  8
1-2
  6
CONTINUOUS
 62
    3
 10
2032.4999
 20
3188.5151
 11
1574.9999
 21
3188.5151
  0
LINE
  8
1-2
  6
CONTINUOUS
 62
    3
 10
2032.4999
 20
3095.8898
 11
1574.9999
 21
3095.8898
  0
LINE
  8
1-2
  6
CONTINUOUS
 62
    3
 10
1574.9999
 20
3088.5772
 11
1918.1248
 21
3088.5772
  0
LINE
  8
1-2
  6
CONTINUOUS
 62
    3
 10
1918.1248
 20
3088.5772
 11
1918.1248
 21
3046.7659
  0
ARC
  8
1-2
  6
CONTINUOUS
 62
    3
 10
1235.625
 20
2516.0171
 40
6.9689341
 50
270
 51
90
  0
ARC
  8
1-2
  6
CONTINUOUS
 62
    3
 10
1914.3752
 20
2516.0171
 40
6.9689341
 50
90
 51
270
  0
CIRCLE
  8
1-2
  6
CONTINUOUS
 62
    3
 10
1575.0025
 20
1215.4597
 40
339.37502
  0
LINE
  8
1-2
  6
CONTINUOUS
 62
    3
 10
1117.4999
 20
3203.1401
 11
1116.2898
 21
3203.029
  0
LINE
  8
1-2
  6
CONTINUOUS
 62
    3
 10
1116.2898
 20
3203.029
 11
1115.1164
 21
3202.6991
  0
LINE
  8
1-2
  6
CONTINUOUS
 62
    3
 10
1115.1164
 20
3202.6991
 11
1114.0155
 21
3202.1604
  0
LINE
  8
1-2
  6
CONTINUOUS
 62
    3
 10
1114.0155
 20
3202.1604
 11
1113.0205
 21
3201.4293
  0
LINE
  8
1-2
  6
CONTINUOUS
 62
    3
 10
1113.0205
 20
3201.4293
 11
1112.1615
 21
3200.528
  0
LINE
  8
1-2
  6
CONTINUOUS
 62
    3
 10
1112.1615
 20
3200.528
 11
1111.4648
 21
3199.4839
  0
LINE
  8
1-2
  6
CONTINUOUS
 62
    3
 10
1111.4648
 20
3199.4839
 11
1110.9514
 21
3198.3287
  0
LINE
  8
1-2
  6
CONTINUOUS
 62
    3
 10
1110.9514
 20
3198.3287
 11
1110.637
 21
3197.0975
  0
LINE
  8
1-2
  6
CONTINUOUS
 62
    3
 10
1110.637
 20
3197.0975
 11
1110.5312
 21
3195.8277
  0
LINE
  8
1-2
  6
CONTINUOUS
 62
    3
 10
1110.5312
 20
3195.8277
 11
1110.637
 21
3194.5579
  0
LINE
  8
1-2
  6
CONTINUOUS
 62
    3
 10
1110.637
 20
3194.5579
 11
1110.9514
 21
3193.3267
  0
LINE
  8
1-2
  6
CONTINUOUS
 62
    3
 10
1110.9514
 20
3193.3267
 11
1111.4648
 21
3192.1715
  0
LINE
  8
1-2
  6
CONTINUOUS
 62
    3
 10
1111.4648
 20
3192.1715
 11
1112.1615
 21
3191.1274
  0
LINE
  8
1-2
  6
CONTINUOUS
 62
    3
 10
1112.1615
 20
3191.1274
 11
1113.0205
 21
3190.2261
  0
LINE
  8
1-2
  6
CONTINUOUS
 62
    3
 10
1113.0205
 20
3190.2261
 11
1114.0155
 21
3189.495
  0
LINE
  8
1-2
  6
CONTINUOUS
 62
    3
 10
1114.0155
 20
3189.495
 11
1115.1164
 21
3188.9563
  0
LINE
  8
1-2
  6
CONTINUOUS
 62
    3
 10
1115.1164
 20
3188.9563
 11
1116.2898
 21
3188.6264
  0
LINE
  8
1-2
  6
CONTINUOUS
 62
    3
 10
1116.2898
 20
3188.6264
 11
1117.4999
 21
3188.5153
  0
LINE
  8
1-2
  6
CONTINUOUS
 62
    3
 10
1117.4999
 20
3144.6402
 11
1116.2898
 21
3144.5291
  0
LINE
  8
1-2
  6
CONTINUOUS
 62
    3
 10
1116.2898
 20
3144.5291
 11
1115.1164
 21
3144.1992
  0
LINE
  8
1-2
  6
CONTINUOUS
 62
    3
 10
1115.1164
 20
3144.1992
 11
1114.0155
 21
3143.6605
  0
LINE
  8
1-2
  6
CONTINUOUS
 62
    3
 10
1114.0155
 20
3143.6605
 11
1113.0205
 21
3142.9294
  0
LINE
  8
1-2
  6
CONTINUOUS
 62
    3
 10
1113.0205
 20
3142.9294
 11
1112.1615
 21
3142.0281
  0
LINE
  8
1-2
  6
CONTINUOUS
 62
    3
 10
1112.1615
 20
3142.0281
 11
1111.4648
 21
3140.9839
  0
LINE
  8
1-2
  6
CONTINUOUS
 62
    3
 10
1111.4648
 20
3140.9839
 11
1110.9514
 21
3139.8287
  0
LINE
  8
1-2
  6
CONTINUOUS
 62
    3
 10
1110.9514
 20
3139.8287
 11
1110.637
 21
3138.5975
  0
LINE
  8
1-2
  6
CONTINUOUS
 62
    3
 10
1110.637
 20
3138.5975
 11
1110.5312
 21
3137.3277
  0
LINE
  8
1-2
  6
CONTINUOUS
 62
    3
 10
1110.5312
 20
3137.3277
 11
1110.637
 21
3136.0579
  0
LINE
  8
1-2
  6
CONTINUOUS
 62
    3
 10
1110.637
 20
3136.0579
 11
1110.9514
 21
3134.8267
  0
LINE
  8
1-2
  6
CONTINUOUS
 62
    3
 10
1110.9514
 20
3134.8267
 11
1111.4648
 21
3133.6715
  0
LINE
  8
1-2
  6
CONTINUOUS
 62
    3
 10
1111.4648
 20
3133.6715
 11
1112.1615
 21
3132.6274
  0
LINE
  8
1-2
  6
CONTINUOUS
 62
    3
 10
1112.1615
 20
3132.6274
 11
1113.0205
 21
3131.7261
  0
LINE
  8
1-2
  6
CONTINUOUS
 62
    3
 10
1113.0205
 20
3131.7261
 11
1114.0155
 21
3130.995
  0
LINE
  8
1-2
  6
CONTINUOUS
 62
    3
 10
1114.0155
 20
3130.995
 11
1115.1164
 21
3130.4563
  0
LINE
  8
1-2
  6
CONTINUOUS
 62
    3
 10
1115.1164
 20
3130.4563
 11
1116.2898
 21
3130.1264
  0
LINE
  8
1-2
  6
CONTINUOUS
 62
    3
 10
1116.2898
 20
3130.1264
 11
1117.4999
 21
3130.0153
  0
LINE
  8
1-2
  6
CONTINUOUS
 62
    3
 10
1231.875
 20
3046.7655
 11
1230.6649
 21
3046.6544
  0
LINE
  8
1-2
  6
CONTINUOUS
 62
    3
 10
1230.6649
 20
3046.6544
 11
1229.4915
 21
3046.3245
  0
LINE
  8
1-2
  6
CONTINUOUS
 62
    3
 10
1229.4915
 20
3046.3245
 11
1228.3906
 21
3045.7858
  0
LINE
  8
1-2
  6
CONTINUOUS
 62
    3
 10
1228.3906
 20
3045.7858
 11
1227.3956
 21
3045.0547
  0
LINE
  8
1-2
  6
CONTINUOUS
 62
    3
 10
1227.3956
 20
3045.0547
 11
1226.5366
 21
3044.1534
  0
LINE
  8
1-2
  6
CONTINUOUS
 62
    3
 10
1226.5366
 20
3044.1534
 11
1225.8399
 21
3043.1093
  0
LINE
  8
1-2
  6
CONTINUOUS
 62
    3
 10
1225.8399
 20
3043.1093
 11
1225.3265
 21
3041.9541
  0
LINE
  8
1-2
  6
CONTINUOUS
 62
    3
 10
1225.3265
 20
3041.9541
 11
1225.0121
 21
3040.7229
  0
LINE
  8
1-2
  6
CONTINUOUS
 62
    3
 10
1225.0121
 20
3040.7229
 11
1224.9062
 21
3039.4531
  0
LINE
  8
1-2
  6
CONTINUOUS
 62
    3
 10
1224.9062
 20
3039.4531
 11
1225.0121
 21
3038.1833
  0
LINE
  8
1-2
  6
CONTINUOUS
 62
    3
 10
1225.0121
 20
3038.1833
 11
1225.3265
 21
3036.9521
  0
LINE
  8
1-2
  6
CONTINUOUS
 62
    3
 10
1225.3265
 20
3036.9521
 11
1225.8399
 21
3035.7969
  0
LINE
  8
1-2
  6
CONTINUOUS
 62
    3
 10
1225.8399
 20
3035.7969
 11
1226.5366
 21
3034.7528
  0
LINE
  8
1-2
  6
CONTINUOUS
 62
    3
 10
1226.5366
 20
3034.7528
 11
1227.3956
 21
3033.8515
  0
LINE
  8
1-2
  6
CONTINUOUS
 62
    3
 10
1227.3956
 20
3033.8515
 11
1228.3906
 21
3033.1203
  0
LINE
  8
1-2
  6
CONTINUOUS
 62
    3
 10
1228.3906
 20
3033.1203
 11
1229.4915
 21
3032.5817
  0
LINE
  8
1-2
  6
CONTINUOUS
 62
    3
 10
1229.4915
 20
3032.5817
 11
1230.6649
 21
3032.2518
  0
LINE
  8
1-2
  6
CONTINUOUS
 62
    3
 10
1230.6649
 20
3032.2518
 11
1231.875
 21
3032.1407
  0
LINE
  8
1-2
  6
CONTINUOUS
 62
    3
 10
1117.4999
 20
3528.2649
 11
1116.2898
 21
3528.1538
  0
LINE
  8
1-2
  6
CONTINUOUS
 62
    3
 10
1116.2898
 20
3528.1538
 11
1115.1164
 21
3527.8239
  0
LINE
  8
1-2
  6
CONTINUOUS
 62
    3
 10
1115.1164
 20
3527.8239
 11
1114.0155
 21
3527.2852
  0
LINE
  8
1-2
  6
CONTINUOUS
 62
    3
 10
1114.0155
 20
3527.2852
 11
1113.0205
 21
3526.5541
  0
LINE
  8
1-2
  6
CONTINUOUS
 62
    3
 10
1113.0205
 20
3526.5541
 11
1112.1615
 21
3525.6528
  0
LINE
  8
1-2
  6
CONTINUOUS
 62
    3
 10
1112.1615
 20
3525.6528
 11
1111.4648
 21
3524.6087
  0
LINE
  8
1-2
  6
CONTINUOUS
 62
    3
 10
1111.4648
 20
3524.6087
 11
1110.9514
 21
3523.4535
  0
LINE
  8
1-2
  6
CONTINUOUS
 62
    3
 10
1110.9514
 20
3523.4535
 11
1110.637
 21
3522.2223
  0
LINE
  8
1-2
  6
CONTINUOUS
 62
    3
 10
1110.637
 20
3522.2223
 11
1110.5312
 21
3520.9525
  0
LINE
  8
1-2
  6
CONTINUOUS
 62
    3
 10
1110.5312
 20
3520.9525
 11
1110.637
 21
3519.6827
  0
LINE
  8
1-2
  6
CONTINUOUS
 62
    3
 10
1110.637
 20
3519.6827
 11
1110.9514
 21
3518.4515
  0
LINE
  8
1-2
  6
CONTINUOUS
 62
    3
 10
1110.9514
 20
3518.4515
 11
1111.4648
 21
3517.2963
  0
LINE
  8
1-2
  6
CONTINUOUS
 62
    3
 10
1111.4648
 20
3517.2963
 11
1112.1615
 21
3516.2521
  0
LINE
  8
1-2
  6
CONTINUOUS
 62
    3
 10
1112.1615
 20
3516.2521
 11
1113.0205
 21
3515.3508
  0
LINE
  8
1-2
  6
CONTINUOUS
 62
    3
 10
1113.0205
 20
3515.3508
 11
1114.0155
 21
3514.6197
  0
LINE
  8
1-2
  6
CONTINUOUS
 62
    3
 10
1114.0155
 20
3514.6197
 11
1115.1164
 21
3514.081
  0
LINE
  8
1-2
  6
CONTINUOUS
 62
    3
 10
1115.1164
 20
3514.081
 11
1116.2898
 21
3513.7511
  0
LINE
  8
1-2
  6
CONTINUOUS
 62
    3
 10
1116.2898
 20
3513.7511
 11
1117.4999
 21
3513.6401
  0
LINE
  8
1-2
  6
CONTINUOUS
 62
    3
 10
1117.4999
 20
3586.7649
 11
1116.2898
 21
3586.6538
  0
LINE
  8
1-2
  6
CONTINUOUS
 62
    3
 10
1116.2898
 20
3586.6538
 11
1115.1164
 21
3586.3239
  0
LINE
  8
1-2
  6
CONTINUOUS
 62
    3
 10
1115.1164
 20
3586.3239
 11
1114.0155
 21
3585.7852
  0
LINE
  8
1-2
  6
CONTINUOUS
 62
    3
 10
1114.0155
 20
3585.7852
 11
1113.0205
 21
3585.0541
  0
LINE
  8
1-2
  6
CONTINUOUS
 62
    3
 10
1113.0205
 20
3585.0541
 11
1112.1615
 21
3584.1528
  0
LINE
  8
1-2
  6
CONTINUOUS
 62
    3
 10
1112.1615
 20
3584.1528
 11
1111.4648
 21
3583.1087
  0
LINE
  8
1-2
  6
CONTINUOUS
 62
    3
 10
1111.4648
 20
3583.1087
 11
1110.9514
 21
3581.9534
  0
LINE
  8
1-2
  6
CONTINUOUS
 62
    3
 10
1110.9514
 20
3581.9534
 11
1110.637
 21
3580.7222
  0
LINE
  8
1-2
  6
CONTINUOUS
 62
    3
 10
1110.637
 20
3580.7222
 11
1110.5312
 21
3579.4524
  0
LINE
  8
1-2
  6
CONTINUOUS
 62
    3
 10
1110.5312
 20
3579.4524
 11
1110.637
 21
3578.1827
  0
LINE
  8
1-2
  6
CONTINUOUS
 62
    3
 10
1110.637
 20
3578.1827
 11
1110.9514
 21
3576.9515
  0
LINE
  8
1-2
  6
CONTINUOUS
 62
    3
 10
1110.9514
 20
3576.9515
 11
1111.4648
 21
3575.7962
  0
LINE
  8
1-2
  6
CONTINUOUS
 62
    3
 10
1111.4648
 20
3575.7962
 11
1112.1615
 21
3574.7521
  0
LINE
  8
1-2
  6
CONTINUOUS
 62
    3
 10
1112.1615
 20
3574.7521
 11
1113.0205
 21
3573.8508
  0
LINE
  8
1-2
  6
CONTINUOUS
 62
    3
 10
1113.0205
 20
3573.8508
 11
1114.0155
 21
3573.1197
  0
LINE
  8
1-2
  6
CONTINUOUS
 62
    3
 10
1114.0155
 20
3573.1197
 11
1115.1164
 21
3572.581
  0
LINE
  8
1-2
  6
CONTINUOUS
 62
    3
 10
1115.1164
 20
3572.581
 11
1116.2898
 21
3572.2511
  0
LINE
  8
1-2
  6
CONTINUOUS
 62
    3
 10
1116.2898
 20
3572.2511
 11
1117.4999
 21
3572.14
  0
LINE
  8
1-2
  6
CONTINUOUS
 62
    3
 10
1224.9062
 20
3095.8897
 11
1225.0121
 21
3094.6199
  0
LINE
  8
1-2
  6
CONTINUOUS
 62
    3
 10
1225.0121
 20
3094.6199
 11
1225.3264
 21
3093.3887
  0
LINE
  8
1-2
  6
CONTINUOUS
 62
    3
 10
1225.3264
 20
3093.3887
 11
1225.8398
 21
3092.2334
  0
LINE
  8
1-2
  6
CONTINUOUS
 62
    3
 10
1225.8398
 20
3092.2334
 11
1226.5365
 21
3091.1893
  0
LINE
  8
1-2
  6
CONTINUOUS
 62
    3
 10
1226.5365
 20
3091.1893
 11
1227.3954
 21
3090.288
  0
LINE
  8
1-2
  6
CONTINUOUS
 62
    3
 10
1227.3954
 20
3090.288
 11
1228.3904
 21
3089.5568
  0
LINE
  8
1-2
  6
CONTINUOUS
 62
    3
 10
1228.3904
 20
3089.5568
 11
1229.4913
 21
3089.0181
  0
LINE
  8
1-2
  6
CONTINUOUS
 62
    3
 10
1229.4913
 20
3089.0181
 11
1230.6646
 21
3088.6881
  0
LINE
  8
1-2
  6
CONTINUOUS
 62
    3
 10
1230.6646
 20
3088.6881
 11
1231.8747
 21
3088.577
  0
LINE
  8
1-2
  6
CONTINUOUS
 62
    3
 10
1231.8747
 20
3088.577
 11
1231.875
 21
3088.577
  0
LINE
  8
1-2
  6
CONTINUOUS
 62
    3
 10
2032.4999
 20
3188.5153
 11
2033.71
 21
3188.6264
  0
LINE
  8
1-2
  6
CONTINUOUS
 62
    3
 10
2033.71
 20
3188.6264
 11
2034.8834
 21
3188.9563
  0
LINE
  8
1-2
  6
CONTINUOUS
 62
    3
 10
2034.8834
 20
3188.9563
 11
2035.9843
 21
3189.495
  0
LINE
  8
1-2
  6
CONTINUOUS
 62
    3
 10
2035.9843
 20
3189.495
 11
2036.9793
 21
3190.2261
  0
LINE
  8
1-2
  6
CONTINUOUS
 62
    3
 10
2036.9793
 20
3190.2261
 11
2037.8383
 21
3191.1274
  0
LINE
  8
1-2
  6
CONTINUOUS
 62
    3
 10
2037.8383
 20
3191.1274
 11
2038.535
 21
3192.1715
  0
LINE
  8
1-2
  6
CONTINUOUS
 62
    3
 10
2038.535
 20
3192.1715
 11
2039.0484
 21
3193.3267
  0
LINE
  8
1-2
  6
CONTINUOUS
 62
    3
 10
2039.0484
 20
3193.3267
 11
2039.3628
 21
3194.5579
  0
LINE
  8
1-2
  6
CONTINUOUS
 62
    3
 10
2039.3628
 20
3194.5579
 11
2039.4687
 21
3195.8277
  0
LINE
  8
1-2
  6
CONTINUOUS
 62
    3
 10
2039.4687
 20
3195.8277
 11
2039.3628
 21
3197.0975
  0
LINE
  8
1-2
  6
CONTINUOUS
 62
    3
 10
2039.3628
 20
3197.0975
 11
2039.0484
 21
3198.3287
  0
LINE
  8
1-2
  6
CONTINUOUS
 62
    3
 10
2039.0484
 20
3198.3287
 11
2038.535
 21
3199.4839
  0
LINE
  8
1-2
  6
CONTINUOUS
 62
    3
 10
2038.535
 20
3199.4839
 11
2037.8383
 21
3200.528
  0
LINE
  8
1-2
  6
CONTINUOUS
 62
    3
 10
2037.8383
 20
3200.528
 11
2036.9793
 21
3201.4293
  0
LINE
  8
1-2
  6
CONTINUOUS
 62
    3
 10
2036.9793
 20
3201.4293
 11
2035.9843
 21
3202.1604
  0
LINE
  8
1-2
  6
CONTINUOUS
 62
    3
 10
2035.9843
 20
3202.1604
 11
2034.8834
 21
3202.6991
  0
LINE
  8
1-2
  6
CONTINUOUS
 62
    3
 10
2034.8834
 20
3202.6991
 11
2033.71
 21
3203.029
  0
LINE
  8
1-2
  6
CONTINUOUS
 62
    3
 10
2033.71
 20
3203.029
 11
2032.4999
 21
3203.1401
  0
LINE
  8
1-2
  6
CONTINUOUS
 62
    3
 10
2032.4999
 20
3130.0153
 11
2033.71
 21
3130.1264
  0
LINE
  8
1-2
  6
CONTINUOUS
 62
    3
 10
2033.71
 20
3130.1264
 11
2034.8834
 21
3130.4563
  0
LINE
  8
1-2
  6
CONTINUOUS
 62
    3
 10
2034.8834
 20
3130.4563
 11
2035.9843
 21
3130.995
  0
LINE
  8
1-2
  6
CONTINUOUS
 62
    3
 10
2035.9843
 20
3130.995
 11
2036.9793
 21
3131.7261
  0
LINE
  8
1-2
  6
CONTINUOUS
 62
    3
 10
2036.9793
 20
3131.7261
 11
2037.8383
 21
3132.6274
  0
LINE
  8
1-2
  6
CONTINUOUS
 62
    3
 10
2037.8383
 20
3132.6274
 11
2038.535
 21
3133.6715
  0
LINE
  8
1-2
  6
CONTINUOUS
 62
    3
 10
2038.535
 20
3133.6715
 11
2039.0484
 21
3134.8267
  0
LINE
  8
1-2
  6
CONTINUOUS
 62
    3
 10
2039.0484
 20
3134.8267
 11
2039.3628
 21
3136.0579
  0
LINE
  8
1-2
  6
CONTINUOUS
 62
    3
 10
2039.3628
 20
3136.0579
 11
2039.4687
 21
3137.3277
  0
LINE
  8
1-2
  6
CONTINUOUS
 62
    3
 10
2039.4687
 20
3137.3277
 11
2039.3628
 21
3138.5975
  0
LINE
  8
1-2
  6
CONTINUOUS
 62
    3
 10
2039.3628
 20
3138.5975
 11
2039.0484
 21
3139.8287
  0
LINE
  8
1-2
  6
CONTINUOUS
 62
    3
 10
2039.0484
 20
3139.8287
 11
2038.535
 21
3140.9839
  0
LINE
  8
1-2
  6
CONTINUOUS
 62
    3
 10
2038.535
 20
3140.9839
 11
2037.8383
 21
3142.0281
  0
LINE
  8
1-2
  6
CONTINUOUS
 62
    3
 10
2037.8383
 20
3142.0281
 11
2036.9793
 21
3142.9294
  0
LINE
  8
1-2
  6
CONTINUOUS
 62
    3
 10
2036.9793
 20
3142.9294
 11
2035.9843
 21
3143.6605
  0
LINE
  8
1-2
  6
CONTINUOUS
 62
    3
 10
2035.9843
 20
3143.6605
 11
2034.8834
 21
3144.1992
  0
LINE
  8
1-2
  6
CONTINUOUS
 62
    3
 10
2034.8834
 20
3144.1992
 11
2033.71
 21
3144.5291
  0
LINE
  8
1-2
  6
CONTINUOUS
 62
    3
 10
2033.71
 20
3144.5291
 11
2032.4999
 21
3144.6402
  0
LINE
  8
1-2
  6
CONTINUOUS
 62
    3
 10
1918.1248
 20
3032.1407
 11
1919.3349
 21
3032.2518
  0
LINE
  8
1-2
  6
CONTINUOUS
 62
    3
 10
1919.3349
 20
3032.2518
 11
1920.5083
 21
3032.5817
  0
LINE
  8
1-2
  6
CONTINUOUS
 62
    3
 10
1920.5083
 20
3032.5817
 11
1921.6092
 21
3033.1203
  0
LINE
  8
1-2
  6
CONTINUOUS
 62
    3
 10
1921.6092
 20
3033.1203
 11
1922.6042
 21
3033.8515
  0
LINE
  8
1-2
  6
CONTINUOUS
 62
    3
 10
1922.6042
 20
3033.8515
 11
1923.4632
 21
3034.7528
  0
LINE
  8
1-2
  6
CONTINUOUS
 62
    3
 10
1923.4632
 20
3034.7528
 11
1924.1599
 21
3035.7969
  0
LINE
  8
1-2
  6
CONTINUOUS
 62
    3
 10
1924.1599
 20
3035.7969
 11
1924.6733
 21
3036.9521
  0
LINE
  8
1-2
  6
CONTINUOUS
 62
    3
 10
1924.6733
 20
3036.9521
 11
1924.9877
 21
3038.1833
  0
LINE
  8
1-2
  6
CONTINUOUS
 62
    3
 10
1924.9877
 20
3038.1833
 11
1925.0936
 21
3039.4531
  0
LINE
  8
1-2
  6
CONTINUOUS
 62
    3
 10
1925.0936
 20
3039.4531
 11
1924.9877
 21
3040.7229
  0
LINE
  8
1-2
  6
CONTINUOUS
 62
    3
 10
1924.9877
 20
3040.7229
 11
1924.6733
 21
3041.9541
  0
LINE
  8
1-2
  6
CONTINUOUS
 62
    3
 10
1924.6733
 20
3041.9541
 11
1924.1599
 21
3043.1093
  0
LINE
  8
1-2
  6
CONTINUOUS
 62
    3
 10
1924.1599
 20
3043.1093
 11
1923.4632
 21
3044.1534
  0
LINE
  8
1-2
  6
CONTINUOUS
 62
    3
 10
1923.4632
 20
3044.1534
 11
1922.6042
 21
3045.0547
  0
LINE
  8
1-2
  6
CONTINUOUS
 62
    3
 10
1922.6042
 20
3045.0547
 11
1921.6092
 21
3045.7858
  0
LINE
  8
1-2
  6
CONTINUOUS
 62
    3
 10
1921.6092
 20
3045.7858
 11
1920.5083
 21
3046.3245
  0
LINE
  8
1-2
  6
CONTINUOUS
 62
    3
 10
1920.5083
 20
3046.3245
 11
1919.3349
 21
3046.6544
  0
LINE
  8
1-2
  6
CONTINUOUS
 62
    3
 10
1919.3349
 20
3046.6544
 11
1918.1248
 21
3046.7655
  0
LINE
  8
1-2
  6
CONTINUOUS
 62
    3
 10
2032.4999
 20
3513.6401
 11
2033.71
 21
3513.7511
  0
LINE
  8
1-2
  6
CONTINUOUS
 62
    3
 10
2033.71
 20
3513.7511
 11
2034.8834
 21
3514.081
  0
LINE
  8
1-2
  6
CONTINUOUS
 62
    3
 10
2034.8834
 20
3514.081
 11
2035.9843
 21
3514.6197
  0
LINE
  8
1-2
  6
CONTINUOUS
 62
    3
 10
2035.9843
 20
3514.6197
 11
2036.9793
 21
3515.3508
  0
LINE
  8
1-2
  6
CONTINUOUS
 62
    3
 10
2036.9793
 20
3515.3508
 11
2037.8383
 21
3516.2521
  0
LINE
  8
1-2
  6
CONTINUOUS
 62
    3
 10
2037.8383
 20
3516.2521
 11
2038.535
 21
3517.2963
  0
LINE
  8
1-2
  6
CONTINUOUS
 62
    3
 10
2038.535
 20
3517.2963
 11
2039.0484
 21
3518.4515
  0
LINE
  8
1-2
  6
CONTINUOUS
 62
    3
 10
2039.0484
 20
3518.4515
 11
2039.3628
 21
3519.6827
  0
LINE
  8
1-2
  6
CONTINUOUS
 62
    3
 10
2039.3628
 20
3519.6827
 11
2039.4687
 21
3520.9525
  0
LINE
  8
1-2
  6
CONTINUOUS
 62
    3
 10
2039.4687
 20
3520.9525
 11
2039.3628
 21
3522.2223
  0
LINE
  8
1-2
  6
CONTINUOUS
 62
    3
 10
2039.3628
 20
3522.2223
 11
2039.0484
 21
3523.4535
  0
LINE
  8
1-2
  6
CONTINUOUS
 62
    3
 10
2039.0484
 20
3523.4535
 11
2038.535
 21
3524.6087
  0
LINE
  8
1-2
  6
CONTINUOUS
 62
    3
 10
2038.535
 20
3524.6087
 11
2037.8383
 21
3525.6528
  0
LINE
  8
1-2
  6
CONTINUOUS
 62
    3
 10
2037.8383
 20
3525.6528
 11
2036.9793
 21
3526.5541
  0
LINE
  8
1-2
  6
CONTINUOUS
 62
    3
 10
2036.9793
 20
3526.5541
 11
2035.9843
 21
3527.2852
  0
LINE
  8
1-2
  6
CONTINUOUS
 62
    3
 10
2035.9843
 20
3527.2852
 11
2034.8834
 21
3527.8239
  0
LINE
  8
1-2
  6
CONTINUOUS
 62
    3
 10
2034.8834
 20
3527.8239
 11
2033.71
 21
3528.1538
  0
LINE
  8
1-2
  6
CONTINUOUS
 62
    3
 10
2033.71
 20
3528.1538
 11
2032.4999
 21
3528.2649
  0
LINE
  8
1-2
  6
CONTINUOUS
 62
    3
 10
2032.4999
 20
3572.14
 11
2033.71
 21
3572.2511
  0
LINE
  8
1-2
  6
CONTINUOUS
 62
    3
 10
2033.71
 20
3572.2511
 11
2034.8834
 21
3572.581
  0
LINE
  8
1-2
  6
CONTINUOUS
 62
    3
 10
2034.8834
 20
3572.581
 11
2035.9843
 21
3573.1197
  0
LINE
  8
1-2
  6
CONTINUOUS
 62
    3
 10
2035.9843
 20
3573.1197
 11
2036.9793
 21
3573.8508
  0
LINE
  8
1-2
  6
CONTINUOUS
 62
    3
 10
2036.9793
 20
3573.8508
 11
2037.8383
 21
3574.7521
  0
LINE
  8
1-2
  6
CONTINUOUS
 62
    3
 10
2037.8383
 20
3574.7521
 11
2038.535
 21
3575.7962
  0
LINE
  8
1-2
  6
CONTINUOUS
 62
    3
 10
2038.535
 20
3575.7962
 11
2039.0484
 21
3576.9515
  0
LINE
  8
1-2
  6
CONTINUOUS
 62
    3
 10
2039.0484
 20
3576.9515
 11
2039.3628
 21
3578.1827
  0
LINE
  8
1-2
  6
CONTINUOUS
 62
    3
 10
2039.3628
 20
3578.1827
 11
2039.4687
 21
3579.4524
  0
LINE
  8
1-2
  6
CONTINUOUS
 62
    3
 10
2039.4687
 20
3579.4524
 11
2039.3628
 21
3580.7222
  0
LINE
  8
1-2
  6
CONTINUOUS
 62
    3
 10
2039.3628
 20
3580.7222
 11
2039.0484
 21
3581.9534
  0
LINE
  8
1-2
  6
CONTINUOUS
 62
    3
 10
2039.0484
 20
3581.9534
 11
2038.535
 21
3583.1087
  0
LINE
  8
1-2
  6
CONTINUOUS
 62
    3
 10
2038.535
 20
3583.1087
 11
2037.8383
 21
3584.1528
  0
LINE
  8
1-2
  6
CONTINUOUS
 62
    3
 10
2037.8383
 20
3584.1528
 11
2036.9793
 21
3585.0541
  0
LINE
  8
1-2
  6
CONTINUOUS
 62
    3
 10
2036.9793
 20
3585.0541
 11
2035.9843
 21
3585.7852
  0
LINE
  8
1-2
  6
CONTINUOUS
 62
    3
 10
2035.9843
 20
3585.7852
 11
2034.8834
 21
3586.3239
  0
LINE
  8
1-2
  6
CONTINUOUS
 62
    3
 10
2034.8834
 20
3586.3239
 11
2033.71
 21
3586.6538
  0
LINE
  8
1-2
  6
CONTINUOUS
 62
    3
 10
2033.71
 20
3586.6538
 11
2032.4999
 21
3586.7649
  0
LINE
  8
1-2
  6
CONTINUOUS
 62
    3
 10
1918.1248
 20
3088.577
 11
1919.3349
 21
3088.6881
  0
LINE
  8
1-2
  6
CONTINUOUS
 62
    3
 10
1919.3349
 20
3088.6881
 11
1920.5083
 21
3089.018
  0
LINE
  8
1-2
  6
CONTINUOUS
 62
    3
 10
1920.5083
 20
3089.018
 11
1921.6092
 21
3089.5567
  0
LINE
  8
1-2
  6
CONTINUOUS
 62
    3
 10
1921.6092
 20
3089.5567
 11
1922.6042
 21
3090.2878
  0
LINE
  8
1-2
  6
CONTINUOUS
 62
    3
 10
1922.6042
 20
3090.2878
 11
1923.4632
 21
3091.1891
  0
LINE
  8
1-2
  6
CONTINUOUS
 62
    3
 10
1923.4632
 20
3091.1891
 11
1924.1599
 21
3092.2332
  0
LINE
  8
1-2
  6
CONTINUOUS
 62
    3
 10
1924.1599
 20
3092.2332
 11
1924.6733
 21
3093.3884
  0
LINE
  8
1-2
  6
CONTINUOUS
 62
    3
 10
1924.6733
 20
3093.3884
 11
1924.9877
 21
3094.6196
  0
LINE
  8
1-2
  6
CONTINUOUS
 62
    3
 10
1924.9877
 20
3094.6196
 11
1925.0936
 21
3095.8894
  0
LINE
  8
1-2
  6
CONTINUOUS
 62
    3
 10
1925.0936
 20
3095.8894
 11
1925.0936
 21
3095.8897
  0
TEXT
  8
1-d
 10
1018.7635
 20
2185.7753
 40
45
 41
1
 50
0
  1
3
  0
TEXT
  8
1-d
 10
916.75375
 20
2118.3896
 40
45
 41
1
 50
0
  1
10
  0
TEXT
  8
1-8
 10
2474.9025
 20
2449.5667
 40
45
 41
1
 50
90
  1
100
  0
TEXT
  8
1-8
 10
1497.5782
 20
1232.6463
 40
45
 41
1
 50
19.303787
  1
905φ
  0
TEXT
  8
1-8
 10
2449.0046
 20
1178.9595
 40
45
 41
1
 50
90
  1
1,100
  0
TEXT
  8
1-8
 10
1489.368
 20
1972.4713
 40
45
 41
1
 50
0
  1
1,100
  0
TEXT
  8
1-8
 10
2474.9025
 20
2262.9292
 40
45
 41
1
 50
90
  1
440
  0
TEXT
  8
1-8
 10
1518.6404
 20
2737.6772
 40
45
 41
1
 50
0
  1
905φ
  0
TEXT
  8
1-d
 10
382.49976
 20
229.17108
 40
37.5
 41
1
 50
0
  1
図
  0
TEXT
  8
1-d
 10
382.49976
 20
139.17114
 40
37.5
 41
1
 50
0
  1
番
  0
TEXT
  8
1-d
 10
982.49978
 20
229.17108
 40
37.5
 41
1
 50
0
  1
承
  0
TEXT
  8
1-d
 10
982.49978
 20
139.17114
 40
37.5
 41
1
 50
0
  1
認
  0
TEXT
  8
1-d
 10
1529.9997
 20
349.17115
 40
37.5
 41
1
 50
0
  1
尺
  0
TEXT
  8
1-d
 10
1529.9997
 20
289.17119
 40
37.5
 41
1
 50
359.99986
  1
度
  0
TEXT
  8
1-d
 10
1282.4997
 20
229.17108
 40
37.5
 41
1
 50
0
  1
製
  0
TEXT
  8
1-d
 10
1282.4997
 20
139.17114
 40
37.5
 41
1
 50
0
  1
図
  0
TEXT
  8
1-d
 10
2332.4998
 20
349.17115
 40
37.5
 41
1
 50
0
  1
日
  0
TEXT
  8
1-d
 10
2332.4998
 20
289.17119
 40
37.5
 41
1
 50
359.99986
  1
付
  0
TEXT
  8
1-d
 10
1667.1388
 20
238.14454
 40
30
 41
1
 50
0
  1
株式
  0
TEXT
  8
1-d
 10
1667.1388
 20
205.69889
 40
30
 41
1
 50
0.0000152
  1
会社
  0
TEXT
  8
1-d
 10
1761.3362
 20
207.79214
 40
60
 41
1
 50
0
  1
スズキベンチレーター
  0
TEXT
  8
1-d
 10
1856.8764
 20
133.95771
 40
30
 41
1
 50
0
  1
TEL(054)296-7000  FAX(054)296-7001
  0
TEXT
  8
1-8
 10
2435.0444
 20
672.17935
 40
45
 41
1
 50
90
  1
260
  0
TEXT
  8
1-8
 10
2435.0444
 20
1692.1793
 40
45
 41
1
 50
90
  1
260
  0
TEXT
  8
1-8
 10
718.1421
 20
1135.9059
 40
45
 41
1
 50
90
  1
≒ 1,620
  0
TEXT
  8
1-8
 10
1523.0806
 20
2915.0919
 40
45
 41
1
 50
0
  1
915φ
  0
TEXT
  8
1-8
 10
734.74667
 20
3357.9458
 40
45
 41
1
 50
90
  1
1,000
  0
TEXT
  8
1-8
 10
1526.4255
 20
3940.782
 40
45
 41
1
 50
0
  1
1,220
  0
TEXT
  8
1-d
 10
447.50644
 20
212.49979
 40
45
 41
1
 50
0
  1
90-F07
  0
TEXT
  8
1-d
 10
1626.5232
 20
308.07222
 40
60
 41
1
 50
0
  1
１／２０
  0
TEXT
  8
1-d
 10
382.50006
 20
4159.0518
 40
75
 41
1
 50
0
  1
ＤＳ－９００　自然換気  直付型立面、直付袴立面・平面
  0
TEXT
  8
1-d
 10
380.25383
 20
343.43856
 40
45
 41
1
 50
0
  1
ＤＳ－９００　自然換気  直付型立面、
  0
TEXT
  8
1-d
 10
1007.4269
 20
284.2713
 40
45
 41
1
 50
0
  1
直付袴立面・平面
  0
TEXT
  8
1-d
 10
1853.5185
 20
170.89026
 40
30
 41
1
 50
0
  1
〒421-2114　静岡市葵区安倍口新田１５２番地
  0
POINT
  8
1-8
 62
    2
 10
2390.0461
 20
2131.9241
  0
POINT
  8
1-8
 62
    2
 10
2390.0461
 20
2461.9245
  0
POINT
  8
1-8
 62
    2
 10
2390.0461
 20
2536.9245
  0
POINT
  8
1-8
 62
    2
 10
759.95621
 20
607.96036
  0
POINT
  8
1-8
 62
    2
 10
759.95621
 20
1822.96
  0
POINT
  8
1-8
 62
    2
 10
2390.0442
 20
802.96082
  0
POINT
  8
1-8
 62
    2
 10
2390.0442
 20
1627.9609
  0
POINT
  8
1-8
 62
    2
 10
1987.5024
 20
1930.657
  0
POINT
  8
1-8
 62
    2
 10
1162.5025
 20
1930.657
  0
POINT
  8
1-8
 62
    2
 10
1254.7047
 20
1103.2707
  0
POINT
  8
1-8
 62
    2
 10
1895.2952
 20
1327.6489
  0
POINT
  8
1-8
 62
    2
 10
1914.3774
 20
2695.8631
  0
POINT
  8
1-8
 62
    2
 10
1235.6274
 20
2695.8631
  0
POINT
  8
1-8
 62
    2
 10
2390.0442
 20
607.96036
  0
POINT
  8
1-8
 62
    2
 10
2390.0442
 20
1822.96
  0
POINT
  8
1-8
 62
    2
 10
759.95621
 20
3009.6397
  0
POINT
  8
1-8
 62
    2
 10
759.95621
 20
3759.6397
  0
POINT
  8
1-8
 62
    2
 10
1117.4999
 20
3924.0705
  0
POINT
  8
1-8
 62
    2
 10
2032.4995
 20
3924.0705
  0
POINT
  8
1-8
 62
    2
 10
1231.875
 20
2873.278
  0
POINT
  8
1-8
 62
    2
 10
1918.1248
 20
2873.278
  0
ENDSEC
  0
EOF
