  0
SECTION
  2
HEADER
  9
$EXTMIN
 10
0
 20
0
  9
$EXTMAX
 10
4200
 20
2970
  0
ENDSEC
  0
SECTION
  2
TABLES
  0
TABLE
  2
LTYPE
 70
     9
  0
LTYPE
  2
CONTINUOUS
 70
    64
  3
実線
 72
    65
 73
     0
 40
0.0
  0
LTYPE
  2
DASHED1
 70
    64
  3
--  --  --  --  --  --  --  --  
 72
    65
 73
     2
 40
2.5
 49
1.25
 49
-1.25
  0
LTYPE
  2
DASHED2
 70
    64
  3
----    ----    ----    ----    
 72
    65
 73
     2
 40
5.0
 49
2.5
 49
-2.5
  0
LTYPE
  2
DASHED3
 70
    64
  3
------  ------  ------  ------  
 72
    65
 73
     2
 40
5.0
 49
3.75
 49
-1.25
  0
LTYPE
  2
CENTER1
 70
    64
  3
----- - ----- - ----- - ----- - 
 72
    65
 73
     4
 40
10.0
 49
6.25
 49
-1.25
 49
1.25
 49
-1.25
  0
LTYPE
  2
CENTER2
 70
    64
  3
----------  --  ----------  --  
 72
    65
 73
     4
 40
20.0
 49
12.5
 49
-2.5
 49
2.5
 49
-2.5
  0
LTYPE
  2
PHANTOM1
 70
    64
  3
--- - - --- - - --- - - --- - - 
 72
    65
 73
     6
 40
10.0
 49
3.25
 49
-1.25
 49
1.25
 49
-1.25
 49
1.25
 49
-1.25
  0
LTYPE
  2
PHANTOM2
 70
    64
  3
--------  -  -  --------  -  -  
 72
    65
 73
     6
 40
20.0
 49
10.0
 49
-2.5
 49
1.25
 49
-2.5
 49
1.25
 49
-2.5
  0
LTYPE
  2
DOT
 70
    64
  3
-   -   -   -   -   -   -   -   
 72
    65
 73
     2
 40
2.5
 49
0.625
 49
-1.875
  0
ENDTAB
  0
TABLE
  2
STYLE
 70
    1
  0
STYLE
  2
STANDARD
 70
    64
 40
0.0
 41
1.0
 42
0.0
 50
0.0
 71
     0
  3
TXT
  4
BIGFONT
  0
ENDTAB
  0
TABLE
  2
LAYER
 70
    6
  0
LAYER
  2
1-1
 70
   64
 62
    7
  6
CONTINUOUS
  0
LAYER
  2
1-2
 70
   64
 62
    7
  6
CONTINUOUS
  0
LAYER
  2
1-4
 70
   64
 62
    7
  6
CONTINUOUS
  0
LAYER
  2
1-8
 70
   64
 62
    7
  6
CONTINUOUS
  0
LAYER
  2
1-d
 70
   64
 62
    7
  6
CONTINUOUS
  0
LAYER
  2
ADD_LINE
 70
   64
 62
    7
  6
CONTINUOUS
  0
ENDTAB
  0
ENDSEC
  0
SECTION
  2
ENTITIES
  0
LINE
  8
1-d
  6
CONTINUOUS
 62
    7
 10
250.00006
 20
2757.7013
 11
1850.0001
 21
2757.7013
  0
LINE
  8
1-d
  6
CONTINUOUS
 62
    7
 10
250.00006
 20
2767.7016
 11
1850.0001
 21
2767.7016
  0
LINE
  8
1-d
  6
CONTINUOUS
 62
    7
 10
249.99969
 20
189.99989
 11
1850.0005
 21
189.99989
  0
LINE
  8
1-d
  6
CONTINUOUS
 62
    7
 10
249.99969
 20
89.999806
 11
249.99969
 21
269.99991
  0
LINE
  8
1-d
  6
CONTINUOUS
 62
    7
 10
249.99969
 20
89.999806
 11
1850.0005
 21
89.999806
  0
LINE
  8
1-d
  6
CONTINUOUS
 62
    7
 10
1850.0005
 20
269.99991
 11
1850.0005
 21
89.999806
  0
LINE
  8
1-d
  6
CONTINUOUS
 62
    7
 10
249.99969
 20
269.99991
 11
1850.0005
 21
269.99991
  0
LINE
  8
1-d
  6
CONTINUOUS
 62
    7
 10
1050
 20
269.99991
 11
1050
 21
89.999806
  0
LINE
  8
1-d
  6
CONTINUOUS
 62
    7
 10
650.00019
 20
89.999806
 11
650.00019
 21
189.99989
  0
LINE
  8
1-d
  6
CONTINUOUS
 62
    7
 10
1050
 20
189.99989
 11
1050
 21
269.99991
  0
LINE
  8
1-d
  6
CONTINUOUS
 62
    7
 10
849.99981
 20
89.999806
 11
849.99981
 21
189.99989
  0
LINE
  8
1-d
  6
CONTINUOUS
 62
    7
 10
285.00002
 20
89.999806
 11
285.00002
 21
189.99989
  0
LINE
  8
1-d
  6
CONTINUOUS
 62
    7
 10
685.00006
 20
89.999806
 11
685.00006
 21
189.99989
  0
LINE
  8
1-d
  6
CONTINUOUS
 62
    7
 10
885.00018
 20
89.999806
 11
885.00018
 21
189.99989
  0
LINE
  8
1-d
  6
CONTINUOUS
 62
    7
 10
1015
 20
189.99989
 11
1015
 21
269.99991
  0
LINE
  8
1-d
  6
CONTINUOUS
 62
    7
 10
1550.0004
 20
189.99989
 11
1550.0004
 21
269.99991
  0
LINE
  8
1-d
  6
CONTINUOUS
 62
    7
 10
1585.0002
 20
189.99989
 11
1585.0002
 21
269.99991
  0
LINE
  8
1-2
  6
CONTINUOUS
 62
    3
 10
564.66846
 20
2389.669
 11
1049.9999
 21
2501.035
  0
LINE
  8
1-2
  6
CONTINUOUS
 62
    3
 10
1535.3323
 20
2389.669
 11
1049.9999
 21
2501.035
  0
LINE
  8
1-8
  6
CONTINUOUS
 62
    7
 10
325.51675
 20
1981.0347
 11
325.51675
 21
2501.035
  0
LINE
  8
1-8
  6
CONTINUOUS
 62
    7
 10
583.33483
 20
1981.0347
 11
325.51675
 21
1981.0347
  0
LINE
  8
1-8
  6
CONTINUOUS
 62
    7
 10
583.33483
 20
2660.5287
 11
1516.6665
 21
2660.5287
  0
LINE
  8
1-8
  6
CONTINUOUS
 62
    7
 10
745.00014
 20
1859.8243
 11
1355.0002
 21
1859.8243
  0
LINE
  8
1-2
  6
CONTINUOUS
 62
    3
 10
583.33483
 20
2394.3683
 11
583.33483
 21
2269.7017
  0
LINE
  8
1-2
  6
CONTINUOUS
 62
    3
 10
1516.6665
 20
2394.3683
 11
1516.6665
 21
2269.7017
  0
LINE
  8
1-8
  6
CONTINUOUS
 62
    7
 10
745.00014
 20
1936.7969
 11
745.00014
 21
1859.8243
  0
LINE
  8
1-8
  6
CONTINUOUS
 62
    7
 10
1355.0002
 20
1936.7969
 11
1355.0002
 21
1859.8243
  0
LINE
  8
1-8
  6
CONTINUOUS
 62
    7
 10
583.33483
 20
2448.0672
 11
583.33483
 21
2660.5287
  0
LINE
  8
1-8
  6
CONTINUOUS
 62
    7
 10
719.70288
 20
2501.035
 11
325.51675
 21
2501.035
  0
LINE
  8
1-8
  6
CONTINUOUS
 62
    7
 10
1516.6665
 20
2448.0672
 11
1516.6665
 21
2660.5287
  0
LINE
  8
1-2
  6
CONTINUOUS
 62
    3
 10
583.33483
 20
2256.7022
 11
583.33483
 21
2217.702
  0
LINE
  8
1-2
  6
CONTINUOUS
 62
    3
 10
583.33483
 20
2204.7022
 11
583.33483
 21
2174.3683
  0
LINE
  8
1-2
  6
CONTINUOUS
 62
    3
 10
1516.6665
 20
2256.7022
 11
1516.6665
 21
2217.702
  0
LINE
  8
1-2
  6
CONTINUOUS
 62
    3
 10
1516.6655
 20
2204.7022
 11
1516.6655
 21
2174.3683
  0
LINE
  8
1-2
  6
CONTINUOUS
 62
    3
 10
745.00014
 20
2024.3688
 11
1355.0002
 21
2024.3688
  0
LINE
  8
1-2
  6
CONTINUOUS
 62
    3
 10
745.00014
 20
2063.3688
 11
745.00014
 21
2024.3688
  0
LINE
  8
1-2
  6
CONTINUOUS
 62
    3
 10
745.00014
 20
1981.0352
 11
1355.0002
 21
1981.0352
  0
LINE
  8
1-2
  6
CONTINUOUS
 62
    3
 10
745.00014
 20
2011.3688
 11
1355.0002
 21
2011.3688
  0
LINE
  8
1-2
  6
CONTINUOUS
 62
    3
 10
1355.0002
 20
2011.3688
 11
1355.0002
 21
1981.0352
  0
LINE
  8
1-2
  6
CONTINUOUS
 62
    3
 10
1355.0002
 20
2063.3688
 11
1355.0002
 21
2024.3688
  0
LINE
  8
1-2
  6
CONTINUOUS
 62
    3
 10
745.00014
 20
2174.3688
 11
745.00014
 21
2076.3688
  0
LINE
  8
1-2
  6
CONTINUOUS
 62
    3
 10
745.00014
 20
2011.3688
 11
745.00014
 21
1981.0352
  0
LINE
  8
1-2
  6
CONTINUOUS
 62
    3
 10
1071.836
 20
2221.5816
 11
1077.5827
 21
2225.1136
  0
LINE
  8
1-2
  6
CONTINUOUS
 62
    3
 10
1077.5827
 20
2225.1136
 11
1083.3021
 21
2228.716
  0
LINE
  8
1-2
  6
CONTINUOUS
 62
    3
 10
1083.3021
 20
2228.716
 11
1088.9677
 21
2232.4529
  0
LINE
  8
1-2
  6
CONTINUOUS
 62
    3
 10
1088.9677
 20
2232.4529
 11
1094.516
 21
2236.3978
  0
LINE
  8
1-2
  6
CONTINUOUS
 62
    3
 10
1094.516
 20
2236.3978
 11
1099.8459
 21
2240.6295
  0
LINE
  8
1-2
  6
CONTINUOUS
 62
    3
 10
1099.8459
 20
2240.6295
 11
1104.8454
 21
2245.218
  0
LINE
  8
1-2
  6
CONTINUOUS
 62
    3
 10
1104.8454
 20
2245.218
 11
1109.406
 21
2250.2445
  0
LINE
  8
1-2
  6
CONTINUOUS
 62
    3
 10
1109.406
 20
2250.2445
 11
1113.4172
 21
2255.7798
  0
LINE
  8
1-2
  6
CONTINUOUS
 62
    3
 10
1113.4172
 20
2255.7798
 11
1116.9158
 21
2261.7673
  0
LINE
  8
1-2
  6
CONTINUOUS
 62
    3
 10
1116.9158
 20
2261.7673
 11
1120.2216
 21
2267.8813
  0
LINE
  8
1-2
  6
CONTINUOUS
 62
    3
 10
1120.2216
 20
2267.8813
 11
1123.6704
 21
2273.7773
  0
LINE
  8
1-2
  6
CONTINUOUS
 62
    3
 10
1123.6704
 20
2273.7773
 11
1127.6158
 21
2279.1096
  0
LINE
  8
1-2
  6
CONTINUOUS
 62
    3
 10
1127.6158
 20
2279.1096
 11
1132.3914
 21
2283.5309
  0
LINE
  8
1-2
  6
CONTINUOUS
 62
    3
 10
1132.3914
 20
2283.5309
 11
1138.1033
 21
2286.949
  0
LINE
  8
1-2
  6
CONTINUOUS
 62
    3
 10
1138.1033
 20
2286.949
 11
1144.4026
 21
2289.7419
  0
LINE
  8
1-2
  6
CONTINUOUS
 62
    3
 10
1144.4026
 20
2289.7419
 11
1147.3853
 21
2290.9333
  0
LINE
  8
1-2
  6
CONTINUOUS
 62
    3
 10
1144.4026
 20
2289.7419
 11
1148.5512
 21
2290.4013
  0
LINE
  8
1-2
  6
CONTINUOUS
 62
    3
 10
1148.5512
 20
2290.4013
 11
1152.7369
 21
2290.9746
  0
LINE
  8
1-2
  6
CONTINUOUS
 62
    3
 10
1152.7369
 20
2290.9746
 11
1156.9916
 21
2291.3854
  0
LINE
  8
1-2
  6
CONTINUOUS
 62
    3
 10
1156.9916
 20
2291.3854
 11
1161.3508
 21
2291.5408
  0
LINE
  8
1-2
  6
CONTINUOUS
 62
    3
 10
1161.3508
 20
2291.5408
 11
1165.8428
 21
2291.3643
  0
LINE
  8
1-2
  6
CONTINUOUS
 62
    3
 10
1165.8428
 20
2291.3643
 11
1170.3373
 21
2290.7096
  0
LINE
  8
1-2
  6
CONTINUOUS
 62
    3
 10
1170.3373
 20
2290.7096
 11
1174.5304
 21
2289.3964
  0
LINE
  8
1-2
  6
CONTINUOUS
 62
    3
 10
1174.5304
 20
2289.3964
 11
1178.1042
 21
2287.2197
  0
LINE
  8
1-2
  6
CONTINUOUS
 62
    3
 10
1178.1042
 20
2287.2197
 11
1180.8018
 21
2284.0381
  0
LINE
  8
1-2
  6
CONTINUOUS
 62
    3
 10
1180.8018
 20
2284.0381
 11
1182.9048
 21
2280.2189
  0
LINE
  8
1-2
  6
CONTINUOUS
 62
    3
 10
1069.5798
 20
2205.7962
 11
1076.3139
 21
2206.7963
  0
LINE
  8
1-2
  6
CONTINUOUS
 62
    3
 10
1076.3139
 20
2206.7963
 11
1083.0069
 21
2207.9274
  0
LINE
  8
1-2
  6
CONTINUOUS
 62
    3
 10
1083.0069
 20
2207.9274
 11
1089.6261
 21
2209.3101
  0
LINE
  8
1-2
  6
CONTINUOUS
 62
    3
 10
1089.6261
 20
2209.3101
 11
1096.1266
 21
2211.0793
  0
LINE
  8
1-2
  6
CONTINUOUS
 62
    3
 10
1096.1266
 20
2211.0793
 11
1102.4744
 21
2213.3565
  0
LINE
  8
1-2
  6
CONTINUOUS
 62
    3
 10
1102.4744
 20
2213.3565
 11
1108.634
 21
2216.1733
  0
LINE
  8
1-2
  6
CONTINUOUS
 62
    3
 10
1108.634
 20
2216.1733
 11
1114.5792
 21
2219.4754
  0
LINE
  8
1-2
  6
CONTINUOUS
 62
    3
 10
1114.5792
 20
2219.4754
 11
1120.277
 21
2223.2244
  0
LINE
  8
1-2
  6
CONTINUOUS
 62
    3
 10
1120.277
 20
2223.2244
 11
1125.7006
 21
2227.3534
  0
LINE
  8
1-2
  6
CONTINUOUS
 62
    3
 10
1125.7006
 20
2227.3534
 11
1130.8246
 21
2231.8231
  0
LINE
  8
1-2
  6
CONTINUOUS
 62
    3
 10
1130.8246
 20
2231.8231
 11
1135.6878
 21
2236.5522
  0
LINE
  8
1-2
  6
CONTINUOUS
 62
    3
 10
1135.6878
 20
2236.5522
 11
1140.3879
 21
2241.433
  0
LINE
  8
1-2
  6
CONTINUOUS
 62
    3
 10
1140.3879
 20
2241.433
 11
1145.0284
 21
2246.358
  0
LINE
  8
1-2
  6
CONTINUOUS
 62
    3
 10
1145.0284
 20
2246.358
 11
1149.7077
 21
2251.2185
  0
LINE
  8
1-2
  6
CONTINUOUS
 62
    3
 10
1149.7077
 20
2251.2185
 11
1154.5328
 21
2255.9077
  0
LINE
  8
1-2
  6
CONTINUOUS
 62
    3
 10
1154.5328
 20
2255.9077
 11
1159.5957
 21
2260.3329
  0
LINE
  8
1-2
  6
CONTINUOUS
 62
    3
 10
1159.5957
 20
2260.3329
 11
1164.8899
 21
2264.4904
  0
LINE
  8
1-2
  6
CONTINUOUS
 62
    3
 10
1164.8899
 20
2264.4904
 11
1170.3724
 21
2268.4442
  0
LINE
  8
1-2
  6
CONTINUOUS
 62
    3
 10
1170.3724
 20
2268.4442
 11
1175.9859
 21
2272.2437
  0
LINE
  8
1-2
  6
CONTINUOUS
 62
    3
 10
1175.9859
 20
2272.2437
 11
1181.6879
 21
2275.9486
  0
LINE
  8
1-2
  6
CONTINUOUS
 62
    3
 10
1181.6879
 20
2275.9486
 11
1185.7241
 21
2278.5281
  0
LINE
  8
1-2
  6
CONTINUOUS
 62
    3
 10
1185.7241
 20
2278.5281
 11
1192.0229
 21
2281.1411
  0
LINE
  8
1-2
  6
CONTINUOUS
 62
    3
 10
1192.0229
 20
2281.1411
 11
1198.3579
 21
2283.5801
  0
LINE
  8
1-2
  6
CONTINUOUS
 62
    3
 10
1198.3579
 20
2283.5801
 11
1204.7681
 21
2285.674
  0
LINE
  8
1-2
  6
CONTINUOUS
 62
    3
 10
1204.7681
 20
2285.674
 11
1211.2898
 21
2287.2519
  0
LINE
  8
1-2
  6
CONTINUOUS
 62
    3
 10
1211.2898
 20
2287.2519
 11
1217.9395
 21
2288.2189
  0
LINE
  8
1-2
  6
CONTINUOUS
 62
    3
 10
1217.9395
 20
2288.2189
 11
1224.685
 21
2288.6432
  0
LINE
  8
1-2
  6
CONTINUOUS
 62
    3
 10
1224.685
 20
2288.6432
 11
1231.4871
 21
2288.6185
  0
LINE
  8
1-2
  6
CONTINUOUS
 62
    3
 10
1231.4871
 20
2288.6185
 11
1238.3093
 21
2288.2355
  0
LINE
  8
1-2
  6
CONTINUOUS
 62
    3
 10
1238.3093
 20
2288.2355
 11
1245.1191
 21
2287.5894
  0
LINE
  8
1-2
  6
CONTINUOUS
 62
    3
 10
1245.1191
 20
2287.5894
 11
1251.8769
 21
2286.7582
  0
LINE
  8
1-2
  6
CONTINUOUS
 62
    3
 10
1251.8769
 20
2286.7582
 11
1258.5748
 21
2285.7249
  0
LINE
  8
1-2
  6
CONTINUOUS
 62
    3
 10
1258.5748
 20
2285.7249
 11
1265.2161
 21
2284.4665
  0
LINE
  8
1-2
  6
CONTINUOUS
 62
    3
 10
1265.2161
 20
2284.4665
 11
1271.7903
 21
2282.9405
  0
LINE
  8
1-2
  6
CONTINUOUS
 62
    3
 10
1271.7903
 20
2282.9405
 11
1278.3012
 21
2281.1198
  0
LINE
  8
1-2
  6
CONTINUOUS
 62
    3
 10
1278.3012
 20
2281.1198
 11
1284.747
 21
2278.9644
  0
LINE
  8
1-2
  6
CONTINUOUS
 62
    3
 10
1284.747
 20
2278.9644
 11
1291.1008
 21
2276.4437
  0
LINE
  8
1-2
  6
CONTINUOUS
 62
    3
 10
1291.1008
 20
2276.4437
 11
1297.3036
 21
2273.5294
  0
LINE
  8
1-2
  6
CONTINUOUS
 62
    3
 10
1297.3036
 20
2273.5294
 11
1303.2649
 21
2270.2035
  0
LINE
  8
1-2
  6
CONTINUOUS
 62
    3
 10
1303.2649
 20
2270.2035
 11
1308.9081
 21
2266.4355
  0
LINE
  8
1-2
  6
CONTINUOUS
 62
    3
 10
1308.9081
 20
2266.4355
 11
1314.1498
 21
2262.1971
  0
LINE
  8
1-2
  6
CONTINUOUS
 62
    3
 10
1314.1498
 20
2262.1971
 11
1318.9185
 21
2257.4762
  0
LINE
  8
1-2
  6
CONTINUOUS
 62
    3
 10
1318.9185
 20
2257.4762
 11
1323.2749
 21
2252.3421
  0
LINE
  8
1-2
  6
CONTINUOUS
 62
    3
 10
1323.2749
 20
2252.3421
 11
1327.329
 21
2246.9083
  0
LINE
  8
1-2
  6
CONTINUOUS
 62
    3
 10
1327.329
 20
2246.9083
 11
1331.1935
 21
2241.2902
  0
LINE
  8
1-2
  6
CONTINUOUS
 62
    3
 10
1331.1935
 20
2241.2902
 11
1333.4397
 21
2237.9349
  0
LINE
  8
1-2
  6
CONTINUOUS
 62
    3
 10
1331.1935
 20
2241.2902
 11
1334.2152
 21
2235.0324
  0
LINE
  8
1-2
  6
CONTINUOUS
 62
    3
 10
1334.2152
 20
2235.0324
 11
1337.0766
 21
2228.747
  0
LINE
  8
1-2
  6
CONTINUOUS
 62
    3
 10
1337.0766
 20
2228.747
 11
1339.6218
 21
2222.4172
  0
LINE
  8
1-2
  6
CONTINUOUS
 62
    3
 10
1339.6218
 20
2222.4172
 11
1341.6894
 21
2216.0088
  0
LINE
  8
1-2
  6
CONTINUOUS
 62
    3
 10
1341.6894
 20
2216.0088
 11
1343.1216
 21
2209.5043
  0
LINE
  8
1-2
  6
CONTINUOUS
 62
    3
 10
1343.1216
 20
2209.5043
 11
1343.7659
 21
2202.8781
  0
LINE
  8
1-2
  6
CONTINUOUS
 62
    3
 10
1343.7659
 20
2202.8781
 11
1343.5813
 21
2196.1564
  0
LINE
  8
1-2
  6
CONTINUOUS
 62
    3
 10
1343.5813
 20
2196.1564
 11
1342.6801
 21
2189.405
  0
LINE
  8
1-2
  6
CONTINUOUS
 62
    3
 10
1342.6801
 20
2189.405
 11
1341.1787
 21
2182.7021
  0
LINE
  8
1-2
  6
CONTINUOUS
 62
    3
 10
1341.1787
 20
2182.7021
 11
1339.1803
 21
2176.1247
  0
LINE
  8
1-2
  6
CONTINUOUS
 62
    3
 10
1339.1803
 20
2176.1247
 11
1336.7183
 21
2169.7632
  0
LINE
  8
1-2
  6
CONTINUOUS
 62
    3
 10
1336.7183
 20
2169.7632
 11
1333.7258
 21
2163.7076
  0
LINE
  8
1-2
  6
CONTINUOUS
 62
    3
 10
1333.7258
 20
2163.7076
 11
1330.1315
 21
2158.0514
  0
LINE
  8
1-2
  6
CONTINUOUS
 62
    3
 10
1330.1315
 20
2158.0514
 11
1325.9423
 21
2152.8285
  0
LINE
  8
1-2
  6
CONTINUOUS
 62
    3
 10
1325.9423
 20
2152.8285
 11
1321.2855
 21
2147.9423
  0
LINE
  8
1-2
  6
CONTINUOUS
 62
    3
 10
1321.2855
 20
2147.9423
 11
1316.3085
 21
2143.2904
  0
LINE
  8
1-2
  6
CONTINUOUS
 62
    3
 10
1316.3085
 20
2143.2904
 11
1311.1494
 21
2138.7741
  0
LINE
  8
1-2
  6
CONTINUOUS
 62
    3
 10
1311.1494
 20
2138.7741
 11
1309.7583
 21
2137.579
  0
LINE
  8
1-2
  6
CONTINUOUS
 62
    3
 10
1311.1494
 20
2138.7741
 11
1305.2281
 21
2135.4545
  0
LINE
  8
1-2
  6
CONTINUOUS
 62
    3
 10
1305.2281
 20
2135.4545
 11
1299.2846
 21
2132.1964
  0
LINE
  8
1-2
  6
CONTINUOUS
 62
    3
 10
1299.2846
 20
2132.1964
 11
1293.2916
 21
2129.0569
  0
LINE
  8
1-2
  6
CONTINUOUS
 62
    3
 10
1293.2916
 20
2129.0569
 11
1287.2167
 21
2126.0953
  0
LINE
  8
1-2
  6
CONTINUOUS
 62
    3
 10
1287.2167
 20
2126.0953
 11
1281.0446
 21
2123.37
  0
LINE
  8
1-2
  6
CONTINUOUS
 62
    3
 10
1281.0446
 20
2123.37
 11
1274.7403
 21
2120.9401
  0
LINE
  8
1-2
  6
CONTINUOUS
 62
    3
 10
1274.7403
 20
2120.9401
 11
1268.3032
 21
2118.8401
  0
LINE
  8
1-2
  6
CONTINUOUS
 62
    3
 10
1268.3032
 20
2118.8401
 11
1261.7596
 21
2117.0774
  0
LINE
  8
1-2
  6
CONTINUOUS
 62
    3
 10
1261.7596
 20
2117.0774
 11
1255.1344
 21
2115.6496
  0
LINE
  8
1-2
  6
CONTINUOUS
 62
    3
 10
1255.1344
 20
2115.6496
 11
1248.4484
 21
2114.5574
  0
LINE
  8
1-2
  6
CONTINUOUS
 62
    3
 10
1248.4484
 20
2114.5574
 11
1241.7333
 21
2113.7928
  0
LINE
  8
1-2
  6
CONTINUOUS
 62
    3
 10
1241.7333
 20
2113.7928
 11
1234.996
 21
2113.2987
  0
LINE
  8
1-2
  6
CONTINUOUS
 62
    3
 10
1234.996
 20
2113.2987
 11
1228.2407
 21
2113.0099
  0
LINE
  8
1-2
  6
CONTINUOUS
 62
    3
 10
1228.2407
 20
2113.0099
 11
1221.4712
 21
2112.8536
  0
LINE
  8
1-2
  6
CONTINUOUS
 62
    3
 10
1221.4712
 20
2112.8536
 11
1215.6029
 21
2112.7709
  0
LINE
  8
1-2
  6
CONTINUOUS
 62
    3
 10
1139.9596
 20
2112.1491
 11
1146.2916
 21
2109.5864
  0
LINE
  8
1-2
  6
CONTINUOUS
 62
    3
 10
1146.2916
 20
2109.5864
 11
1152.6597
 21
2107.0531
  0
LINE
  8
1-2
  6
CONTINUOUS
 62
    3
 10
1152.6597
 20
2107.0531
 11
1159.0882
 21
2104.7185
  0
LINE
  8
1-2
  6
CONTINUOUS
 62
    3
 10
1159.0882
 20
2104.7185
 11
1165.578
 21
2102.7719
  0
LINE
  8
1-2
  6
CONTINUOUS
 62
    3
 10
1165.578
 20
2102.7719
 11
1172.1473
 21
2101.3991
  0
LINE
  8
1-2
  6
CONTINUOUS
 62
    3
 10
1172.1473
 20
2101.3991
 11
1178.8099
 21
2100.7844
  0
LINE
  8
1-2
  6
CONTINUOUS
 62
    3
 10
1178.8099
 20
2100.7844
 11
1185.5504
 21
2100.8804
  0
LINE
  8
1-2
  6
CONTINUOUS
 62
    3
 10
1185.5504
 20
2100.8804
 11
1192.3396
 21
2101.3813
  0
LINE
  8
1-2
  6
CONTINUOUS
 62
    3
 10
1192.3396
 20
2101.3813
 11
1193.6154
 21
2101.4939
  0
LINE
  8
1-2
  6
CONTINUOUS
 62
    3
 10
1192.3396
 20
2101.3813
 11
1197.8915
 21
2102.6195
  0
LINE
  8
1-2
  6
CONTINUOUS
 62
    3
 10
1197.8915
 20
2102.6195
 11
1203.2203
 21
2104.3325
  0
LINE
  8
1-2
  6
CONTINUOUS
 62
    3
 10
1203.2203
 20
2104.3325
 11
1208.1092
 21
2107.0001
  0
LINE
  8
1-2
  6
CONTINUOUS
 62
    3
 10
1208.1092
 20
2107.0001
 11
1212.2771
 21
2110.8273
  0
LINE
  8
1-2
  6
CONTINUOUS
 62
    3
 10
1212.2771
 20
2110.8273
 11
1215.3674
 21
2115.6249
  0
LINE
  8
1-2
  6
CONTINUOUS
 62
    3
 10
1215.3674
 20
2115.6249
 11
1217.051
 21
2121.1101
  0
LINE
  8
1-2
  6
CONTINUOUS
 62
    3
 10
1217.051
 20
2121.1101
 11
1217.1747
 21
2126.7837
  0
LINE
  8
1-2
  6
CONTINUOUS
 62
    3
 10
1217.1747
 20
2126.7837
 11
1215.6732
 21
2132.0989
  0
LINE
  8
1-2
  6
CONTINUOUS
 62
    3
 10
1215.6732
 20
2132.0989
 11
1212.868
 21
2136.9344
  0
LINE
  8
1-2
  6
CONTINUOUS
 62
    3
 10
1212.868
 20
2136.9344
 11
1209.4024
 21
2141.5247
  0
LINE
  8
1-2
  6
CONTINUOUS
 62
    3
 10
1079.3217
 20
2197.0455
 11
1086.1449
 21
2195.8837
  0
LINE
  8
1-2
  6
CONTINUOUS
 62
    3
 10
1086.1449
 20
2195.8837
 11
1092.9455
 21
2194.9182
  0
LINE
  8
1-2
  6
CONTINUOUS
 62
    3
 10
1092.9455
 20
2194.9182
 11
1099.6967
 21
2194.3452
  0
LINE
  8
1-2
  6
CONTINUOUS
 62
    3
 10
1099.6967
 20
2194.3452
 11
1106.3743
 21
2194.3553
  0
LINE
  8
1-2
  6
CONTINUOUS
 62
    3
 10
1106.3743
 20
2194.3553
 11
1112.9548
 21
2195.1409
  0
LINE
  8
1-2
  6
CONTINUOUS
 62
    3
 10
1112.9548
 20
2195.1409
 11
1119.4382
 21
2196.7367
  0
LINE
  8
1-2
  6
CONTINUOUS
 62
    3
 10
1119.4382
 20
2196.7367
 11
1125.839
 21
2198.9275
  0
LINE
  8
1-2
  6
CONTINUOUS
 62
    3
 10
1125.839
 20
2198.9275
 11
1132.1878
 21
2201.4962
  0
LINE
  8
1-2
  6
CONTINUOUS
 62
    3
 10
1132.1878
 20
2201.4962
 11
1138.4972
 21
2204.2111
  0
LINE
  8
1-2
  6
CONTINUOUS
 62
    3
 10
1138.4972
 20
2204.2111
 11
1144.7995
 21
2206.8767
  0
LINE
  8
1-2
  6
CONTINUOUS
 62
    3
 10
1144.7995
 20
2206.8767
 11
1151.0956
 21
2209.4422
  0
LINE
  8
1-2
  6
CONTINUOUS
 62
    3
 10
1151.0956
 20
2209.4422
 11
1157.3912
 21
2211.9312
  0
LINE
  8
1-2
  6
CONTINUOUS
 62
    3
 10
1157.3912
 20
2211.9312
 11
1163.6797
 21
2214.3581
  0
LINE
  8
1-2
  6
CONTINUOUS
 62
    3
 10
1163.6797
 20
2214.3581
 11
1169.9681
 21
2216.7399
  0
LINE
  8
1-2
  6
CONTINUOUS
 62
    3
 10
1169.9681
 20
2216.7399
 11
1176.2585
 21
2219.1003
  0
LINE
  8
1-2
  6
CONTINUOUS
 62
    3
 10
1176.2585
 20
2219.1003
 11
1176.1704
 21
2213.3077
  0
LINE
  8
1-2
  6
CONTINUOUS
 62
    3
 10
1176.1704
 20
2213.3077
 11
1176.0873
 21
2207.5211
  0
LINE
  8
1-2
  6
CONTINUOUS
 62
    3
 10
1176.0873
 20
2207.5211
 11
1176.0039
 21
2201.7275
  0
LINE
  8
1-2
  6
CONTINUOUS
 62
    3
 10
1176.0039
 20
2201.7275
 11
1175.9166
 21
2195.9397
  0
LINE
  8
1-2
  6
CONTINUOUS
 62
    3
 10
1175.9166
 20
2195.9397
 11
1175.8342
 21
2190.1528
  0
LINE
  8
1-2
  6
CONTINUOUS
 62
    3
 10
1175.8342
 20
2190.1528
 11
1175.7498
 21
2184.3595
  0
LINE
  8
1-2
  6
CONTINUOUS
 62
    3
 10
1175.7498
 20
2184.3595
 11
1175.6629
 21
2178.5728
  0
LINE
  8
1-2
  6
CONTINUOUS
 62
    3
 10
1175.6629
 20
2178.5728
 11
1175.5796
 21
2172.78
  0
LINE
  8
1-2
  6
CONTINUOUS
 62
    3
 10
1175.5796
 20
2172.78
 11
1175.4934
 21
2166.9914
  0
LINE
  8
1-2
  6
CONTINUOUS
 62
    3
 10
1175.4934
 20
2166.9914
 11
1175.4093
 21
2161.2001
  0
LINE
  8
1-2
  6
CONTINUOUS
 62
    3
 10
1209.4024
 20
2141.5247
 11
1208.0182
 21
2142.7445
  0
LINE
  8
1-2
  6
CONTINUOUS
 62
    3
 10
1208.0182
 20
2142.7445
 11
1206.0285
 21
2144.2205
  0
LINE
  8
1-2
  6
CONTINUOUS
 62
    3
 10
1206.0285
 20
2144.2205
 11
1203.5125
 21
2145.9086
  0
LINE
  8
1-2
  6
CONTINUOUS
 62
    3
 10
1203.5125
 20
2145.9086
 11
1200.5383
 21
2147.7686
  0
LINE
  8
1-2
  6
CONTINUOUS
 62
    3
 10
1200.5383
 20
2147.7686
 11
1197.1472
 21
2149.7629
  0
LINE
  8
1-2
  6
CONTINUOUS
 62
    3
 10
1197.1472
 20
2149.7629
 11
1193.3999
 21
2151.8667
  0
LINE
  8
1-2
  6
CONTINUOUS
 62
    3
 10
1193.3999
 20
2151.8667
 11
1189.333
 21
2154.053
  0
LINE
  8
1-2
  6
CONTINUOUS
 62
    3
 10
1189.333
 20
2154.053
 11
1184.9766
 21
2156.2983
  0
LINE
  8
1-2
  6
CONTINUOUS
 62
    3
 10
1184.9766
 20
2156.2983
 11
1180.37
 21
2158.5859
  0
LINE
  8
1-2
  6
CONTINUOUS
 62
    3
 10
1180.37
 20
2158.5859
 11
1175.5385
 21
2160.8982
  0
LINE
  8
1-2
  6
CONTINUOUS
 62
    3
 10
1175.5385
 20
2160.8982
 11
1170.4999
 21
2163.2202
  0
LINE
  8
1-2
  6
CONTINUOUS
 62
    3
 10
1170.4999
 20
2163.2202
 11
1165.2856
 21
2165.5451
  0
LINE
  8
1-2
  6
CONTINUOUS
 62
    3
 10
1165.2856
 20
2165.5451
 11
1159.9104
 21
2167.858
  0
LINE
  8
1-2
  6
CONTINUOUS
 62
    3
 10
1159.9104
 20
2167.858
 11
1154.4012
 21
2170.1522
  0
LINE
  8
1-2
  6
CONTINUOUS
 62
    3
 10
1154.4012
 20
2170.1522
 11
1148.7724
 21
2172.423
  0
LINE
  8
1-2
  6
CONTINUOUS
 62
    3
 10
1148.7724
 20
2172.423
 11
1143.0472
 21
2174.6583
  0
LINE
  8
1-2
  6
CONTINUOUS
 62
    3
 10
1143.0472
 20
2174.6583
 11
1137.2454
 21
2176.8576
  0
LINE
  8
1-2
  6
CONTINUOUS
 62
    3
 10
1137.2454
 20
2176.8576
 11
1131.3908
 21
2179.0145
  0
LINE
  8
1-2
  6
CONTINUOUS
 62
    3
 10
1131.3908
 20
2179.0145
 11
1125.5084
 21
2181.1284
  0
LINE
  8
1-2
  6
CONTINUOUS
 62
    3
 10
1125.5084
 20
2181.1284
 11
1119.62
 21
2183.1854
  0
LINE
  8
1-2
  6
CONTINUOUS
 62
    3
 10
1119.62
 20
2183.1854
 11
1113.7488
 21
2185.1869
  0
LINE
  8
1-2
  6
CONTINUOUS
 62
    3
 10
1113.7488
 20
2185.1869
 11
1107.9243
 21
2187.132
  0
LINE
  8
1-2
  6
CONTINUOUS
 62
    3
 10
1107.9243
 20
2187.132
 11
1102.178
 21
2189.0081
  0
LINE
  8
1-2
  6
CONTINUOUS
 62
    3
 10
1102.178
 20
2189.0081
 11
1096.5319
 21
2190.8157
  0
LINE
  8
1-2
  6
CONTINUOUS
 62
    3
 10
1096.5319
 20
2190.8157
 11
1091.0227
 21
2192.5478
  0
LINE
  8
1-2
  6
CONTINUOUS
 62
    3
 10
1091.0227
 20
2192.5478
 11
1085.6787
 21
2194.1947
  0
LINE
  8
1-2
  6
CONTINUOUS
 62
    3
 10
1085.6787
 20
2194.1947
 11
1080.5305
 21
2195.7518
  0
LINE
  8
1-2
  6
CONTINUOUS
 62
    3
 10
1080.5305
 20
2195.7518
 11
1075.6045
 21
2197.2135
  0
LINE
  8
1-2
  6
CONTINUOUS
 62
    3
 10
1075.6045
 20
2197.2135
 11
1070.9335
 21
2198.568
  0
LINE
  8
1-2
  6
CONTINUOUS
 62
    3
 10
1176.2585
 20
2219.1003
 11
1176.3385
 21
2219.1282
  0
LINE
  8
1-2
  6
CONTINUOUS
 62
    3
 10
1100.0669
 20
2082.1381
 11
1100.0669
 21
2062.6733
  0
LINE
  8
1-2
  6
CONTINUOUS
 62
    3
 10
1100.0669
 20
2062.6733
 11
1159.2149
 21
2062.6733
  0
LINE
  8
1-2
  6
CONTINUOUS
 62
    3
 10
1159.2149
 20
2082.1381
 11
1159.2149
 21
2062.6733
  0
LINE
  8
1-2
  6
CONTINUOUS
 62
    3
 10
1100.0669
 20
2082.1381
 11
1159.2149
 21
2082.1381
  0
LINE
  8
1-2
  6
CONTINUOUS
 62
    3
 10
1065.4787
 20
2234.6603
 11
1065.4787
 21
2191.0418
  0
LINE
  8
1-2
  6
CONTINUOUS
 62
    3
 10
1071.836
 20
2221.5816
 11
1071.1758
 21
2221.2087
  0
LINE
  8
1-2
  6
CONTINUOUS
 62
    3
 10
1071.1758
 20
2221.2087
 11
1070.5003
 21
2220.817
  0
LINE
  8
1-2
  6
CONTINUOUS
 62
    3
 10
1070.5003
 20
2220.817
 11
1069.8168
 21
2220.4063
  0
LINE
  8
1-2
  6
CONTINUOUS
 62
    3
 10
1069.8168
 20
2220.4063
 11
1069.1183
 21
2219.9757
  0
LINE
  8
1-2
  6
CONTINUOUS
 62
    3
 10
1069.1183
 20
2219.9757
 11
1068.4059
 21
2219.5318
  0
LINE
  8
1-2
  6
CONTINUOUS
 62
    3
 10
1068.4059
 20
2219.5318
 11
1067.6814
 21
2219.0649
  0
LINE
  8
1-2
  6
CONTINUOUS
 62
    3
 10
1067.6814
 20
2219.0649
 11
1066.9448
 21
2218.5819
  0
LINE
  8
1-2
  6
CONTINUOUS
 62
    3
 10
1066.9448
 20
2218.5819
 11
1066.1938
 21
2218.0776
  0
LINE
  8
1-2
  6
CONTINUOUS
 62
    3
 10
1066.1938
 20
2218.0776
 11
1065.4322
 21
2217.559
  0
LINE
  8
1-2
  6
CONTINUOUS
 62
    3
 10
1069.5798
 20
2205.7962
 11
1069.0904
 21
2205.7024
  0
LINE
  8
1-2
  6
CONTINUOUS
 62
    3
 10
1069.0904
 20
2205.7024
 11
1068.6076
 21
2205.615
  0
LINE
  8
1-2
  6
CONTINUOUS
 62
    3
 10
1068.6076
 20
2205.615
 11
1068.1338
 21
2205.5287
  0
LINE
  8
1-2
  6
CONTINUOUS
 62
    3
 10
1068.1338
 20
2205.5287
 11
1067.6646
 21
2205.4443
  0
LINE
  8
1-2
  6
CONTINUOUS
 62
    3
 10
1067.6646
 20
2205.4443
 11
1067.2054
 21
2205.3641
  0
LINE
  8
1-2
  6
CONTINUOUS
 62
    3
 10
1067.2054
 20
2205.3641
 11
1066.7503
 21
2205.2887
  0
LINE
  8
1-2
  6
CONTINUOUS
 62
    3
 10
1066.7503
 20
2205.2887
 11
1066.3042
 21
2205.2182
  0
LINE
  8
1-2
  6
CONTINUOUS
 62
    3
 10
1066.3042
 20
2205.2182
 11
1065.8632
 21
2205.1489
  0
LINE
  8
1-2
  6
CONTINUOUS
 62
    3
 10
1065.8632
 20
2205.1489
 11
1065.4322
 21
2205.0823
  0
LINE
  8
1-2
  6
CONTINUOUS
 62
    3
 10
1079.3217
 20
2197.0455
 11
1077.4617
 21
2197.4396
  0
LINE
  8
1-2
  6
CONTINUOUS
 62
    3
 10
1077.4617
 20
2197.4396
 11
1075.6772
 21
2197.8207
  0
LINE
  8
1-2
  6
CONTINUOUS
 62
    3
 10
1075.6772
 20
2197.8207
 11
1073.9743
 21
2198.1901
  0
LINE
  8
1-2
  6
CONTINUOUS
 62
    3
 10
1073.9743
 20
2198.1901
 11
1072.3511
 21
2198.5474
  0
LINE
  8
1-2
  6
CONTINUOUS
 62
    3
 10
1072.3511
 20
2198.5474
 11
1070.8071
 21
2198.8914
  0
LINE
  8
1-2
  6
CONTINUOUS
 62
    3
 10
1070.8071
 20
2198.8914
 11
1069.3445
 21
2199.2257
  0
LINE
  8
1-2
  6
CONTINUOUS
 62
    3
 10
1069.3445
 20
2199.2257
 11
1067.9601
 21
2199.5456
  0
LINE
  8
1-2
  6
CONTINUOUS
 62
    3
 10
1067.9601
 20
2199.5456
 11
1066.656
 21
2199.8546
  0
LINE
  8
1-2
  6
CONTINUOUS
 62
    3
 10
1066.656
 20
2199.8546
 11
1065.4322
 21
2200.1496
  0
LINE
  8
1-2
  6
CONTINUOUS
 62
    3
 10
1070.9335
 20
2198.568
 11
1070.2058
 21
2198.7667
  0
LINE
  8
1-2
  6
CONTINUOUS
 62
    3
 10
1070.2058
 20
2198.7667
 11
1069.5073
 21
2198.9572
  0
LINE
  8
1-2
  6
CONTINUOUS
 62
    3
 10
1069.5073
 20
2198.9572
 11
1068.8397
 21
2199.1455
  0
LINE
  8
1-2
  6
CONTINUOUS
 62
    3
 10
1068.8397
 20
2199.1455
 11
1068.2028
 21
2199.3266
  0
LINE
  8
1-2
  6
CONTINUOUS
 62
    3
 10
1068.2028
 20
2199.3266
 11
1067.5983
 21
2199.5006
  0
LINE
  8
1-2
  6
CONTINUOUS
 62
    3
 10
1067.5983
 20
2199.5006
 11
1067.0213
 21
2199.6663
  0
LINE
  8
1-2
  6
CONTINUOUS
 62
    3
 10
1067.0213
 20
2199.6663
 11
1066.4757
 21
2199.8289
  0
LINE
  8
1-2
  6
CONTINUOUS
 62
    3
 10
1066.4757
 20
2199.8289
 11
1065.962
 21
2199.9863
  0
LINE
  8
1-2
  6
CONTINUOUS
 62
    3
 10
1065.962
 20
2199.9863
 11
1065.4787
 21
2200.1402
  0
LINE
  8
1-2
  6
CONTINUOUS
 62
    3
 10
1059.5199
 20
2240.6218
 11
1049.9999
 21
2240.6218
  0
LINE
  8
1-2
  6
CONTINUOUS
 62
    3
 10
1059.5199
 20
2149.0387
 11
1049.9999
 21
2149.0387
  0
LINE
  8
1-2
  6
CONTINUOUS
 62
    3
 10
1054.9729
 20
2180.0906
 11
1058.4255
 21
2176.1932
  0
LINE
  8
1-2
  6
CONTINUOUS
 62
    3
 10
1058.4255
 20
2176.1932
 11
1062.2204
 21
2172.1439
  0
LINE
  8
1-2
  6
CONTINUOUS
 62
    3
 10
1062.2204
 20
2172.1439
 11
1066.3017
 21
2167.9908
  0
LINE
  8
1-2
  6
CONTINUOUS
 62
    3
 10
1066.3017
 20
2167.9908
 11
1070.6181
 21
2163.7764
  0
LINE
  8
1-2
  6
CONTINUOUS
 62
    3
 10
1070.6181
 20
2163.7764
 11
1075.1192
 21
2159.5413
  0
LINE
  8
1-2
  6
CONTINUOUS
 62
    3
 10
1075.1192
 20
2159.5413
 11
1079.7595
 21
2155.3224
  0
LINE
  8
1-2
  6
CONTINUOUS
 62
    3
 10
1079.7595
 20
2155.3224
 11
1084.497
 21
2151.1533
  0
LINE
  8
1-2
  6
CONTINUOUS
 62
    3
 10
1084.497
 20
2151.1533
 11
1089.2909
 21
2147.0641
  0
LINE
  8
1-2
  6
CONTINUOUS
 62
    3
 10
1089.2909
 20
2147.0641
 11
1094.1048
 21
2143.0833
  0
LINE
  8
1-2
  6
CONTINUOUS
 62
    3
 10
1094.1048
 20
2143.0833
 11
1098.9059
 21
2139.2346
  0
LINE
  8
1-2
  6
CONTINUOUS
 62
    3
 10
1098.9059
 20
2139.2346
 11
1103.6636
 21
2135.5403
  0
LINE
  8
1-2
  6
CONTINUOUS
 62
    3
 10
1103.6636
 20
2135.5403
 11
1108.3516
 21
2132.0168
  0
LINE
  8
1-2
  6
CONTINUOUS
 62
    3
 10
1108.3516
 20
2132.0168
 11
1112.9456
 21
2128.6813
  0
LINE
  8
1-2
  6
CONTINUOUS
 62
    3
 10
1112.9456
 20
2128.6813
 11
1117.4248
 21
2125.5433
  0
LINE
  8
1-2
  6
CONTINUOUS
 62
    3
 10
1117.4248
 20
2125.5433
 11
1121.7725
 21
2122.6121
  0
LINE
  8
1-2
  6
CONTINUOUS
 62
    3
 10
1121.7725
 20
2122.6121
 11
1125.9733
 21
2119.8937
  0
LINE
  8
1-2
  6
CONTINUOUS
 62
    3
 10
1125.9733
 20
2119.8937
 11
1130.017
 21
2117.3894
  0
LINE
  8
1-2
  6
CONTINUOUS
 62
    3
 10
1130.017
 20
2117.3894
 11
1133.8951
 21
2115.0998
  0
LINE
  8
1-2
  6
CONTINUOUS
 62
    3
 10
1133.8951
 20
2115.0998
 11
1137.603
 21
2113.0196
  0
LINE
  8
1-2
  6
CONTINUOUS
 62
    3
 10
1137.603
 20
2113.0196
 11
1137.8757
 21
2112.9003
  0
LINE
  8
1-2
  6
CONTINUOUS
 62
    3
 10
1137.8757
 20
2112.9003
 11
1138.1456
 21
2112.7865
  0
LINE
  8
1-2
  6
CONTINUOUS
 62
    3
 10
1138.1456
 20
2112.7865
 11
1138.4136
 21
2112.6786
  0
LINE
  8
1-2
  6
CONTINUOUS
 62
    3
 10
1138.4136
 20
2112.6786
 11
1138.6779
 21
2112.5764
  0
LINE
  8
1-2
  6
CONTINUOUS
 62
    3
 10
1138.6779
 20
2112.5764
 11
1138.9401
 21
2112.4797
  0
LINE
  8
1-2
  6
CONTINUOUS
 62
    3
 10
1138.9401
 20
2112.4797
 11
1139.199
 21
2112.3886
  0
LINE
  8
1-2
  6
CONTINUOUS
 62
    3
 10
1139.199
 20
2112.3886
 11
1139.4556
 21
2112.303
  0
LINE
  8
1-2
  6
CONTINUOUS
 62
    3
 10
1139.4556
 20
2112.303
 11
1139.7092
 21
2112.2236
  0
LINE
  8
1-2
  6
CONTINUOUS
 62
    3
 10
1139.7092
 20
2112.2236
 11
1139.9596
 21
2112.1491
  0
LINE
  8
1-2
  6
CONTINUOUS
 62
    3
 10
1054.9729
 20
2180.0906
 11
1057.0141
 21
2181.1042
  0
LINE
  8
1-2
  6
CONTINUOUS
 62
    3
 10
1057.0141
 20
2181.1042
 11
1058.8365
 21
2182.1691
  0
LINE
  8
1-2
  6
CONTINUOUS
 62
    3
 10
1058.8365
 20
2182.1691
 11
1060.4406
 21
2183.2843
  0
LINE
  8
1-2
  6
CONTINUOUS
 62
    3
 10
1060.4406
 20
2183.2843
 11
1061.8265
 21
2184.4503
  0
LINE
  8
1-2
  6
CONTINUOUS
 62
    3
 10
1061.8265
 20
2184.4503
 11
1062.9939
 21
2185.6672
  0
LINE
  8
1-2
  6
CONTINUOUS
 62
    3
 10
1062.9939
 20
2185.6672
 11
1063.9426
 21
2186.9346
  0
LINE
  8
1-2
  6
CONTINUOUS
 62
    3
 10
1063.9426
 20
2186.9346
 11
1064.6731
 21
2188.2529
  0
LINE
  8
1-2
  6
CONTINUOUS
 62
    3
 10
1064.6731
 20
2188.2529
 11
1065.1848
 21
2189.6218
  0
LINE
  8
1-2
  6
CONTINUOUS
 62
    3
 10
1065.1848
 20
2189.6218
 11
1065.4787
 21
2191.0418
  0
LINE
  8
1-2
  6
CONTINUOUS
 62
    3
 10
1065.4802
 20
2155.0005
 11
1065.4802
 21
2168.8274
  0
LINE
  8
1-2
  6
CONTINUOUS
 62
    3
 10
1142.8923
 20
2206.4489
 11
1131.1547
 21
2232.319
  0
LINE
  8
1-2
  6
CONTINUOUS
 62
    3
 10
1119.84
 20
2035.7167
 11
1049.9999
 21
2035.7167
  0
LINE
  8
1-2
  6
CONTINUOUS
 62
    3
 10
1131.5145
 20
2047.3914
 11
1131.5145
 21
2062.6733
  0
LINE
  8
1-2
  6
CONTINUOUS
 62
    3
 10
1114.0029
 20
2025.2198
 11
1049.9999
 21
2025.2198
  0
LINE
  8
1-2
  6
CONTINUOUS
 62
    3
 10
1119.84
 20
2031.0571
 11
1119.84
 21
2035.7167
  0
LINE
  8
1-2
  6
CONTINUOUS
 62
    3
 10
1252.5173
 20
2452.1344
 11
1049.9999
 21
2452.1344
  0
LINE
  8
1-2
  6
CONTINUOUS
 62
    3
 10
1355.0002
 20
2298.9652
 11
1049.9999
 21
2298.9652
  0
LINE
  8
1-2
  6
CONTINUOUS
 62
    3
 10
1355.0002
 20
2287.0044
 11
1260.6224
 21
2287.0044
  0
LINE
  8
1-2
  6
CONTINUOUS
 62
    3
 10
583.33483
 20
2394.3683
 11
1049.9999
 21
2394.3683
  0
LINE
  8
1-2
  6
CONTINUOUS
 62
    3
 10
1135.4913
 20
2287.0044
 11
1049.9999
 21
2287.0044
  0
LINE
  8
1-2
  6
CONTINUOUS
 62
    3
 10
1355.0002
 20
2174.3683
 11
1516.6665
 21
2174.3683
  0
LINE
  8
1-2
  6
CONTINUOUS
 62
    3
 10
1355.0002
 20
2204.7022
 11
1516.6665
 21
2204.7022
  0
LINE
  8
1-2
  6
CONTINUOUS
 62
    3
 10
1355.0002
 20
2217.702
 11
1516.6665
 21
2217.702
  0
LINE
  8
1-2
  6
CONTINUOUS
 62
    3
 10
1355.0002
 20
2256.7022
 11
1516.6665
 21
2256.7022
  0
LINE
  8
1-2
  6
CONTINUOUS
 62
    3
 10
1355.0002
 20
2269.7017
 11
1516.6665
 21
2269.7017
  0
LINE
  8
1-2
  6
CONTINUOUS
 62
    3
 10
583.33483
 20
2174.3683
 11
1049.9999
 21
2174.3683
  0
LINE
  8
1-2
  6
CONTINUOUS
 62
    3
 10
583.33483
 20
2204.7022
 11
1049.9999
 21
2204.7022
  0
LINE
  8
1-2
  6
CONTINUOUS
 62
    3
 10
583.33483
 20
2217.702
 11
1049.9999
 21
2217.702
  0
LINE
  8
1-2
  6
CONTINUOUS
 62
    3
 10
583.33483
 20
2256.7022
 11
1049.9999
 21
2256.7022
  0
LINE
  8
1-2
  6
CONTINUOUS
 62
    3
 10
583.33483
 20
2269.7017
 11
1049.9999
 21
2269.7017
  0
LINE
  8
1-2
  6
CONTINUOUS
 62
    3
 10
1105.5464
 20
2134.1252
 11
1049.9999
 21
2134.1252
  0
LINE
  8
1-2
  6
CONTINUOUS
 62
    3
 10
1131.5145
 20
2082.1381
 11
1131.5145
 21
2116.5053
  0
LINE
  8
1-2
  6
CONTINUOUS
 62
    3
 10
745.00014
 20
2063.3688
 11
1049.9999
 21
2063.3688
  0
LINE
  8
1-2
  6
CONTINUOUS
 62
    3
 10
745.00014
 20
2076.3688
 11
1049.9999
 21
2076.3688
  0
LINE
  8
1-8
  6
CONTINUOUS
 62
    7
 10
1808.8795
 20
1981.0352
 11
1808.8795
 21
2174.3683
  0
LINE
  8
1-8
  6
CONTINUOUS
 62
    7
 10
1553.6721
 20
1981.0352
 11
1808.8795
 21
1981.0352
  0
LINE
  8
1-8
  6
CONTINUOUS
 62
    7
 10
1553.6721
 20
2174.3683
 11
1808.8795
 21
2174.3683
  0
LINE
  8
1-8
  6
CONTINUOUS
 62
    7
 10
1808.8795
 20
2174.3683
 11
1808.8795
 21
2394.3683
  0
LINE
  8
1-8
  6
CONTINUOUS
 62
    7
 10
1553.6721
 20
2394.3683
 11
1808.8795
 21
2394.3683
  0
LINE
  8
1-8
  6
CONTINUOUS
 62
    7
 10
1808.8795
 20
2394.3683
 11
1808.8795
 21
2501.035
  0
LINE
  8
1-8
  6
CONTINUOUS
 62
    7
 10
1553.6721
 20
2501.035
 11
1808.8795
 21
2501.035
  0
LINE
  8
1-2
  6
CONTINUOUS
 62
    3
 10
1131.5145
 20
2076.3688
 11
1355.0002
 21
2076.3688
  0
LINE
  8
1-2
  6
CONTINUOUS
 62
    3
 10
1131.5145
 20
2063.3688
 11
1355.0002
 21
2063.3688
  0
LINE
  8
1-8
  6
CONTINUOUS
 62
    7
 10
1379.5902
 20
1981.0352
 11
1459.4594
 21
1981.0352
  0
LINE
  8
1-8
  6
CONTINUOUS
 62
    7
 10
1379.5902
 20
2314.036
 11
1459.4594
 21
2314.036
  0
LINE
  8
1-2
  6
CONTINUOUS
 62
    3
 10
1355.0002
 20
2287.0047
 11
1355.0002
 21
2076.3688
  0
LINE
  8
1-8
  6
CONTINUOUS
 62
    7
 10
1459.4594
 20
1981.0352
 11
1459.4594
 21
2314.036
  0
LINE
  8
1-2
  6
CENTER2
 62
    7
 10
1049.9999
 20
1981.0352
 11
1049.9999
 21
2501.035
  0
LINE
  8
1-2
  6
CONTINUOUS
 62
    3
 10
1355.0002
 20
2314.036
 11
1050
 21
2314.036
  0
LINE
  8
1-2
  6
CONTINUOUS
 62
    3
 10
1355.0002
 20
2298.9654
 11
1355.0002
 21
2314.036
  0
LINE
  8
1-4
  6
CONTINUOUS
 62
    3
 10
1355.0002
 20
2431.0486
 11
1050
 21
2431.0486
  0
LINE
  8
1-2
  6
CONTINUOUS
 62
    3
 10
1252.5173
 20
2452.1344
 11
1215.9956
 21
2431.0486
  0
LINE
  8
1-2
  6
CONTINUOUS
 62
    3
 10
1355.0002
 20
2394.3683
 11
1516.6665
 21
2394.3683
  0
LINE
  8
1-4
  6
CONTINUOUS
 62
    3
 10
1355.0002
 20
2314.036
 11
1355.0002
 21
2431.0486
  0
LINE
  8
1-4
  6
CONTINUOUS
 62
    4
 10
1355.0002
 20
2426.0486
 11
1050
 21
2426.0486
  0
LINE
  8
1-4
  6
CONTINUOUS
 62
    4
 10
1355.0002
 20
2421.0485
 11
1050
 21
2421.0485
  0
LINE
  8
1-4
  6
CONTINUOUS
 62
    4
 10
1355.0002
 20
2416.0485
 11
1050
 21
2416.0485
  0
LINE
  8
1-4
  6
CONTINUOUS
 62
    4
 10
1355.0002
 20
2411.0485
 11
1050
 21
2411.0485
  0
LINE
  8
1-4
  6
CONTINUOUS
 62
    4
 10
1355.0002
 20
2406.0485
 11
1050
 21
2406.0485
  0
LINE
  8
1-4
  6
CONTINUOUS
 62
    4
 10
1355.0002
 20
2401.0485
 11
1050
 21
2401.0485
  0
LINE
  8
1-4
  6
CONTINUOUS
 62
    4
 10
1355.0002
 20
2396.0485
 11
1050
 21
2396.0485
  0
LINE
  8
1-4
  6
CONTINUOUS
 62
    4
 10
1355.0002
 20
2391.0484
 11
1050
 21
2391.0484
  0
LINE
  8
1-4
  6
CONTINUOUS
 62
    4
 10
1355.0002
 20
2386.0484
 11
1050
 21
2386.0484
  0
LINE
  8
1-4
  6
CONTINUOUS
 62
    4
 10
1355.0002
 20
2381.0484
 11
1050
 21
2381.0484
  0
LINE
  8
1-4
  6
CONTINUOUS
 62
    4
 10
1355.0002
 20
2376.0484
 11
1050
 21
2376.0484
  0
LINE
  8
1-4
  6
CONTINUOUS
 62
    4
 10
1355.0002
 20
2371.0484
 11
1050
 21
2371.0484
  0
LINE
  8
1-4
  6
CONTINUOUS
 62
    4
 10
1355.0002
 20
2366.0484
 11
1050
 21
2366.0484
  0
LINE
  8
1-4
  6
CONTINUOUS
 62
    4
 10
1355.0002
 20
2361.0483
 11
1050
 21
2361.0483
  0
LINE
  8
1-4
  6
CONTINUOUS
 62
    4
 10
1355.0002
 20
2356.0483
 11
1050
 21
2356.0483
  0
LINE
  8
1-4
  6
CONTINUOUS
 62
    4
 10
1355.0002
 20
2351.0483
 11
1050
 21
2351.0483
  0
LINE
  8
1-4
  6
CONTINUOUS
 62
    4
 10
1355.0002
 20
2346.0483
 11
1050
 21
2346.0483
  0
LINE
  8
1-4
  6
CONTINUOUS
 62
    4
 10
1355.0002
 20
2341.0483
 11
1050
 21
2341.0483
  0
LINE
  8
1-4
  6
CONTINUOUS
 62
    4
 10
1355.0002
 20
2336.0483
 11
1050
 21
2336.0483
  0
LINE
  8
1-4
  6
CONTINUOUS
 62
    4
 10
1355.0002
 20
2331.0482
 11
1050
 21
2331.0482
  0
LINE
  8
1-4
  6
CONTINUOUS
 62
    4
 10
1355.0002
 20
2326.0482
 11
1050
 21
2326.0482
  0
LINE
  8
1-4
  6
CONTINUOUS
 62
    4
 10
1355.0002
 20
2321.0482
 11
1050
 21
2321.0482
  0
LINE
  8
1-4
  6
CONTINUOUS
 62
    4
 10
1355.0002
 20
2316.0482
 11
1050
 21
2316.0482
  0
LINE
  8
1-4
  6
CONTINUOUS
 62
    4
 10
1350.0001
 20
2314.036
 11
1350.0001
 21
2431.0486
  0
LINE
  8
1-4
  6
CONTINUOUS
 62
    4
 10
1345.0001
 20
2314.036
 11
1345.0001
 21
2431.0486
  0
LINE
  8
1-4
  6
CONTINUOUS
 62
    4
 10
1340.0001
 20
2314.036
 11
1340.0001
 21
2431.0486
  0
LINE
  8
1-4
  6
CONTINUOUS
 62
    4
 10
1335.0002
 20
2314.036
 11
1335.0002
 21
2431.0486
  0
LINE
  8
1-4
  6
CONTINUOUS
 62
    4
 10
1330.0002
 20
2314.036
 11
1330.0002
 21
2431.0486
  0
LINE
  8
1-4
  6
CONTINUOUS
 62
    4
 10
1325.0002
 20
2314.036
 11
1325.0002
 21
2431.0486
  0
LINE
  8
1-4
  6
CONTINUOUS
 62
    4
 10
1320.0002
 20
2314.036
 11
1320.0002
 21
2431.0486
  0
LINE
  8
1-4
  6
CONTINUOUS
 62
    4
 10
1315.0001
 20
2314.036
 11
1315.0001
 21
2431.0486
  0
LINE
  8
1-4
  6
CONTINUOUS
 62
    4
 10
1310.0001
 20
2314.036
 11
1310.0001
 21
2431.0486
  0
LINE
  8
1-4
  6
CONTINUOUS
 62
    4
 10
1305.0001
 20
2314.036
 11
1305.0001
 21
2431.0486
  0
LINE
  8
1-4
  6
CONTINUOUS
 62
    4
 10
1300.0001
 20
2314.036
 11
1300.0001
 21
2431.0486
  0
LINE
  8
1-4
  6
CONTINUOUS
 62
    4
 10
1295.0001
 20
2314.036
 11
1295.0001
 21
2431.0486
  0
LINE
  8
1-4
  6
CONTINUOUS
 62
    4
 10
1290.0001
 20
2314.036
 11
1290.0001
 21
2431.0486
  0
LINE
  8
1-4
  6
CONTINUOUS
 62
    4
 10
1285
 20
2314.036
 11
1285
 21
2431.0486
  0
LINE
  8
1-4
  6
CONTINUOUS
 62
    4
 10
1280.0002
 20
2314.036
 11
1280.0002
 21
2431.0486
  0
LINE
  8
1-4
  6
CONTINUOUS
 62
    4
 10
1275.0001
 20
2314.036
 11
1275.0001
 21
2431.0486
  0
LINE
  8
1-4
  6
CONTINUOUS
 62
    4
 10
1270.0001
 20
2314.036
 11
1270.0001
 21
2431.0486
  0
LINE
  8
1-4
  6
CONTINUOUS
 62
    4
 10
1265.0001
 20
2314.036
 11
1265.0001
 21
2431.0486
  0
LINE
  8
1-4
  6
CONTINUOUS
 62
    4
 10
1260.0001
 20
2314.036
 11
1260.0001
 21
2431.0486
  0
LINE
  8
1-4
  6
CONTINUOUS
 62
    4
 10
1255.0001
 20
2314.036
 11
1255.0001
 21
2431.0486
  0
LINE
  8
1-4
  6
CONTINUOUS
 62
    4
 10
1250.0001
 20
2314.036
 11
1250.0001
 21
2431.0486
  0
LINE
  8
1-4
  6
CONTINUOUS
 62
    4
 10
1245
 20
2314.036
 11
1245
 21
2431.0486
  0
LINE
  8
1-4
  6
CONTINUOUS
 62
    4
 10
1240
 20
2314.036
 11
1240
 21
2431.0486
  0
LINE
  8
1-4
  6
CONTINUOUS
 62
    4
 10
1235
 20
2314.036
 11
1235
 21
2431.0486
  0
LINE
  8
1-4
  6
CONTINUOUS
 62
    4
 10
1230
 20
2314.036
 11
1230
 21
2431.0486
  0
LINE
  8
1-4
  6
CONTINUOUS
 62
    4
 10
1225.0001
 20
2314.036
 11
1225.0001
 21
2431.0486
  0
LINE
  8
1-4
  6
CONTINUOUS
 62
    4
 10
1220.0001
 20
2314.036
 11
1220.0001
 21
2431.0486
  0
LINE
  8
1-4
  6
CONTINUOUS
 62
    4
 10
1215.0001
 20
2314.036
 11
1215.0001
 21
2431.0486
  0
LINE
  8
1-4
  6
CONTINUOUS
 62
    4
 10
1210
 20
2314.036
 11
1210
 21
2431.0486
  0
LINE
  8
1-4
  6
CONTINUOUS
 62
    4
 10
1205
 20
2314.036
 11
1205
 21
2431.0486
  0
LINE
  8
1-4
  6
CONTINUOUS
 62
    4
 10
1200
 20
2314.036
 11
1200
 21
2431.0486
  0
LINE
  8
1-4
  6
CONTINUOUS
 62
    4
 10
1195
 20
2314.036
 11
1195
 21
2431.0486
  0
LINE
  8
1-4
  6
CONTINUOUS
 62
    4
 10
1190
 20
2314.036
 11
1190
 21
2431.0486
  0
LINE
  8
1-4
  6
CONTINUOUS
 62
    4
 10
1185
 20
2314.036
 11
1185
 21
2431.0486
  0
LINE
  8
1-4
  6
CONTINUOUS
 62
    4
 10
1179.9999
 20
2314.036
 11
1179.9999
 21
2431.0486
  0
LINE
  8
1-4
  6
CONTINUOUS
 62
    4
 10
1174.9999
 20
2314.036
 11
1174.9999
 21
2431.0486
  0
LINE
  8
1-4
  6
CONTINUOUS
 62
    4
 10
1170
 20
2314.036
 11
1170
 21
2431.0486
  0
LINE
  8
1-4
  6
CONTINUOUS
 62
    4
 10
1165
 20
2314.036
 11
1165
 21
2431.0486
  0
LINE
  8
1-4
  6
CONTINUOUS
 62
    4
 10
1160
 20
2314.036
 11
1160
 21
2431.0486
  0
LINE
  8
1-4
  6
CONTINUOUS
 62
    4
 10
1155
 20
2314.036
 11
1155
 21
2431.0486
  0
LINE
  8
1-4
  6
CONTINUOUS
 62
    4
 10
1150
 20
2314.036
 11
1150
 21
2431.0486
  0
LINE
  8
1-4
  6
CONTINUOUS
 62
    4
 10
1145
 20
2314.036
 11
1145
 21
2431.0486
  0
LINE
  8
1-4
  6
CONTINUOUS
 62
    4
 10
1139.9999
 20
2314.036
 11
1139.9999
 21
2431.0486
  0
LINE
  8
1-4
  6
CONTINUOUS
 62
    4
 10
1134.9999
 20
2314.036
 11
1134.9999
 21
2431.0486
  0
LINE
  8
1-4
  6
CONTINUOUS
 62
    4
 10
1129.9999
 20
2314.036
 11
1129.9999
 21
2431.0486
  0
LINE
  8
1-4
  6
CONTINUOUS
 62
    4
 10
1124.9999
 20
2314.036
 11
1124.9999
 21
2431.0486
  0
LINE
  8
1-4
  6
CONTINUOUS
 62
    4
 10
1119.9999
 20
2314.036
 11
1119.9999
 21
2431.0486
  0
LINE
  8
1-4
  6
CONTINUOUS
 62
    4
 10
1115
 20
2314.036
 11
1115
 21
2431.0486
  0
LINE
  8
1-4
  6
CONTINUOUS
 62
    4
 10
1110
 20
2314.036
 11
1110
 21
2431.0486
  0
LINE
  8
1-4
  6
CONTINUOUS
 62
    4
 10
1104.9999
 20
2314.036
 11
1104.9999
 21
2431.0486
  0
LINE
  8
1-4
  6
CONTINUOUS
 62
    4
 10
1099.9999
 20
2314.036
 11
1099.9999
 21
2431.0486
  0
LINE
  8
1-4
  6
CONTINUOUS
 62
    4
 10
1094.9999
 20
2314.036
 11
1094.9999
 21
2431.0486
  0
LINE
  8
1-4
  6
CONTINUOUS
 62
    4
 10
1089.9999
 20
2314.036
 11
1089.9999
 21
2431.0486
  0
LINE
  8
1-4
  6
CONTINUOUS
 62
    4
 10
1084.9999
 20
2314.036
 11
1084.9999
 21
2431.0486
  0
LINE
  8
1-4
  6
CONTINUOUS
 62
    4
 10
1079.9999
 20
2314.036
 11
1079.9999
 21
2431.0486
  0
LINE
  8
1-4
  6
CONTINUOUS
 62
    4
 10
1074.9998
 20
2314.036
 11
1074.9998
 21
2431.0486
  0
LINE
  8
1-4
  6
CONTINUOUS
 62
    4
 10
1069.9998
 20
2314.036
 11
1069.9998
 21
2431.0486
  0
LINE
  8
1-4
  6
CONTINUOUS
 62
    4
 10
1064.9998
 20
2314.036
 11
1064.9998
 21
2431.0486
  0
LINE
  8
1-4
  6
CONTINUOUS
 62
    4
 10
1059.9999
 20
2314.036
 11
1059.9999
 21
2431.0486
  0
LINE
  8
1-4
  6
CONTINUOUS
 62
    4
 10
1054.9999
 20
2314.036
 11
1054.9999
 21
2431.0486
  0
LINE
  8
1-1
  6
CENTER2
 62
    7
 10
1050
 20
1937.8379
 11
1050
 21
2602.7028
  0
LINE
  8
1-2
  6
CONTINUOUS
 62
    3
 10
1516.6665
 20
2256.702
 11
1517.7421
 21
2256.8008
  0
LINE
  8
1-2
  6
CONTINUOUS
 62
    3
 10
1517.7421
 20
2256.8008
 11
1518.7851
 21
2257.094
  0
LINE
  8
1-2
  6
CONTINUOUS
 62
    3
 10
1518.7851
 20
2257.094
 11
1519.7637
 21
2257.5729
  0
LINE
  8
1-2
  6
CONTINUOUS
 62
    3
 10
1519.7637
 20
2257.5729
 11
1520.6482
 21
2258.2227
  0
LINE
  8
1-2
  6
CONTINUOUS
 62
    3
 10
1520.6482
 20
2258.2227
 11
1521.4117
 21
2259.0239
  0
LINE
  8
1-2
  6
CONTINUOUS
 62
    3
 10
1521.4117
 20
2259.0239
 11
1522.031
 21
2259.952
  0
LINE
  8
1-2
  6
CONTINUOUS
 62
    3
 10
1522.031
 20
2259.952
 11
1522.4873
 21
2260.9789
  0
LINE
  8
1-2
  6
CONTINUOUS
 62
    3
 10
1522.4873
 20
2260.9789
 11
1522.7668
 21
2262.0733
  0
LINE
  8
1-2
  6
CONTINUOUS
 62
    3
 10
1522.7668
 20
2262.0733
 11
1522.8609
 21
2263.202
  0
LINE
  8
1-2
  6
CONTINUOUS
 62
    3
 10
1522.8609
 20
2263.202
 11
1522.7668
 21
2264.3307
  0
LINE
  8
1-2
  6
CONTINUOUS
 62
    3
 10
1522.7668
 20
2264.3307
 11
1522.4873
 21
2265.4251
  0
LINE
  8
1-2
  6
CONTINUOUS
 62
    3
 10
1522.4873
 20
2265.4251
 11
1522.031
 21
2266.4519
  0
LINE
  8
1-2
  6
CONTINUOUS
 62
    3
 10
1522.031
 20
2266.4519
 11
1521.4117
 21
2267.38
  0
LINE
  8
1-2
  6
CONTINUOUS
 62
    3
 10
1521.4117
 20
2267.38
 11
1520.6482
 21
2268.1812
  0
LINE
  8
1-2
  6
CONTINUOUS
 62
    3
 10
1520.6482
 20
2268.1812
 11
1519.7637
 21
2268.8311
  0
LINE
  8
1-2
  6
CONTINUOUS
 62
    3
 10
1519.7637
 20
2268.8311
 11
1518.7851
 21
2269.3099
  0
LINE
  8
1-2
  6
CONTINUOUS
 62
    3
 10
1518.7851
 20
2269.3099
 11
1517.7421
 21
2269.6032
  0
LINE
  8
1-2
  6
CONTINUOUS
 62
    3
 10
1517.7421
 20
2269.6032
 11
1516.6665
 21
2269.7019
  0
LINE
  8
1-2
  6
CONTINUOUS
 62
    3
 10
1516.6665
 20
2204.7021
 11
1517.7421
 21
2204.8008
  0
LINE
  8
1-2
  6
CONTINUOUS
 62
    3
 10
1517.7421
 20
2204.8008
 11
1518.7851
 21
2205.0941
  0
LINE
  8
1-2
  6
CONTINUOUS
 62
    3
 10
1518.7851
 20
2205.0941
 11
1519.7637
 21
2205.5729
  0
LINE
  8
1-2
  6
CONTINUOUS
 62
    3
 10
1519.7637
 20
2205.5729
 11
1520.6482
 21
2206.2228
  0
LINE
  8
1-2
  6
CONTINUOUS
 62
    3
 10
1520.6482
 20
2206.2228
 11
1521.4117
 21
2207.0239
  0
LINE
  8
1-2
  6
CONTINUOUS
 62
    3
 10
1521.4117
 20
2207.0239
 11
1522.031
 21
2207.952
  0
LINE
  8
1-2
  6
CONTINUOUS
 62
    3
 10
1522.031
 20
2207.952
 11
1522.4873
 21
2208.9789
  0
LINE
  8
1-2
  6
CONTINUOUS
 62
    3
 10
1522.4873
 20
2208.9789
 11
1522.7668
 21
2210.0733
  0
LINE
  8
1-2
  6
CONTINUOUS
 62
    3
 10
1522.7668
 20
2210.0733
 11
1522.8609
 21
2211.202
  0
LINE
  8
1-2
  6
CONTINUOUS
 62
    3
 10
1522.8609
 20
2211.202
 11
1522.7668
 21
2212.3307
  0
LINE
  8
1-2
  6
CONTINUOUS
 62
    3
 10
1522.7668
 20
2212.3307
 11
1522.4873
 21
2213.4251
  0
LINE
  8
1-2
  6
CONTINUOUS
 62
    3
 10
1522.4873
 20
2213.4251
 11
1522.031
 21
2214.452
  0
LINE
  8
1-2
  6
CONTINUOUS
 62
    3
 10
1522.031
 20
2214.452
 11
1521.4117
 21
2215.3801
  0
LINE
  8
1-2
  6
CONTINUOUS
 62
    3
 10
1521.4117
 20
2215.3801
 11
1520.6482
 21
2216.1812
  0
LINE
  8
1-2
  6
CONTINUOUS
 62
    3
 10
1520.6482
 20
2216.1812
 11
1519.7637
 21
2216.8311
  0
LINE
  8
1-2
  6
CONTINUOUS
 62
    3
 10
1519.7637
 20
2216.8311
 11
1518.7851
 21
2217.3099
  0
LINE
  8
1-2
  6
CONTINUOUS
 62
    3
 10
1518.7851
 20
2217.3099
 11
1517.7421
 21
2217.6032
  0
LINE
  8
1-2
  6
CONTINUOUS
 62
    3
 10
1517.7421
 20
2217.6032
 11
1516.6665
 21
2217.7019
  0
LINE
  8
1-2
  6
CONTINUOUS
 62
    3
 10
583.33483
 20
2269.7019
 11
582.25918
 21
2269.6032
  0
LINE
  8
1-2
  6
CONTINUOUS
 62
    3
 10
582.25918
 20
2269.6032
 11
581.21621
 21
2269.3099
  0
LINE
  8
1-2
  6
CONTINUOUS
 62
    3
 10
581.21621
 20
2269.3099
 11
580.23761
 21
2268.8311
  0
LINE
  8
1-2
  6
CONTINUOUS
 62
    3
 10
580.23761
 20
2268.8311
 11
579.35312
 21
2268.1812
  0
LINE
  8
1-2
  6
CONTINUOUS
 62
    3
 10
579.35312
 20
2268.1812
 11
578.58961
 21
2267.38
  0
LINE
  8
1-2
  6
CONTINUOUS
 62
    3
 10
578.58961
 20
2267.38
 11
577.97029
 21
2266.4519
  0
LINE
  8
1-2
  6
CONTINUOUS
 62
    3
 10
577.97029
 20
2266.4519
 11
577.51396
 21
2265.4251
  0
LINE
  8
1-2
  6
CONTINUOUS
 62
    3
 10
577.51396
 20
2265.4251
 11
577.2345
 21
2264.3307
  0
LINE
  8
1-2
  6
CONTINUOUS
 62
    3
 10
577.2345
 20
2264.3307
 11
577.14039
 21
2263.202
  0
LINE
  8
1-2
  6
CONTINUOUS
 62
    3
 10
577.14039
 20
2263.202
 11
577.2345
 21
2262.0733
  0
LINE
  8
1-2
  6
CONTINUOUS
 62
    3
 10
577.2345
 20
2262.0733
 11
577.51396
 21
2260.9789
  0
LINE
  8
1-2
  6
CONTINUOUS
 62
    3
 10
577.51396
 20
2260.9789
 11
577.97029
 21
2259.952
  0
LINE
  8
1-2
  6
CONTINUOUS
 62
    3
 10
577.97029
 20
2259.952
 11
578.58961
 21
2259.0239
  0
LINE
  8
1-2
  6
CONTINUOUS
 62
    3
 10
578.58961
 20
2259.0239
 11
579.35312
 21
2258.2227
  0
LINE
  8
1-2
  6
CONTINUOUS
 62
    3
 10
579.35312
 20
2258.2227
 11
580.23761
 21
2257.5729
  0
LINE
  8
1-2
  6
CONTINUOUS
 62
    3
 10
580.23761
 20
2257.5729
 11
581.21621
 21
2257.094
  0
LINE
  8
1-2
  6
CONTINUOUS
 62
    3
 10
581.21621
 20
2257.094
 11
582.25918
 21
2256.8008
  0
LINE
  8
1-2
  6
CONTINUOUS
 62
    3
 10
582.25918
 20
2256.8008
 11
583.33483
 21
2256.702
  0
LINE
  8
1-2
  6
CONTINUOUS
 62
    3
 10
583.33483
 20
2217.7019
 11
582.25918
 21
2217.6032
  0
LINE
  8
1-2
  6
CONTINUOUS
 62
    3
 10
582.25918
 20
2217.6032
 11
581.21621
 21
2217.3099
  0
LINE
  8
1-2
  6
CONTINUOUS
 62
    3
 10
581.21621
 20
2217.3099
 11
580.23761
 21
2216.8311
  0
LINE
  8
1-2
  6
CONTINUOUS
 62
    3
 10
580.23761
 20
2216.8311
 11
579.35312
 21
2216.1812
  0
LINE
  8
1-2
  6
CONTINUOUS
 62
    3
 10
579.35312
 20
2216.1812
 11
578.58961
 21
2215.3801
  0
LINE
  8
1-2
  6
CONTINUOUS
 62
    3
 10
578.58961
 20
2215.3801
 11
577.97029
 21
2214.452
  0
LINE
  8
1-2
  6
CONTINUOUS
 62
    3
 10
577.97029
 20
2214.452
 11
577.51396
 21
2213.4251
  0
LINE
  8
1-2
  6
CONTINUOUS
 62
    3
 10
577.51396
 20
2213.4251
 11
577.2345
 21
2212.3307
  0
LINE
  8
1-2
  6
CONTINUOUS
 62
    3
 10
577.2345
 20
2212.3307
 11
577.14039
 21
2211.202
  0
LINE
  8
1-2
  6
CONTINUOUS
 62
    3
 10
577.14039
 20
2211.202
 11
577.2345
 21
2210.0733
  0
LINE
  8
1-2
  6
CONTINUOUS
 62
    3
 10
577.2345
 20
2210.0733
 11
577.51396
 21
2208.9789
  0
LINE
  8
1-2
  6
CONTINUOUS
 62
    3
 10
577.51396
 20
2208.9789
 11
577.97029
 21
2207.952
  0
LINE
  8
1-2
  6
CONTINUOUS
 62
    3
 10
577.97029
 20
2207.952
 11
578.58961
 21
2207.0239
  0
LINE
  8
1-2
  6
CONTINUOUS
 62
    3
 10
578.58961
 20
2207.0239
 11
579.35312
 21
2206.2228
  0
LINE
  8
1-2
  6
CONTINUOUS
 62
    3
 10
579.35312
 20
2206.2228
 11
580.23761
 21
2205.5729
  0
LINE
  8
1-2
  6
CONTINUOUS
 62
    3
 10
580.23761
 20
2205.5729
 11
581.21621
 21
2205.0941
  0
LINE
  8
1-2
  6
CONTINUOUS
 62
    3
 10
581.21621
 20
2205.0941
 11
582.25918
 21
2204.8008
  0
LINE
  8
1-2
  6
CONTINUOUS
 62
    3
 10
582.25918
 20
2204.8008
 11
583.33483
 21
2204.7021
  0
LINE
  8
1-2
  6
CONTINUOUS
 62
    3
 10
1355.0002
 20
2063.3686
 11
1356.0758
 21
2063.4674
  0
LINE
  8
1-2
  6
CONTINUOUS
 62
    3
 10
1356.0758
 20
2063.4674
 11
1357.1188
 21
2063.7606
  0
LINE
  8
1-2
  6
CONTINUOUS
 62
    3
 10
1357.1188
 20
2063.7606
 11
1358.0974
 21
2064.2395
  0
LINE
  8
1-2
  6
CONTINUOUS
 62
    3
 10
1358.0974
 20
2064.2395
 11
1358.9819
 21
2064.8893
  0
LINE
  8
1-2
  6
CONTINUOUS
 62
    3
 10
1358.9819
 20
2064.8893
 11
1359.7454
 21
2065.6905
  0
LINE
  8
1-2
  6
CONTINUOUS
 62
    3
 10
1359.7454
 20
2065.6905
 11
1360.3647
 21
2066.6186
  0
LINE
  8
1-2
  6
CONTINUOUS
 62
    3
 10
1360.3647
 20
2066.6186
 11
1360.821
 21
2067.6455
  0
LINE
  8
1-2
  6
CONTINUOUS
 62
    3
 10
1360.821
 20
2067.6455
 11
1361.1005
 21
2068.7399
  0
LINE
  8
1-2
  6
CONTINUOUS
 62
    3
 10
1361.1005
 20
2068.7399
 11
1361.1946
 21
2069.8686
  0
LINE
  8
1-2
  6
CONTINUOUS
 62
    3
 10
1361.1946
 20
2069.8686
 11
1361.1005
 21
2070.9973
  0
LINE
  8
1-2
  6
CONTINUOUS
 62
    3
 10
1361.1005
 20
2070.9973
 11
1360.821
 21
2072.0917
  0
LINE
  8
1-2
  6
CONTINUOUS
 62
    3
 10
1360.821
 20
2072.0917
 11
1360.3647
 21
2073.1185
  0
LINE
  8
1-2
  6
CONTINUOUS
 62
    3
 10
1360.3647
 20
2073.1185
 11
1359.7454
 21
2074.0466
  0
LINE
  8
1-2
  6
CONTINUOUS
 62
    3
 10
1359.7454
 20
2074.0466
 11
1358.9819
 21
2074.8478
  0
LINE
  8
1-2
  6
CONTINUOUS
 62
    3
 10
1358.9819
 20
2074.8478
 11
1358.0974
 21
2075.4977
  0
LINE
  8
1-2
  6
CONTINUOUS
 62
    3
 10
1358.0974
 20
2075.4977
 11
1357.1188
 21
2075.9765
  0
LINE
  8
1-2
  6
CONTINUOUS
 62
    3
 10
1357.1188
 20
2075.9765
 11
1356.0758
 21
2076.2698
  0
LINE
  8
1-2
  6
CONTINUOUS
 62
    3
 10
1356.0758
 20
2076.2698
 11
1355.0002
 21
2076.3685
  0
LINE
  8
1-2
  6
CONTINUOUS
 62
    3
 10
1355.0002
 20
2011.3687
 11
1356.0758
 21
2011.4674
  0
LINE
  8
1-2
  6
CONTINUOUS
 62
    3
 10
1356.0758
 20
2011.4674
 11
1357.1188
 21
2011.7606
  0
LINE
  8
1-2
  6
CONTINUOUS
 62
    3
 10
1357.1188
 20
2011.7606
 11
1358.0974
 21
2012.2395
  0
LINE
  8
1-2
  6
CONTINUOUS
 62
    3
 10
1358.0974
 20
2012.2395
 11
1358.9819
 21
2012.8894
  0
LINE
  8
1-2
  6
CONTINUOUS
 62
    3
 10
1358.9819
 20
2012.8894
 11
1359.7454
 21
2013.6905
  0
LINE
  8
1-2
  6
CONTINUOUS
 62
    3
 10
1359.7454
 20
2013.6905
 11
1360.3647
 21
2014.6186
  0
LINE
  8
1-2
  6
CONTINUOUS
 62
    3
 10
1360.3647
 20
2014.6186
 11
1360.821
 21
2015.6455
  0
LINE
  8
1-2
  6
CONTINUOUS
 62
    3
 10
1360.821
 20
2015.6455
 11
1361.1005
 21
2016.7399
  0
LINE
  8
1-2
  6
CONTINUOUS
 62
    3
 10
1361.1005
 20
2016.7399
 11
1361.1946
 21
2017.8686
  0
LINE
  8
1-2
  6
CONTINUOUS
 62
    3
 10
1361.1946
 20
2017.8686
 11
1361.1005
 21
2018.9973
  0
LINE
  8
1-2
  6
CONTINUOUS
 62
    3
 10
1361.1005
 20
2018.9973
 11
1360.821
 21
2020.0917
  0
LINE
  8
1-2
  6
CONTINUOUS
 62
    3
 10
1360.821
 20
2020.0917
 11
1360.3647
 21
2021.1186
  0
LINE
  8
1-2
  6
CONTINUOUS
 62
    3
 10
1360.3647
 20
2021.1186
 11
1359.7454
 21
2022.0467
  0
LINE
  8
1-2
  6
CONTINUOUS
 62
    3
 10
1359.7454
 20
2022.0467
 11
1358.9819
 21
2022.8478
  0
LINE
  8
1-2
  6
CONTINUOUS
 62
    3
 10
1358.9819
 20
2022.8478
 11
1358.0974
 21
2023.4977
  0
LINE
  8
1-2
  6
CONTINUOUS
 62
    3
 10
1358.0974
 20
2023.4977
 11
1357.1188
 21
2023.9765
  0
LINE
  8
1-2
  6
CONTINUOUS
 62
    3
 10
1357.1188
 20
2023.9765
 11
1356.0758
 21
2024.2698
  0
LINE
  8
1-2
  6
CONTINUOUS
 62
    3
 10
1356.0758
 20
2024.2698
 11
1355.0002
 21
2024.3685
  0
LINE
  8
1-2
  6
CONTINUOUS
 62
    3
 10
745.00014
 20
2076.3685
 11
743.92449
 21
2076.2698
  0
LINE
  8
1-2
  6
CONTINUOUS
 62
    3
 10
743.92449
 20
2076.2698
 11
742.88152
 21
2075.9765
  0
LINE
  8
1-2
  6
CONTINUOUS
 62
    3
 10
742.88152
 20
2075.9765
 11
741.90292
 21
2075.4977
  0
LINE
  8
1-2
  6
CONTINUOUS
 62
    3
 10
741.90292
 20
2075.4977
 11
741.01843
 21
2074.8478
  0
LINE
  8
1-2
  6
CONTINUOUS
 62
    3
 10
741.01843
 20
2074.8478
 11
740.25493
 21
2074.0466
  0
LINE
  8
1-2
  6
CONTINUOUS
 62
    3
 10
740.25493
 20
2074.0466
 11
739.6356
 21
2073.1185
  0
LINE
  8
1-2
  6
CONTINUOUS
 62
    3
 10
739.6356
 20
2073.1185
 11
739.17927
 21
2072.0917
  0
LINE
  8
1-2
  6
CONTINUOUS
 62
    3
 10
739.17927
 20
2072.0917
 11
738.89981
 21
2070.9973
  0
LINE
  8
1-2
  6
CONTINUOUS
 62
    3
 10
738.89981
 20
2070.9973
 11
738.8057
 21
2069.8686
  0
LINE
  8
1-2
  6
CONTINUOUS
 62
    3
 10
738.8057
 20
2069.8686
 11
738.89981
 21
2068.7399
  0
LINE
  8
1-2
  6
CONTINUOUS
 62
    3
 10
738.89981
 20
2068.7399
 11
739.17927
 21
2067.6455
  0
LINE
  8
1-2
  6
CONTINUOUS
 62
    3
 10
739.17927
 20
2067.6455
 11
739.6356
 21
2066.6186
  0
LINE
  8
1-2
  6
CONTINUOUS
 62
    3
 10
739.6356
 20
2066.6186
 11
740.25493
 21
2065.6905
  0
LINE
  8
1-2
  6
CONTINUOUS
 62
    3
 10
740.25493
 20
2065.6905
 11
741.01843
 21
2064.8893
  0
LINE
  8
1-2
  6
CONTINUOUS
 62
    3
 10
741.01843
 20
2064.8893
 11
741.90292
 21
2064.2395
  0
LINE
  8
1-2
  6
CONTINUOUS
 62
    3
 10
741.90292
 20
2064.2395
 11
742.88152
 21
2063.7606
  0
LINE
  8
1-2
  6
CONTINUOUS
 62
    3
 10
742.88152
 20
2063.7606
 11
743.92449
 21
2063.4674
  0
LINE
  8
1-2
  6
CONTINUOUS
 62
    3
 10
743.92449
 20
2063.4674
 11
745.00014
 21
2063.3686
  0
LINE
  8
1-2
  6
CONTINUOUS
 62
    3
 10
745.00014
 20
2024.3685
 11
743.92449
 21
2024.2698
  0
LINE
  8
1-2
  6
CONTINUOUS
 62
    3
 10
743.92449
 20
2024.2698
 11
742.88152
 21
2023.9765
  0
LINE
  8
1-2
  6
CONTINUOUS
 62
    3
 10
742.88152
 20
2023.9765
 11
741.90292
 21
2023.4977
  0
LINE
  8
1-2
  6
CONTINUOUS
 62
    3
 10
741.90292
 20
2023.4977
 11
741.01843
 21
2022.8478
  0
LINE
  8
1-2
  6
CONTINUOUS
 62
    3
 10
741.01843
 20
2022.8478
 11
740.25493
 21
2022.0467
  0
LINE
  8
1-2
  6
CONTINUOUS
 62
    3
 10
740.25493
 20
2022.0467
 11
739.6356
 21
2021.1186
  0
LINE
  8
1-2
  6
CONTINUOUS
 62
    3
 10
739.6356
 20
2021.1186
 11
739.17927
 21
2020.0917
  0
LINE
  8
1-2
  6
CONTINUOUS
 62
    3
 10
739.17927
 20
2020.0917
 11
738.89981
 21
2018.9973
  0
LINE
  8
1-2
  6
CONTINUOUS
 62
    3
 10
738.89981
 20
2018.9973
 11
738.8057
 21
2017.8686
  0
LINE
  8
1-2
  6
CONTINUOUS
 62
    3
 10
738.8057
 20
2017.8686
 11
738.89981
 21
2016.7399
  0
LINE
  8
1-2
  6
CONTINUOUS
 62
    3
 10
738.89981
 20
2016.7399
 11
739.17927
 21
2015.6455
  0
LINE
  8
1-2
  6
CONTINUOUS
 62
    3
 10
739.17927
 20
2015.6455
 11
739.6356
 21
2014.6186
  0
LINE
  8
1-2
  6
CONTINUOUS
 62
    3
 10
739.6356
 20
2014.6186
 11
740.25493
 21
2013.6905
  0
LINE
  8
1-2
  6
CONTINUOUS
 62
    3
 10
740.25493
 20
2013.6905
 11
741.01843
 21
2012.8894
  0
LINE
  8
1-2
  6
CONTINUOUS
 62
    3
 10
741.01843
 20
2012.8894
 11
741.90292
 21
2012.2395
  0
LINE
  8
1-2
  6
CONTINUOUS
 62
    3
 10
741.90292
 20
2012.2395
 11
742.88152
 21
2011.7606
  0
LINE
  8
1-2
  6
CONTINUOUS
 62
    3
 10
742.88152
 20
2011.7606
 11
743.92449
 21
2011.4674
  0
LINE
  8
1-2
  6
CONTINUOUS
 62
    3
 10
743.92449
 20
2011.4674
 11
745.00014
 21
2011.3687
  0
ARC
  8
1-2
  6
CONTINUOUS
 62
    3
 10
1059.5199
 20
2155.0005
 40
5.9604153
 50
270
 51
0
  0
ARC
  8
1-2
  6
CONTINUOUS
 62
    3
 10
1059.5199
 20
2234.6603
 40
5.9604153
 50
0
 51
90
  0
ARC
  8
1-2
  6
CONTINUOUS
 62
    3
 10
1119.84
 20
2047.3914
 40
11.67452
 50
270
 51
0
  0
ARC
  8
1-2
  6
CONTINUOUS
 62
    3
 10
1114.0029
 20
2031.0571
 40
5.8372603
 50
270
 51
0
  0
ARC
  8
1-2
  6
CONTINUOUS
 62
    3
 10
1355.0002
 20
2292.9851
 40
5.9804101
 50
270
 51
90
  0
TEXT
  8
1-d
 10
254.9998
 20
157.4999
 40
25
 41
1
 50
0
  1
図
  0
TEXT
  8
1-d
 10
254.9998
 20
97.49997
 40
25
 41
1
 50
0
  1
番
  0
TEXT
  8
1-d
 10
655.00046
 20
157.4999
 40
25
 41
1
 50
0
  1
承
  0
TEXT
  8
1-d
 10
655.00046
 20
97.49997
 40
25
 41
1
 50
0
  1
認
  0
TEXT
  8
1-d
 10
1020.0003
 20
237.49996
 40
25
 41
1
 50
0
  1
尺
  0
TEXT
  8
1-d
 10
1020.0003
 20
197.49979
 40
25
 41
1
 50
0.0000762
  1
度
  0
TEXT
  8
1-d
 10
855.00014
 20
157.4999
 40
25
 41
1
 50
0
  1
製
  0
TEXT
  8
1-d
 10
855.00014
 20
97.49997
 40
25
 41
1
 50
0
  1
図
  0
TEXT
  8
1-d
 10
1555.0001
 20
237.49996
 40
25
 41
1
 50
0
  1
日
  0
TEXT
  8
1-d
 10
1555.0001
 20
197.49979
 40
25
 41
1
 50
0.0000762
  1
付
  0
TEXT
  8
1-d
 10
1111.4263
 20
163.48226
 40
20
 41
1
 50
0
  1
株式
  0
TEXT
  8
1-d
 10
1111.4263
 20
141.85181
 40
20
 41
1
 50
0.0000152
  1
会社
  0
TEXT
  8
1-d
 10
1174.2247
 20
143.24712
 40
40
 41
1
 50
0
  1
スズキベンチレーター
  0
TEXT
  8
1-d
 10
1237.9182
 20
94.024183
 40
20
 41
1
 50
0
  1
TEL(054)296-7000  FAX(054)296-7001
  0
TEXT
  8
1-d
 10
1084.349
 20
210.10066
 40
40
 41
1
 50
0
  1
１／１５
  0
TEXT
  8
1-8
 10
1003.8496
 20
1896.9923
 40
30
 41
1
 50
0
  1
915φ
  0
TEXT
  8
1-8
 10
280.0889
 20
2196.1173
 40
30
 41
1
 50
90
  1
780
  0
TEXT
  8
1-8
 10
1002.2974
 20
2674.4598
 40
30
 41
1
 50
0
  1
1,400
  0
TEXT
  8
1-8
 10
1798.8795
 20
2044.2848
 40
30
 41
1
 50
90
  1
290
  0
TEXT
  8
1-8
 10
1798.8795
 20
2272.2857
 40
30
 41
1
 50
90
  1
330
  0
TEXT
  8
1-8
 10
1798.8795
 20
2423.4519
 40
30
 41
1
 50
90
  1
160
  0
TEXT
  8
1-8
 10
1449.4593
 20
2138.619
 40
30
 41
1
 50
90
  1
500
  0
TEXT
  8
1-d
 10
269.15527
 20
2786.1124
 40
50
 41
1
 50
0
  1
ＳＴ－９０　直付型（網付）断面
  0
TEXT
  8
1-d
 10
265.86819
 20
212.66462
 40
30
 41
1
 50
0
  1
ＳＴ－９０　直付型（網付）断面
  0
TEXT
  8
1-d
 10
308.45927
 20
140.30214
 40
30
 41
1
 50
0
  1
90-F05a
  0
TEXT
  8
1-d
 10
1235.6794
 20
118.64593
 40
20
 41
1
 50
0
  1
〒421-2114　静岡市葵区安倍口新田１５２番地
  0
POINT
  8
1-8
 62
    2
 10
325.51675
 20
1981.0347
  0
POINT
  8
1-8
 62
    2
 10
325.51675
 20
2501.035
  0
POINT
  8
1-8
 62
    2
 10
583.33483
 20
2660.5287
  0
POINT
  8
1-8
 62
    2
 10
1516.6665
 20
2660.5287
  0
POINT
  8
1-8
 62
    2
 10
745.00014
 20
1859.8243
  0
POINT
  8
1-8
 62
    2
 10
1355.0002
 20
1859.8243
  0
POINT
  8
1-8
 62
    2
 10
1808.8795
 20
1981.0352
  0
POINT
  8
1-8
 62
    2
 10
1808.8795
 20
2174.3683
  0
POINT
  8
1-8
 62
    2
 10
1808.8795
 20
2394.3683
  0
POINT
  8
1-8
 62
    2
 10
1808.8795
 20
2501.035
  0
POINT
  8
1-8
 62
    2
 10
1459.4594
 20
1981.0352
  0
POINT
  8
1-8
 62
    2
 10
1459.4594
 20
2314.036
  0
ENDSEC
  0
EOF
