  0
SECTION
  2
HEADER
  9
$EXTMIN
 10
0
 20
0
  9
$EXTMAX
 10
8400
 20
5940
  0
ENDSEC
  0
SECTION
  2
TABLES
  0
TABLE
  2
LTYPE
 70
     9
  0
LTYPE
  2
CONTINUOUS
 70
    64
  3
実線
 72
    65
 73
     0
 40
0.0
  0
LTYPE
  2
DASHED1
 70
    64
  3
--  --  --  --  --  --  --  --  
 72
    65
 73
     2
 40
2.5
 49
1.25
 49
-1.25
  0
LTYPE
  2
DASHED2
 70
    64
  3
----    ----    ----    ----    
 72
    65
 73
     2
 40
5.0
 49
2.5
 49
-2.5
  0
LTYPE
  2
DASHED3
 70
    64
  3
------  ------  ------  ------  
 72
    65
 73
     2
 40
5.0
 49
3.75
 49
-1.25
  0
LTYPE
  2
CENTER1
 70
    64
  3
----- - ----- - ----- - ----- - 
 72
    65
 73
     4
 40
10.0
 49
6.25
 49
-1.25
 49
1.25
 49
-1.25
  0
LTYPE
  2
CENTER2
 70
    64
  3
----------  --  ----------  --  
 72
    65
 73
     4
 40
20.0
 49
12.5
 49
-2.5
 49
2.5
 49
-2.5
  0
LTYPE
  2
PHANTOM1
 70
    64
  3
--- - - --- - - --- - - --- - - 
 72
    65
 73
     6
 40
10.0
 49
3.25
 49
-1.25
 49
1.25
 49
-1.25
 49
1.25
 49
-1.25
  0
LTYPE
  2
PHANTOM2
 70
    64
  3
--------  -  -  --------  -  -  
 72
    65
 73
     6
 40
20.0
 49
10.0
 49
-2.5
 49
1.25
 49
-2.5
 49
1.25
 49
-2.5
  0
LTYPE
  2
DOT
 70
    64
  3
-   -   -   -   -   -   -   -   
 72
    65
 73
     2
 40
2.5
 49
0.625
 49
-1.875
  0
ENDTAB
  0
TABLE
  2
STYLE
 70
    1
  0
STYLE
  2
STANDARD
 70
    64
 40
0.0
 41
1.0
 42
0.0
 50
0.0
 71
     0
  3
TXT
  4
BIGFONT
  0
ENDTAB
  0
TABLE
  2
LAYER
 70
    4
  0
LAYER
  2
0-2
 70
   64
 62
    7
  6
CONTINUOUS
  0
LAYER
  2
0-8
 70
   64
 62
    7
  6
CONTINUOUS
  0
LAYER
  2
0-d
 70
   64
 62
    7
  6
CONTINUOUS
  0
LAYER
  2
ADD_LINE
 70
   64
 62
    7
  6
CONTINUOUS
  0
ENDTAB
  0
ENDSEC
  0
SECTION
  2
ENTITIES
  0
LINE
  8
0-d
  6
CONTINUOUS
 62
    7
 10
500.00012
 20
5515.4032
 11
3700.0002
 21
5515.4032
  0
LINE
  8
0-d
  6
CONTINUOUS
 62
    7
 10
500.00012
 20
5535.4033
 11
3700.0002
 21
5535.4033
  0
LINE
  8
0-d
  6
CONTINUOUS
 62
    7
 10
499.99938
 20
379.99978
 11
3700.001
 21
379.99978
  0
LINE
  8
0-d
  6
CONTINUOUS
 62
    7
 10
499.99938
 20
179.99961
 11
499.99938
 21
539.99982
  0
LINE
  8
0-d
  6
CONTINUOUS
 62
    7
 10
499.99938
 20
179.99961
 11
3700.001
 21
179.99961
  0
LINE
  8
0-d
  6
CONTINUOUS
 62
    7
 10
3700.001
 20
539.99982
 11
3700.001
 21
179.99961
  0
LINE
  8
0-d
  6
CONTINUOUS
 62
    7
 10
499.99938
 20
539.99982
 11
3700.001
 21
539.99982
  0
LINE
  8
0-d
  6
CONTINUOUS
 62
    7
 10
2100.0001
 20
539.99982
 11
2100.0001
 21
179.99961
  0
LINE
  8
0-d
  6
CONTINUOUS
 62
    7
 10
1300.0003
 20
179.99961
 11
1300.0003
 21
379.99978
  0
LINE
  8
0-d
  6
CONTINUOUS
 62
    7
 10
2100.0001
 20
379.99978
 11
2100.0001
 21
539.99982
  0
LINE
  8
0-d
  6
CONTINUOUS
 62
    7
 10
1699.9996
 20
179.99961
 11
1699.9996
 21
379.99978
  0
LINE
  8
0-d
  6
CONTINUOUS
 62
    7
 10
570.00005
 20
179.99961
 11
570.00005
 21
379.99978
  0
LINE
  8
0-d
  6
CONTINUOUS
 62
    7
 10
1370.0001
 20
179.99961
 11
1370.0001
 21
379.99978
  0
LINE
  8
0-d
  6
CONTINUOUS
 62
    7
 10
1770.0003
 20
179.99961
 11
1770.0003
 21
379.99978
  0
LINE
  8
0-d
  6
CONTINUOUS
 62
    7
 10
2030.0001
 20
379.99978
 11
2030.0001
 21
539.99982
  0
LINE
  8
0-d
  6
CONTINUOUS
 62
    7
 10
3100.0009
 20
379.99978
 11
3100.0009
 21
539.99982
  0
LINE
  8
0-d
  6
CONTINUOUS
 62
    7
 10
3170.0007
 20
379.99978
 11
3170.0007
 21
539.99982
  0
LINE
  8
0-2
  6
CONTINUOUS
 62
    3
 10
1372.0026
 20
4841.3919
 11
2099.9998
 21
5008.441
  0
LINE
  8
0-8
  6
CONTINUOUS
 62
    7
 10
1013.2751
 20
4228.4404
 11
1013.2751
 21
5008.441
  0
LINE
  8
0-8
  6
CONTINUOUS
 62
    7
 10
1400.0022
 20
4228.4404
 11
1013.2751
 21
4228.4404
  0
LINE
  8
0-8
  6
CONTINUOUS
 62
    7
 10
1400.0022
 20
5247.6817
 11
2799.9997
 21
5247.6817
  0
LINE
  8
0-8
  6
CONTINUOUS
 62
    7
 10
1642.5001
 20
4046.6248
 11
2557.5002
 21
4046.6248
  0
LINE
  8
0-2
  6
CONTINUOUS
 62
    3
 10
1400.0022
 20
4848.441
 11
1400.0022
 21
4661.4413
  0
LINE
  8
0-8
  6
CONTINUOUS
 62
    7
 10
1642.5001
 20
4162.084
 11
1642.5001
 21
4046.6248
  0
LINE
  8
0-8
  6
CONTINUOUS
 62
    7
 10
2557.5002
 20
4162.084
 11
2557.5002
 21
4046.6248
  0
LINE
  8
0-8
  6
CONTINUOUS
 62
    7
 10
1400.0022
 20
4928.9891
 11
1400.0022
 21
5247.6817
  0
LINE
  8
0-8
  6
CONTINUOUS
 62
    7
 10
1604.5542
 20
5008.441
 11
1013.2751
 21
5008.441
  0
LINE
  8
0-8
  6
CONTINUOUS
 62
    7
 10
2799.9997
 20
4928.9891
 11
2799.9997
 21
5247.6817
  0
LINE
  8
0-2
  6
CONTINUOUS
 62
    3
 10
1400.0022
 20
4641.9421
 11
1400.0022
 21
4583.4413
  0
LINE
  8
0-2
  6
CONTINUOUS
 62
    3
 10
1400.0022
 20
4563.9421
 11
1400.0022
 21
4518.4409
  0
LINE
  8
0-2
  6
CONTINUOUS
 62
    3
 10
1642.5001
 20
4293.4419
 11
2557.5002
 21
4293.4419
  0
LINE
  8
0-2
  6
CONTINUOUS
 62
    3
 10
1642.5001
 20
4351.9416
 11
1642.5001
 21
4293.4419
  0
LINE
  8
0-2
  6
CONTINUOUS
 62
    3
 10
1642.5001
 20
4228.4414
 11
2557.5002
 21
4228.4414
  0
LINE
  8
0-2
  6
CONTINUOUS
 62
    3
 10
1642.5001
 20
4273.9416
 11
2557.5002
 21
4273.9416
  0
LINE
  8
0-2
  6
CONTINUOUS
 62
    3
 10
1642.5001
 20
4518.4419
 11
1642.5001
 21
4371.4418
  0
LINE
  8
0-2
  6
CONTINUOUS
 62
    3
 10
1642.5001
 20
4273.9416
 11
1642.5001
 21
4228.4414
  0
LINE
  8
0-2
  6
CONTINUOUS
 62
    3
 10
1400.0022
 20
4848.441
 11
2099.9998
 21
4848.441
  0
LINE
  8
0-2
  6
CONTINUOUS
 62
    3
 10
1400.0022
 20
4518.4409
 11
2099.9998
 21
4518.4409
  0
LINE
  8
0-2
  6
CONTINUOUS
 62
    3
 10
1400.0022
 20
4563.9421
 11
2099.9998
 21
4563.9421
  0
LINE
  8
0-2
  6
CONTINUOUS
 62
    3
 10
1400.0022
 20
4583.4413
 11
2099.9998
 21
4583.4413
  0
LINE
  8
0-2
  6
CONTINUOUS
 62
    3
 10
1400.0022
 20
4641.9421
 11
2099.9998
 21
4641.9421
  0
LINE
  8
0-2
  6
CONTINUOUS
 62
    3
 10
1400.0022
 20
4661.4413
 11
2099.9998
 21
4661.4413
  0
LINE
  8
0-2
  6
CONTINUOUS
 62
    3
 10
1642.5001
 20
4351.9416
 11
2099.9998
 21
4351.9416
  0
LINE
  8
0-2
  6
CONTINUOUS
 62
    3
 10
1642.5001
 20
4371.4418
 11
2099.9998
 21
4371.4418
  0
LINE
  8
0-8
  6
CONTINUOUS
 62
    7
 10
3238.3193
 20
4228.4414
 11
3238.3193
 21
4518.4409
  0
LINE
  8
0-8
  6
CONTINUOUS
 62
    7
 10
2855.5081
 20
4228.4414
 11
3238.3193
 21
4228.4414
  0
LINE
  8
0-8
  6
CONTINUOUS
 62
    7
 10
2855.5081
 20
4518.4409
 11
3238.3193
 21
4518.4409
  0
LINE
  8
0-8
  6
CONTINUOUS
 62
    7
 10
3238.3193
 20
4518.4409
 11
3238.3193
 21
4848.441
  0
LINE
  8
0-8
  6
CONTINUOUS
 62
    7
 10
2855.5081
 20
4848.441
 11
3238.3193
 21
4848.441
  0
LINE
  8
0-8
  6
CONTINUOUS
 62
    7
 10
3238.3193
 20
4848.441
 11
3238.3193
 21
5008.441
  0
LINE
  8
0-8
  6
CONTINUOUS
 62
    7
 10
2855.5081
 20
5008.441
 11
3238.3193
 21
5008.441
  0
LINE
  8
0-2
  6
CONTINUOUS
 62
    3
 10
2827.9977
 20
4841.3919
 11
2100.0003
 21
5008.441
  0
LINE
  8
0-2
  6
CONTINUOUS
 62
    3
 10
2799.9979
 20
4848.441
 11
2799.9979
 21
4661.4413
  0
LINE
  8
0-2
  6
CONTINUOUS
 62
    3
 10
2799.9979
 20
4641.9421
 11
2799.9979
 21
4583.4413
  0
LINE
  8
0-2
  6
CONTINUOUS
 62
    3
 10
2799.9979
 20
4563.9421
 11
2799.9979
 21
4518.4409
  0
LINE
  8
0-2
  6
CONTINUOUS
 62
    3
 10
2557.5002
 20
4351.9416
 11
2557.5002
 21
4293.4419
  0
LINE
  8
0-2
  6
CONTINUOUS
 62
    3
 10
2557.5002
 20
4518.4419
 11
2557.5002
 21
4371.4418
  0
LINE
  8
0-2
  6
CONTINUOUS
 62
    3
 10
2557.5002
 20
4273.9416
 11
2557.5002
 21
4228.4414
  0
LINE
  8
0-2
  6
CONTINUOUS
 62
    3
 10
2799.9979
 20
4848.441
 11
2100.0003
 21
4848.441
  0
LINE
  8
0-2
  6
CONTINUOUS
 62
    3
 10
2799.9979
 20
4518.4409
 11
2100.0003
 21
4518.4409
  0
LINE
  8
0-2
  6
CONTINUOUS
 62
    3
 10
2799.9979
 20
4563.9421
 11
2100.0003
 21
4563.9421
  0
LINE
  8
0-2
  6
CONTINUOUS
 62
    3
 10
2799.9979
 20
4583.4413
 11
2100.0003
 21
4583.4413
  0
LINE
  8
0-2
  6
CONTINUOUS
 62
    3
 10
2799.9979
 20
4641.9421
 11
2100.0003
 21
4641.9421
  0
LINE
  8
0-2
  6
CONTINUOUS
 62
    3
 10
2799.9979
 20
4661.4413
 11
2100.0003
 21
4661.4413
  0
LINE
  8
0-2
  6
CONTINUOUS
 62
    3
 10
2557.5002
 20
4351.9416
 11
2100.0003
 21
4351.9416
  0
LINE
  8
0-2
  6
CONTINUOUS
 62
    3
 10
2557.5002
 20
4371.4418
 11
2100.0003
 21
4371.4418
  0
LINE
  8
0-8
  6
CONTINUOUS
 62
    7
 10
3186.7266
 20
3009.7591
 11
3186.7266
 21
3549.7595
  0
LINE
  8
0-8
  6
CONTINUOUS
 62
    7
 10
2792.4783
 20
3009.7591
 11
3186.7266
 21
3009.7591
  0
LINE
  8
0-8
  6
CONTINUOUS
 62
    7
 10
2799.9994
 20
3449.7594
 11
3186.7266
 21
3449.7594
  0
LINE
  8
0-8
  6
CONTINUOUS
 62
    7
 10
2799.9994
 20
3549.7595
 11
3186.7266
 21
3549.7595
  0
LINE
  8
0-8
  6
CONTINUOUS
 62
    7
 10
2650.0017
 20
2741.4027
 11
1550.0018
 21
2741.4027
  0
LINE
  8
0-8
  6
CONTINUOUS
 62
    7
 10
1672.9381
 20
1538.2213
 11
2527.0587
 21
1837.392
  0
LINE
  8
0-2
  6
CONTINUOUS
 62
    3
 10
1647.4984
 20
3449.7594
 11
2552.4985
 21
3449.7594
  0
LINE
  8
0-2
  6
CONTINUOUS
 62
    3
 10
1647.4984
 20
3549.7595
 11
2552.4985
 21
3549.7595
  0
LINE
  8
0-2
  6
CONTINUOUS
 62
    3
 10
1647.4984
 20
3449.7594
 11
1549.9983
 21
3009.7591
  0
LINE
  8
0-2
  6
CONTINUOUS
 62
    3
 10
2552.4985
 20
3449.7594
 11
2649.9984
 21
3009.1732
  0
LINE
  8
0-8
  6
CONTINUOUS
 62
    7
 10
2552.5017
 20
3761.6781
 11
1647.5016
 21
3761.6781
  0
LINE
  8
0-8
  6
CONTINUOUS
 62
    7
 10
2650.0017
 20
2911.1078
 11
2650.0017
 21
2741.4027
  0
LINE
  8
0-8
  6
CONTINUOUS
 62
    7
 10
1550.0018
 20
2911.1078
 11
1550.0018
 21
2741.4027
  0
LINE
  8
0-8
  6
CONTINUOUS
 62
    7
 10
1212.9464
 20
2497.8069
 11
1013.2734
 21
2497.8069
  0
LINE
  8
0-8
  6
CONTINUOUS
 62
    7
 10
1212.9464
 20
877.80729
 11
1013.2734
 21
877.80729
  0
LINE
  8
0-8
  6
CONTINUOUS
 62
    7
 10
2985.9257
 20
2237.8077
 11
3186.7241
 21
2237.8077
  0
LINE
  8
0-8
  6
CONTINUOUS
 62
    7
 10
2985.9257
 20
1137.8081
 11
3186.7241
 21
1137.8081
  0
LINE
  8
0-8
  6
CONTINUOUS
 62
    7
 10
2552.5017
 20
3615.4287
 11
2552.5017
 21
3761.6781
  0
LINE
  8
0-8
  6
CONTINUOUS
 62
    7
 10
1647.5016
 20
3615.4287
 11
1647.5016
 21
3761.6781
  0
LINE
  8
0-2
  6
CONTINUOUS
 62
    3
 10
1647.4984
 20
3549.7595
 11
1647.4984
 21
3531.1755
  0
LINE
  8
0-2
  6
CONTINUOUS
 62
    3
 10
1647.4984
 20
3512.5913
 11
1647.4984
 21
3449.7594
  0
LINE
  8
0-2
  6
CONTINUOUS
 62
    3
 10
1647.4984
 20
3512.5913
 11
2552.4985
 21
3512.5913
  0
LINE
  8
0-2
  6
CONTINUOUS
 62
    3
 10
2552.4985
 20
3512.5913
 11
2552.4985
 21
3449.7594
  0
LINE
  8
0-2
  6
CONTINUOUS
 62
    3
 10
1647.4984
 20
3531.1755
 11
2552.4987
 21
3531.1755
  0
LINE
  8
0-2
  6
CONTINUOUS
 62
    3
 10
2552.4987
 20
3549.7595
 11
2552.4987
 21
3531.1755
  0
LINE
  8
0-2
  6
CONTINUOUS
 62
    3
 10
2910.0018
 20
2497.8069
 11
1290.0018
 21
2497.8069
  0
LINE
  8
0-2
  6
CONTINUOUS
 62
    3
 10
2910.0018
 20
2497.8069
 11
2910.0018
 21
877.80729
  0
LINE
  8
0-2
  6
CONTINUOUS
 62
    3
 10
2910.0018
 20
877.80729
 11
1290.0018
 21
877.80729
  0
LINE
  8
0-2
  6
CONTINUOUS
 62
    3
 10
1290.0018
 20
2497.8069
 11
1290.0018
 21
877.80729
  0
LINE
  8
0-2
  6
CONTINUOUS
 62
    3
 10
2650.0017
 20
2237.8077
 11
2650.0017
 21
1137.8081
  0
LINE
  8
0-2
  6
CONTINUOUS
 62
    3
 10
1550.0018
 20
2237.8077
 11
1550.0018
 21
1137.8081
  0
LINE
  8
0-2
  6
CONTINUOUS
 62
    3
 10
1550.0017
 20
2237.8077
 11
1673.8889
 21
2113.9205
  0
LINE
  8
0-2
  6
CONTINUOUS
 62
    3
 10
2650.0017
 20
2237.8077
 11
1550.0017
 21
2237.8077
  0
LINE
  8
0-2
  6
CONTINUOUS
 62
    3
 10
2650.0017
 20
2237.8077
 11
2526.1145
 21
2113.9205
  0
LINE
  8
0-2
  6
CONTINUOUS
 62
    3
 10
2650.0017
 20
1137.8081
 11
2526.1145
 21
1261.6951
  0
LINE
  8
0-2
  6
CONTINUOUS
 62
    3
 10
2650.0017
 20
1137.8081
 11
1550.0018
 21
1137.8081
  0
LINE
  8
0-2
  6
CONTINUOUS
 62
    3
 10
1550.0018
 20
1137.8081
 11
1673.8889
 21
1261.6951
  0
LINE
  8
0-8
  6
CONTINUOUS
 62
    7
 10
1013.2734
 20
877.80729
 11
1013.2734
 21
2497.8069
  0
LINE
  8
0-8
  6
CONTINUOUS
 62
    7
 10
3186.7241
 20
1137.8081
 11
3186.7241
 21
2237.8077
  0
LINE
  8
0-8
  6
CENTER2
 62
    7
 10
2910.0018
 20
1687.8072
 11
1290.0018
 21
1687.8072
  0
LINE
  8
0-8
  6
CONTINUOUS
 62
    7
 10
3186.7241
 20
877.80729
 11
3186.7241
 21
1137.8081
  0
LINE
  8
0-8
  6
CONTINUOUS
 62
    7
 10
2985.9257
 20
877.80729
 11
3186.7241
 21
877.80729
  0
LINE
  8
0-8
  6
CONTINUOUS
 62
    7
 10
3186.7241
 20
2237.8077
 11
3186.7241
 21
2497.8069
  0
LINE
  8
0-8
  6
CONTINUOUS
 62
    7
 10
2985.9257
 20
2497.8069
 11
3186.7241
 21
2497.8069
  0
LINE
  8
0-2
  6
CONTINUOUS
 62
    3
 10
2099.9983
 20
3177.0294
 11
1289.9983
 21
2931.8829
  0
LINE
  8
0-2
  6
CONTINUOUS
 62
    3
 10
2909.9983
 20
2933.5343
 11
2099.9983
 21
3177.0294
  0
LINE
  8
0-8
  6
CENTER2
 62
    7
 10
2100.0001
 20
5124.3245
 11
2100.0001
 21
729.72976
  0
LINE
  8
0-2
  6
CONTINUOUS
 62
    3
 10
1400.0022
 20
4661.4411
 11
1398.3887
 21
4661.293
  0
LINE
  8
0-2
  6
CONTINUOUS
 62
    3
 10
1398.3887
 20
4661.293
 11
1396.8242
 21
4660.8531
  0
LINE
  8
0-2
  6
CONTINUOUS
 62
    3
 10
1396.8242
 20
4660.8531
 11
1395.3563
 21
4660.1349
  0
LINE
  8
0-2
  6
CONTINUOUS
 62
    3
 10
1395.3563
 20
4660.1349
 11
1394.0296
 21
4659.16
  0
LINE
  8
0-2
  6
CONTINUOUS
 62
    3
 10
1394.0296
 20
4659.16
 11
1392.8843
 21
4657.9583
  0
LINE
  8
0-2
  6
CONTINUOUS
 62
    3
 10
1392.8843
 20
4657.9583
 11
1391.9554
 21
4656.5661
  0
LINE
  8
0-2
  6
CONTINUOUS
 62
    3
 10
1391.9554
 20
4656.5661
 11
1391.2709
 21
4655.0259
  0
LINE
  8
0-2
  6
CONTINUOUS
 62
    3
 10
1391.2709
 20
4655.0259
 11
1390.8517
 21
4653.3842
  0
LINE
  8
0-2
  6
CONTINUOUS
 62
    3
 10
1390.8517
 20
4653.3842
 11
1390.7105
 21
4651.6912
  0
LINE
  8
0-2
  6
CONTINUOUS
 62
    3
 10
1390.7105
 20
4651.6912
 11
1390.8517
 21
4649.9981
  0
LINE
  8
0-2
  6
CONTINUOUS
 62
    3
 10
1390.8517
 20
4649.9981
 11
1391.2709
 21
4648.3565
  0
LINE
  8
0-2
  6
CONTINUOUS
 62
    3
 10
1391.2709
 20
4648.3565
 11
1391.9554
 21
4646.8162
  0
LINE
  8
0-2
  6
CONTINUOUS
 62
    3
 10
1391.9554
 20
4646.8162
 11
1392.8843
 21
4645.4241
  0
LINE
  8
0-2
  6
CONTINUOUS
 62
    3
 10
1392.8843
 20
4645.4241
 11
1394.0296
 21
4644.2223
  0
LINE
  8
0-2
  6
CONTINUOUS
 62
    3
 10
1394.0296
 20
4644.2223
 11
1395.3563
 21
4643.2475
  0
LINE
  8
0-2
  6
CONTINUOUS
 62
    3
 10
1395.3563
 20
4643.2475
 11
1396.8242
 21
4642.5293
  0
LINE
  8
0-2
  6
CONTINUOUS
 62
    3
 10
1396.8242
 20
4642.5293
 11
1398.3887
 21
4642.0894
  0
LINE
  8
0-2
  6
CONTINUOUS
 62
    3
 10
1398.3887
 20
4642.0894
 11
1400.0022
 21
4641.9413
  0
LINE
  8
0-2
  6
CONTINUOUS
 62
    3
 10
1400.0022
 20
4583.4411
 11
1398.3887
 21
4583.293
  0
LINE
  8
0-2
  6
CONTINUOUS
 62
    3
 10
1398.3887
 20
4583.293
 11
1396.8242
 21
4582.8531
  0
LINE
  8
0-2
  6
CONTINUOUS
 62
    3
 10
1396.8242
 20
4582.8531
 11
1395.3563
 21
4582.1349
  0
LINE
  8
0-2
  6
CONTINUOUS
 62
    3
 10
1395.3563
 20
4582.1349
 11
1394.0296
 21
4581.1601
  0
LINE
  8
0-2
  6
CONTINUOUS
 62
    3
 10
1394.0296
 20
4581.1601
 11
1392.8843
 21
4579.9583
  0
LINE
  8
0-2
  6
CONTINUOUS
 62
    3
 10
1392.8843
 20
4579.9583
 11
1391.9554
 21
4578.5662
  0
LINE
  8
0-2
  6
CONTINUOUS
 62
    3
 10
1391.9554
 20
4578.5662
 11
1391.2709
 21
4577.0259
  0
LINE
  8
0-2
  6
CONTINUOUS
 62
    3
 10
1391.2709
 20
4577.0259
 11
1390.8517
 21
4575.3843
  0
LINE
  8
0-2
  6
CONTINUOUS
 62
    3
 10
1390.8517
 20
4575.3843
 11
1390.7105
 21
4573.6912
  0
LINE
  8
0-2
  6
CONTINUOUS
 62
    3
 10
1390.7105
 20
4573.6912
 11
1390.8517
 21
4571.9982
  0
LINE
  8
0-2
  6
CONTINUOUS
 62
    3
 10
1390.8517
 20
4571.9982
 11
1391.2709
 21
4570.3566
  0
LINE
  8
0-2
  6
CONTINUOUS
 62
    3
 10
1391.2709
 20
4570.3566
 11
1391.9554
 21
4568.8163
  0
LINE
  8
0-2
  6
CONTINUOUS
 62
    3
 10
1391.9554
 20
4568.8163
 11
1392.8843
 21
4567.4241
  0
LINE
  8
0-2
  6
CONTINUOUS
 62
    3
 10
1392.8843
 20
4567.4241
 11
1394.0296
 21
4566.2224
  0
LINE
  8
0-2
  6
CONTINUOUS
 62
    3
 10
1394.0296
 20
4566.2224
 11
1395.3563
 21
4565.2476
  0
LINE
  8
0-2
  6
CONTINUOUS
 62
    3
 10
1395.3563
 20
4565.2476
 11
1396.8242
 21
4564.5293
  0
LINE
  8
0-2
  6
CONTINUOUS
 62
    3
 10
1396.8242
 20
4564.5293
 11
1398.3887
 21
4564.0894
  0
LINE
  8
0-2
  6
CONTINUOUS
 62
    3
 10
1398.3887
 20
4564.0894
 11
1400.0022
 21
4563.9413
  0
LINE
  8
0-2
  6
CONTINUOUS
 62
    3
 10
1642.5001
 20
4371.4411
 11
1640.8867
 21
4371.293
  0
LINE
  8
0-2
  6
CONTINUOUS
 62
    3
 10
1640.8867
 20
4371.293
 11
1639.3222
 21
4370.8531
  0
LINE
  8
0-2
  6
CONTINUOUS
 62
    3
 10
1639.3222
 20
4370.8531
 11
1637.8543
 21
4370.1349
  0
LINE
  8
0-2
  6
CONTINUOUS
 62
    3
 10
1637.8543
 20
4370.1349
 11
1636.5276
 21
4369.1601
  0
LINE
  8
0-2
  6
CONTINUOUS
 62
    3
 10
1636.5276
 20
4369.1601
 11
1635.3823
 21
4367.9583
  0
LINE
  8
0-2
  6
CONTINUOUS
 62
    3
 10
1635.3823
 20
4367.9583
 11
1634.4533
 21
4366.5662
  0
LINE
  8
0-2
  6
CONTINUOUS
 62
    3
 10
1634.4533
 20
4366.5662
 11
1633.7688
 21
4365.0259
  0
LINE
  8
0-2
  6
CONTINUOUS
 62
    3
 10
1633.7688
 20
4365.0259
 11
1633.3496
 21
4363.3843
  0
LINE
  8
0-2
  6
CONTINUOUS
 62
    3
 10
1633.3496
 20
4363.3843
 11
1633.2085
 21
4361.6912
  0
LINE
  8
0-2
  6
CONTINUOUS
 62
    3
 10
1633.2085
 20
4361.6912
 11
1633.3496
 21
4359.9982
  0
LINE
  8
0-2
  6
CONTINUOUS
 62
    3
 10
1633.3496
 20
4359.9982
 11
1633.7688
 21
4358.3565
  0
LINE
  8
0-2
  6
CONTINUOUS
 62
    3
 10
1633.7688
 20
4358.3565
 11
1634.4533
 21
4356.8163
  0
LINE
  8
0-2
  6
CONTINUOUS
 62
    3
 10
1634.4533
 20
4356.8163
 11
1635.3823
 21
4355.4241
  0
LINE
  8
0-2
  6
CONTINUOUS
 62
    3
 10
1635.3823
 20
4355.4241
 11
1636.5276
 21
4354.2224
  0
LINE
  8
0-2
  6
CONTINUOUS
 62
    3
 10
1636.5276
 20
4354.2224
 11
1637.8543
 21
4353.2475
  0
LINE
  8
0-2
  6
CONTINUOUS
 62
    3
 10
1637.8543
 20
4353.2475
 11
1639.3222
 21
4352.5293
  0
LINE
  8
0-2
  6
CONTINUOUS
 62
    3
 10
1639.3222
 20
4352.5293
 11
1640.8867
 21
4352.0894
  0
LINE
  8
0-2
  6
CONTINUOUS
 62
    3
 10
1640.8867
 20
4352.0894
 11
1642.5001
 21
4351.9413
  0
LINE
  8
0-2
  6
CONTINUOUS
 62
    3
 10
1642.5001
 20
4293.4411
 11
1640.8867
 21
4293.293
  0
LINE
  8
0-2
  6
CONTINUOUS
 62
    3
 10
1640.8867
 20
4293.293
 11
1639.3222
 21
4292.8532
  0
LINE
  8
0-2
  6
CONTINUOUS
 62
    3
 10
1639.3222
 20
4292.8532
 11
1637.8543
 21
4292.1349
  0
LINE
  8
0-2
  6
CONTINUOUS
 62
    3
 10
1637.8543
 20
4292.1349
 11
1636.5276
 21
4291.1601
  0
LINE
  8
0-2
  6
CONTINUOUS
 62
    3
 10
1636.5276
 20
4291.1601
 11
1635.3823
 21
4289.9584
  0
LINE
  8
0-2
  6
CONTINUOUS
 62
    3
 10
1635.3823
 20
4289.9584
 11
1634.4533
 21
4288.5662
  0
LINE
  8
0-2
  6
CONTINUOUS
 62
    3
 10
1634.4533
 20
4288.5662
 11
1633.7688
 21
4287.0259
  0
LINE
  8
0-2
  6
CONTINUOUS
 62
    3
 10
1633.7688
 20
4287.0259
 11
1633.3496
 21
4285.3843
  0
LINE
  8
0-2
  6
CONTINUOUS
 62
    3
 10
1633.3496
 20
4285.3843
 11
1633.2085
 21
4283.6912
  0
LINE
  8
0-2
  6
CONTINUOUS
 62
    3
 10
1633.2085
 20
4283.6912
 11
1633.3496
 21
4281.9982
  0
LINE
  8
0-2
  6
CONTINUOUS
 62
    3
 10
1633.3496
 20
4281.9982
 11
1633.7688
 21
4280.3566
  0
LINE
  8
0-2
  6
CONTINUOUS
 62
    3
 10
1633.7688
 20
4280.3566
 11
1634.4533
 21
4278.8163
  0
LINE
  8
0-2
  6
CONTINUOUS
 62
    3
 10
1634.4533
 20
4278.8163
 11
1635.3823
 21
4277.4241
  0
LINE
  8
0-2
  6
CONTINUOUS
 62
    3
 10
1635.3823
 20
4277.4241
 11
1636.5276
 21
4276.2224
  0
LINE
  8
0-2
  6
CONTINUOUS
 62
    3
 10
1636.5276
 20
4276.2224
 11
1637.8543
 21
4275.2476
  0
LINE
  8
0-2
  6
CONTINUOUS
 62
    3
 10
1637.8543
 20
4275.2476
 11
1639.3222
 21
4274.5293
  0
LINE
  8
0-2
  6
CONTINUOUS
 62
    3
 10
1639.3222
 20
4274.5293
 11
1640.8867
 21
4274.0895
  0
LINE
  8
0-2
  6
CONTINUOUS
 62
    3
 10
1640.8867
 20
4274.0895
 11
1642.5001
 21
4273.9413
  0
LINE
  8
0-2
  6
CONTINUOUS
 62
    3
 10
2799.9979
 20
4641.9413
 11
2801.6114
 21
4642.0894
  0
LINE
  8
0-2
  6
CONTINUOUS
 62
    3
 10
2801.6114
 20
4642.0894
 11
2803.1759
 21
4642.5293
  0
LINE
  8
0-2
  6
CONTINUOUS
 62
    3
 10
2803.1759
 20
4642.5293
 11
2804.6438
 21
4643.2475
  0
LINE
  8
0-2
  6
CONTINUOUS
 62
    3
 10
2804.6438
 20
4643.2475
 11
2805.9705
 21
4644.2223
  0
LINE
  8
0-2
  6
CONTINUOUS
 62
    3
 10
2805.9705
 20
4644.2223
 11
2807.1158
 21
4645.4241
  0
LINE
  8
0-2
  6
CONTINUOUS
 62
    3
 10
2807.1158
 20
4645.4241
 11
2808.0448
 21
4646.8162
  0
LINE
  8
0-2
  6
CONTINUOUS
 62
    3
 10
2808.0448
 20
4646.8162
 11
2808.7292
 21
4648.3565
  0
LINE
  8
0-2
  6
CONTINUOUS
 62
    3
 10
2808.7292
 20
4648.3565
 11
2809.1484
 21
4649.9981
  0
LINE
  8
0-2
  6
CONTINUOUS
 62
    3
 10
2809.1484
 20
4649.9981
 11
2809.2896
 21
4651.6912
  0
LINE
  8
0-2
  6
CONTINUOUS
 62
    3
 10
2809.2896
 20
4651.6912
 11
2809.1484
 21
4653.3842
  0
LINE
  8
0-2
  6
CONTINUOUS
 62
    3
 10
2809.1484
 20
4653.3842
 11
2808.7292
 21
4655.0259
  0
LINE
  8
0-2
  6
CONTINUOUS
 62
    3
 10
2808.7292
 20
4655.0259
 11
2808.0448
 21
4656.5661
  0
LINE
  8
0-2
  6
CONTINUOUS
 62
    3
 10
2808.0448
 20
4656.5661
 11
2807.1158
 21
4657.9583
  0
LINE
  8
0-2
  6
CONTINUOUS
 62
    3
 10
2807.1158
 20
4657.9583
 11
2805.9705
 21
4659.16
  0
LINE
  8
0-2
  6
CONTINUOUS
 62
    3
 10
2805.9705
 20
4659.16
 11
2804.6438
 21
4660.1349
  0
LINE
  8
0-2
  6
CONTINUOUS
 62
    3
 10
2804.6438
 20
4660.1349
 11
2803.1759
 21
4660.8531
  0
LINE
  8
0-2
  6
CONTINUOUS
 62
    3
 10
2803.1759
 20
4660.8531
 11
2801.6114
 21
4661.293
  0
LINE
  8
0-2
  6
CONTINUOUS
 62
    3
 10
2801.6114
 20
4661.293
 11
2799.9979
 21
4661.4411
  0
LINE
  8
0-2
  6
CONTINUOUS
 62
    3
 10
2799.9979
 20
4563.9413
 11
2801.6114
 21
4564.0894
  0
LINE
  8
0-2
  6
CONTINUOUS
 62
    3
 10
2801.6114
 20
4564.0894
 11
2803.1759
 21
4564.5293
  0
LINE
  8
0-2
  6
CONTINUOUS
 62
    3
 10
2803.1759
 20
4564.5293
 11
2804.6438
 21
4565.2476
  0
LINE
  8
0-2
  6
CONTINUOUS
 62
    3
 10
2804.6438
 20
4565.2476
 11
2805.9705
 21
4566.2224
  0
LINE
  8
0-2
  6
CONTINUOUS
 62
    3
 10
2805.9705
 20
4566.2224
 11
2807.1158
 21
4567.4241
  0
LINE
  8
0-2
  6
CONTINUOUS
 62
    3
 10
2807.1158
 20
4567.4241
 11
2808.0448
 21
4568.8163
  0
LINE
  8
0-2
  6
CONTINUOUS
 62
    3
 10
2808.0448
 20
4568.8163
 11
2808.7292
 21
4570.3566
  0
LINE
  8
0-2
  6
CONTINUOUS
 62
    3
 10
2808.7292
 20
4570.3566
 11
2809.1484
 21
4571.9982
  0
LINE
  8
0-2
  6
CONTINUOUS
 62
    3
 10
2809.1484
 20
4571.9982
 11
2809.2896
 21
4573.6912
  0
LINE
  8
0-2
  6
CONTINUOUS
 62
    3
 10
2809.2896
 20
4573.6912
 11
2809.1484
 21
4575.3843
  0
LINE
  8
0-2
  6
CONTINUOUS
 62
    3
 10
2809.1484
 20
4575.3843
 11
2808.7292
 21
4577.0259
  0
LINE
  8
0-2
  6
CONTINUOUS
 62
    3
 10
2808.7292
 20
4577.0259
 11
2808.0448
 21
4578.5662
  0
LINE
  8
0-2
  6
CONTINUOUS
 62
    3
 10
2808.0448
 20
4578.5662
 11
2807.1158
 21
4579.9583
  0
LINE
  8
0-2
  6
CONTINUOUS
 62
    3
 10
2807.1158
 20
4579.9583
 11
2805.9705
 21
4581.1601
  0
LINE
  8
0-2
  6
CONTINUOUS
 62
    3
 10
2805.9705
 20
4581.1601
 11
2804.6438
 21
4582.1349
  0
LINE
  8
0-2
  6
CONTINUOUS
 62
    3
 10
2804.6438
 20
4582.1349
 11
2803.1759
 21
4582.8531
  0
LINE
  8
0-2
  6
CONTINUOUS
 62
    3
 10
2803.1759
 20
4582.8531
 11
2801.6114
 21
4583.293
  0
LINE
  8
0-2
  6
CONTINUOUS
 62
    3
 10
2801.6114
 20
4583.293
 11
2799.9979
 21
4583.4411
  0
LINE
  8
0-2
  6
CONTINUOUS
 62
    3
 10
2557.5002
 20
4351.9413
 11
2559.1137
 21
4352.0894
  0
LINE
  8
0-2
  6
CONTINUOUS
 62
    3
 10
2559.1137
 20
4352.0894
 11
2560.6782
 21
4352.5293
  0
LINE
  8
0-2
  6
CONTINUOUS
 62
    3
 10
2560.6782
 20
4352.5293
 11
2562.1461
 21
4353.2475
  0
LINE
  8
0-2
  6
CONTINUOUS
 62
    3
 10
2562.1461
 20
4353.2475
 11
2563.4728
 21
4354.2224
  0
LINE
  8
0-2
  6
CONTINUOUS
 62
    3
 10
2563.4728
 20
4354.2224
 11
2564.618
 21
4355.4241
  0
LINE
  8
0-2
  6
CONTINUOUS
 62
    3
 10
2564.618
 20
4355.4241
 11
2565.547
 21
4356.8163
  0
LINE
  8
0-2
  6
CONTINUOUS
 62
    3
 10
2565.547
 20
4356.8163
 11
2566.2315
 21
4358.3565
  0
LINE
  8
0-2
  6
CONTINUOUS
 62
    3
 10
2566.2315
 20
4358.3565
 11
2566.6507
 21
4359.9982
  0
LINE
  8
0-2
  6
CONTINUOUS
 62
    3
 10
2566.6507
 20
4359.9982
 11
2566.7919
 21
4361.6912
  0
LINE
  8
0-2
  6
CONTINUOUS
 62
    3
 10
2566.7919
 20
4361.6912
 11
2566.6507
 21
4363.3843
  0
LINE
  8
0-2
  6
CONTINUOUS
 62
    3
 10
2566.6507
 20
4363.3843
 11
2566.2315
 21
4365.0259
  0
LINE
  8
0-2
  6
CONTINUOUS
 62
    3
 10
2566.2315
 20
4365.0259
 11
2565.547
 21
4366.5662
  0
LINE
  8
0-2
  6
CONTINUOUS
 62
    3
 10
2565.547
 20
4366.5662
 11
2564.618
 21
4367.9583
  0
LINE
  8
0-2
  6
CONTINUOUS
 62
    3
 10
2564.618
 20
4367.9583
 11
2563.4728
 21
4369.1601
  0
LINE
  8
0-2
  6
CONTINUOUS
 62
    3
 10
2563.4728
 20
4369.1601
 11
2562.1461
 21
4370.1349
  0
LINE
  8
0-2
  6
CONTINUOUS
 62
    3
 10
2562.1461
 20
4370.1349
 11
2560.6782
 21
4370.8531
  0
LINE
  8
0-2
  6
CONTINUOUS
 62
    3
 10
2560.6782
 20
4370.8531
 11
2559.1137
 21
4371.293
  0
LINE
  8
0-2
  6
CONTINUOUS
 62
    3
 10
2559.1137
 20
4371.293
 11
2557.5002
 21
4371.4411
  0
LINE
  8
0-2
  6
CONTINUOUS
 62
    3
 10
2557.5002
 20
4273.9413
 11
2559.1137
 21
4274.0895
  0
LINE
  8
0-2
  6
CONTINUOUS
 62
    3
 10
2559.1137
 20
4274.0895
 11
2560.6782
 21
4274.5293
  0
LINE
  8
0-2
  6
CONTINUOUS
 62
    3
 10
2560.6782
 20
4274.5293
 11
2562.1461
 21
4275.2476
  0
LINE
  8
0-2
  6
CONTINUOUS
 62
    3
 10
2562.1461
 20
4275.2476
 11
2563.4728
 21
4276.2224
  0
LINE
  8
0-2
  6
CONTINUOUS
 62
    3
 10
2563.4728
 20
4276.2224
 11
2564.618
 21
4277.4241
  0
LINE
  8
0-2
  6
CONTINUOUS
 62
    3
 10
2564.618
 20
4277.4241
 11
2565.547
 21
4278.8163
  0
LINE
  8
0-2
  6
CONTINUOUS
 62
    3
 10
2565.547
 20
4278.8163
 11
2566.2315
 21
4280.3566
  0
LINE
  8
0-2
  6
CONTINUOUS
 62
    3
 10
2566.2315
 20
4280.3566
 11
2566.6507
 21
4281.9982
  0
LINE
  8
0-2
  6
CONTINUOUS
 62
    3
 10
2566.6507
 20
4281.9982
 11
2566.7919
 21
4283.6912
  0
LINE
  8
0-2
  6
CONTINUOUS
 62
    3
 10
2566.7919
 20
4283.6912
 11
2566.6507
 21
4285.3843
  0
LINE
  8
0-2
  6
CONTINUOUS
 62
    3
 10
2566.6507
 20
4285.3843
 11
2566.2315
 21
4287.0259
  0
LINE
  8
0-2
  6
CONTINUOUS
 62
    3
 10
2566.2315
 20
4287.0259
 11
2565.547
 21
4288.5662
  0
LINE
  8
0-2
  6
CONTINUOUS
 62
    3
 10
2565.547
 20
4288.5662
 11
2564.618
 21
4289.9584
  0
LINE
  8
0-2
  6
CONTINUOUS
 62
    3
 10
2564.618
 20
4289.9584
 11
2563.4728
 21
4291.1601
  0
LINE
  8
0-2
  6
CONTINUOUS
 62
    3
 10
2563.4728
 20
4291.1601
 11
2562.1461
 21
4292.1349
  0
LINE
  8
0-2
  6
CONTINUOUS
 62
    3
 10
2562.1461
 20
4292.1349
 11
2560.6782
 21
4292.8532
  0
LINE
  8
0-2
  6
CONTINUOUS
 62
    3
 10
2560.6782
 20
4292.8532
 11
2559.1137
 21
4293.293
  0
LINE
  8
0-2
  6
CONTINUOUS
 62
    3
 10
2559.1137
 20
4293.293
 11
2557.5002
 21
4293.4411
  0
ARC
  8
0-2
  6
CONTINUOUS
 62
    3
 10
1647.4984
 20
3521.8831
 40
9.2919128
 50
270
 51
90
  0
ARC
  8
0-2
  6
CONTINUOUS
 62
    3
 10
2552.4987
 20
3521.8831
 40
9.2919128
 50
90
 51
270
  0
CIRCLE
  8
0-2
  6
CONTINUOUS
 62
    3
 10
2100.0018
 20
1687.807
 40
452.50006
  0
TEXT
  8
0-d
 10
509.9996
 20
314.99981
 40
50
 41
1
 50
0
  1
図
  0
TEXT
  8
0-d
 10
509.9996
 20
194.99995
 40
50
 41
1
 50
0
  1
番
  0
TEXT
  8
0-d
 10
1310.0009
 20
314.99981
 40
50
 41
1
 50
0
  1
承
  0
TEXT
  8
0-d
 10
1310.0009
 20
194.99995
 40
50
 41
1
 50
0
  1
認
  0
TEXT
  8
0-d
 10
2040.0006
 20
474.99995
 40
50
 41
1
 50
0
  1
尺
  0
TEXT
  8
0-d
 10
2040.0006
 20
394.99959
 40
50
 41
1
 50
0.0000762
  1
度
  0
TEXT
  8
0-d
 10
1710.0002
 20
314.99981
 40
50
 41
1
 50
0
  1
製
  0
TEXT
  8
0-d
 10
1710.0002
 20
194.99995
 40
50
 41
1
 50
0
  1
図
  0
TEXT
  8
0-d
 10
3110.0005
 20
474.99995
 40
50
 41
1
 50
0
  1
日
  0
TEXT
  8
0-d
 10
3110.0005
 20
394.99959
 40
50
 41
1
 50
0.0000762
  1
付
  0
TEXT
  8
0-d
 10
2222.8527
 20
326.96452
 40
40
 41
1
 50
0
  1
株式
  0
TEXT
  8
0-d
 10
2222.8527
 20
283.70362
 40
40
 41
1
 50
0.0000152
  1
会社
  0
TEXT
  8
0-d
 10
2348.4494
 20
286.49425
 40
80
 41
1
 50
0
  1
スズキベンチレーター
  0
TEXT
  8
0-d
 10
2475.8364
 20
188.04838
 40
40
 41
1
 50
0
  1
TEL(054)296-7000  FAX(054)296-7001
  0
TEXT
  8
0-8
 10
2010.1496
 20
4102.3765
 40
60
 41
1
 50
0
  1
915φ
  0
TEXT
  8
0-8
 10
945.13331
 20
4538.5647
 40
60
 41
1
 50
90
  1
780
  0
TEXT
  8
0-8
 10
2007.1963
 20
5268.5785
 40
60
 41
1
 50
0
  1
1,400
  0
TEXT
  8
0-8
 10
3223.3193
 20
4310.8156
 40
60
 41
1
 50
90
  1
290
  0
TEXT
  8
0-8
 10
3223.3193
 20
4652.8175
 40
60
 41
1
 50
90
  1
330
  0
TEXT
  8
0-8
 10
3223.3193
 20
4879.5665
 40
60
 41
1
 50
90
  1
160
  0
TEXT
  8
0-8
 10
3299.8685
 20
3433.2823
 40
60
 41
1
 50
90
  1
100
  0
TEXT
  8
0-8
 10
1996.7694
 20
1710.7223
 40
60
 41
1
 50
19.303741
  1
905φ
  0
TEXT
  8
0-8
 10
3265.338
 20
1639.1398
 40
60
 41
1
 50
90
  1
1,100
  0
TEXT
  8
0-8
 10
1985.8224
 20
2797.1554
 40
60
 41
1
 50
0
  1
1,100
  0
TEXT
  8
0-8
 10
3299.8685
 20
3184.4324
 40
60
 41
1
 50
90
  1
440
  0
TEXT
  8
0-8
 10
2024.8523
 20
3817.4302
 40
60
 41
1
 50
0
  1
905φ
  0
TEXT
  8
0-8
 10
3246.7243
 20
963.43279
 40
60
 41
1
 50
90
  1
260
  0
TEXT
  8
0-8
 10
3246.7243
 20
2323.4323
 40
60
 41
1
 50
90
  1
260
  0
TEXT
  8
0-8
 10
957.52127
 20
1581.7347
 40
60
 41
1
 50
90
  1
≒ 1,620
  0
TEXT
  8
0-d
 10
616.9186
 20
280.60428
 40
60
 41
1
 50
0
  1
90-F01
  0
TEXT
  8
0-d
 10
538.31055
 20
5572.2253
 40
100
 41
1
 50
0
  1
ＳＴ－９０　直付型立面、直付袴立面・平面
  0
TEXT
  8
0-d
 10
531.73645
 20
425.32925
 40
60
 41
1
 50
0
  1
ＳＴ－９０　直付型立面、直付袴立面・平面
  0
TEXT
  8
0-d
 10
2471.3588
 20
237.29187
 40
40
 41
1
 50
0
  1
〒421-2114　静岡市葵区安倍口新田１５２番地
  0
TEXT
  8
0-d
 10
2168.698
 20
420.20133
 40
80
 41
1
 50
0
  1
１／２０
  0
POINT
  8
0-8
 62
    2
 10
1013.2751
 20
4228.4404
  0
POINT
  8
0-8
 62
    2
 10
1013.2751
 20
5008.441
  0
POINT
  8
0-8
 62
    2
 10
1400.0022
 20
5247.6817
  0
POINT
  8
0-8
 62
    2
 10
2799.9997
 20
5247.6817
  0
POINT
  8
0-8
 62
    2
 10
1642.5001
 20
4046.6248
  0
POINT
  8
0-8
 62
    2
 10
2557.5002
 20
4046.6248
  0
POINT
  8
0-8
 62
    2
 10
3238.3193
 20
4228.4414
  0
POINT
  8
0-8
 62
    2
 10
3238.3193
 20
4518.4409
  0
POINT
  8
0-8
 62
    2
 10
3238.3193
 20
4848.441
  0
POINT
  8
0-8
 62
    2
 10
3238.3193
 20
5008.441
  0
POINT
  8
0-8
 62
    2
 10
3186.7266
 20
3009.7591
  0
POINT
  8
0-8
 62
    2
 10
3186.7266
 20
3449.7594
  0
POINT
  8
0-8
 62
    2
 10
3186.7266
 20
3549.7595
  0
POINT
  8
0-8
 62
    2
 10
1013.2734
 20
877.80729
  0
POINT
  8
0-8
 62
    2
 10
1013.2734
 20
2497.8069
  0
POINT
  8
0-8
 62
    2
 10
3186.7241
 20
1137.8081
  0
POINT
  8
0-8
 62
    2
 10
3186.7241
 20
2237.8077
  0
POINT
  8
0-8
 62
    2
 10
2650.0017
 20
2741.4027
  0
POINT
  8
0-8
 62
    2
 10
1550.0018
 20
2741.4027
  0
POINT
  8
0-8
 62
    2
 10
1672.9381
 20
1538.2213
  0
POINT
  8
0-8
 62
    2
 10
2527.0587
 20
1837.392
  0
POINT
  8
0-8
 62
    2
 10
2552.5017
 20
3761.6781
  0
POINT
  8
0-8
 62
    2
 10
1647.5016
 20
3761.6781
  0
POINT
  8
0-8
 62
    2
 10
3186.7241
 20
877.80729
  0
POINT
  8
0-8
 62
    2
 10
3186.7241
 20
2497.8069
  0
ENDSEC
  0
EOF
