  0
SECTION
  2
HEADER
  9
$EXTMIN
 10
0
 20
0
  9
$EXTMAX
 10
4200
 20
2970
  0
ENDSEC
  0
SECTION
  2
TABLES
  0
TABLE
  2
LTYPE
 70
     9
  0
LTYPE
  2
CONTINUOUS
 70
    64
  3
実線
 72
    65
 73
     0
 40
0.0
  0
LTYPE
  2
DASHED1
 70
    64
  3
--  --  --  --  --  --  --  --  
 72
    65
 73
     2
 40
2.5
 49
1.25
 49
-1.25
  0
LTYPE
  2
DASHED2
 70
    64
  3
----    ----    ----    ----    
 72
    65
 73
     2
 40
5.0
 49
2.5
 49
-2.5
  0
LTYPE
  2
DASHED3
 70
    64
  3
------  ------  ------  ------  
 72
    65
 73
     2
 40
5.0
 49
3.75
 49
-1.25
  0
LTYPE
  2
CENTER1
 70
    64
  3
----- - ----- - ----- - ----- - 
 72
    65
 73
     4
 40
10.0
 49
6.25
 49
-1.25
 49
1.25
 49
-1.25
  0
LTYPE
  2
CENTER2
 70
    64
  3
----------  --  ----------  --  
 72
    65
 73
     4
 40
20.0
 49
12.5
 49
-2.5
 49
2.5
 49
-2.5
  0
LTYPE
  2
PHANTOM1
 70
    64
  3
--- - - --- - - --- - - --- - - 
 72
    65
 73
     6
 40
10.0
 49
3.25
 49
-1.25
 49
1.25
 49
-1.25
 49
1.25
 49
-1.25
  0
LTYPE
  2
PHANTOM2
 70
    64
  3
--------  -  -  --------  -  -  
 72
    65
 73
     6
 40
20.0
 49
10.0
 49
-2.5
 49
1.25
 49
-2.5
 49
1.25
 49
-2.5
  0
LTYPE
  2
DOT
 70
    64
  3
-   -   -   -   -   -   -   -   
 72
    65
 73
     2
 40
2.5
 49
0.625
 49
-1.875
  0
ENDTAB
  0
TABLE
  2
STYLE
 70
    1
  0
STYLE
  2
STANDARD
 70
    64
 40
0.0
 41
1.0
 42
0.0
 50
0.0
 71
     0
  3
TXT
  4
BIGFONT
  0
ENDTAB
  0
TABLE
  2
LAYER
 70
    7
  0
LAYER
  2
1-0
 70
   64
 62
    7
  6
CONTINUOUS
  0
LAYER
  2
1-1
 70
   64
 62
    7
  6
CONTINUOUS
  0
LAYER
  2
1-2
 70
   64
 62
    7
  6
CONTINUOUS
  0
LAYER
  2
1-4
 70
   64
 62
    7
  6
CONTINUOUS
  0
LAYER
  2
1-8
 70
   64
 62
    7
  6
CONTINUOUS
  0
LAYER
  2
1-d
 70
   64
 62
    7
  6
CONTINUOUS
  0
LAYER
  2
ADD_LINE
 70
   64
 62
    7
  6
CONTINUOUS
  0
ENDTAB
  0
ENDSEC
  0
SECTION
  2
ENTITIES
  0
LINE
  8
1-d
  6
CONTINUOUS
 62
    7
 10
250.00006
 20
2757.7013
 11
1850.0001
 21
2757.7013
  0
LINE
  8
1-d
  6
CONTINUOUS
 62
    7
 10
250.00006
 20
2767.7016
 11
1850.0001
 21
2767.7016
  0
LINE
  8
1-d
  6
CONTINUOUS
 62
    7
 10
249.99969
 20
189.99989
 11
1850.0005
 21
189.99989
  0
LINE
  8
1-d
  6
CONTINUOUS
 62
    7
 10
249.99969
 20
89.999806
 11
249.99969
 21
269.99991
  0
LINE
  8
1-d
  6
CONTINUOUS
 62
    7
 10
249.99969
 20
89.999806
 11
1850.0005
 21
89.999806
  0
LINE
  8
1-d
  6
CONTINUOUS
 62
    7
 10
1850.0005
 20
269.99991
 11
1850.0005
 21
89.999806
  0
LINE
  8
1-d
  6
CONTINUOUS
 62
    7
 10
249.99969
 20
269.99991
 11
1850.0005
 21
269.99991
  0
LINE
  8
1-d
  6
CONTINUOUS
 62
    7
 10
1050
 20
269.99991
 11
1050
 21
89.999806
  0
LINE
  8
1-d
  6
CONTINUOUS
 62
    7
 10
650.00019
 20
89.999806
 11
650.00019
 21
189.99989
  0
LINE
  8
1-d
  6
CONTINUOUS
 62
    7
 10
1050
 20
189.99989
 11
1050
 21
269.99991
  0
LINE
  8
1-d
  6
CONTINUOUS
 62
    7
 10
849.99981
 20
89.999806
 11
849.99981
 21
189.99989
  0
LINE
  8
1-d
  6
CONTINUOUS
 62
    7
 10
285.00002
 20
89.999806
 11
285.00002
 21
189.99989
  0
LINE
  8
1-d
  6
CONTINUOUS
 62
    7
 10
685.00006
 20
89.999806
 11
685.00006
 21
189.99989
  0
LINE
  8
1-d
  6
CONTINUOUS
 62
    7
 10
885.00018
 20
89.999806
 11
885.00018
 21
189.99989
  0
LINE
  8
1-d
  6
CONTINUOUS
 62
    7
 10
1015
 20
189.99989
 11
1015
 21
269.99991
  0
LINE
  8
1-d
  6
CONTINUOUS
 62
    7
 10
1550.0004
 20
189.99989
 11
1550.0004
 21
269.99991
  0
LINE
  8
1-d
  6
CONTINUOUS
 62
    7
 10
1585.0002
 20
189.99989
 11
1585.0002
 21
269.99991
  0
LINE
  8
1-8
  6
CONTINUOUS
 62
    7
 10
583.33365
 20
1840.0427
 11
583.33365
 21
2300.0428
  0
LINE
  8
1-8
  6
CONTINUOUS
 62
    7
 10
672.66673
 20
2403.0631
 11
1427.3344
 21
2403.0626
  0
LINE
  8
1-2
  6
CONTINUOUS
 62
    3
 10
1068.2561
 20
2068.0736
 11
1073.0608
 21
2071.0263
  0
LINE
  8
1-2
  6
CONTINUOUS
 62
    3
 10
1073.0608
 20
2071.0263
 11
1077.8427
 21
2074.0384
  0
LINE
  8
1-2
  6
CONTINUOUS
 62
    3
 10
1077.8427
 20
2074.0384
 11
1082.5794
 21
2077.1626
  0
LINE
  8
1-2
  6
CONTINUOUS
 62
    3
 10
1082.5794
 20
2077.1626
 11
1087.2182
 21
2080.4607
  0
LINE
  8
1-2
  6
CONTINUOUS
 62
    3
 10
1087.2182
 20
2080.4607
 11
1091.6743
 21
2083.9989
  0
LINE
  8
1-2
  6
CONTINUOUS
 62
    3
 10
1091.6743
 20
2083.9989
 11
1095.8543
 21
2087.8352
  0
LINE
  8
1-2
  6
CONTINUOUS
 62
    3
 10
1095.8543
 20
2087.8352
 11
1099.667
 21
2092.0377
  0
LINE
  8
1-2
  6
CONTINUOUS
 62
    3
 10
1099.667
 20
2092.0377
 11
1103.0209
 21
2096.6653
  0
LINE
  8
1-2
  6
CONTINUOUS
 62
    3
 10
1103.0209
 20
2096.6653
 11
1105.9459
 21
2101.6713
  0
LINE
  8
1-2
  6
CONTINUOUS
 62
    3
 10
1105.9459
 20
2101.6713
 11
1108.7098
 21
2106.7831
  0
LINE
  8
1-2
  6
CONTINUOUS
 62
    3
 10
1108.7098
 20
2106.7831
 11
1111.5931
 21
2111.7124
  0
LINE
  8
1-2
  6
CONTINUOUS
 62
    3
 10
1111.5931
 20
2111.7124
 11
1114.8918
 21
2116.1707
  0
LINE
  8
1-2
  6
CONTINUOUS
 62
    3
 10
1114.8918
 20
2116.1707
 11
1118.8847
 21
2119.867
  0
LINE
  8
1-2
  6
CONTINUOUS
 62
    3
 10
1118.8847
 20
2119.867
 11
1123.6601
 21
2122.7249
  0
LINE
  8
1-2
  6
CONTINUOUS
 62
    3
 10
1123.6601
 20
2122.7249
 11
1128.9269
 21
2125.06
  0
LINE
  8
1-2
  6
CONTINUOUS
 62
    3
 10
1128.9269
 20
2125.06
 11
1131.4203
 21
2126.0562
  0
LINE
  8
1-2
  6
CONTINUOUS
 62
    3
 10
1128.9269
 20
2125.06
 11
1132.3952
 21
2125.6113
  0
LINE
  8
1-2
  6
CONTINUOUS
 62
    3
 10
1132.3952
 20
2125.6113
 11
1135.8948
 21
2126.0906
  0
LINE
  8
1-2
  6
CONTINUOUS
 62
    3
 10
1135.8948
 20
2126.0906
 11
1139.452
 21
2126.4341
  0
LINE
  8
1-2
  6
CONTINUOUS
 62
    3
 10
1139.452
 20
2126.4341
 11
1143.0965
 21
2126.564
  0
LINE
  8
1-2
  6
CONTINUOUS
 62
    3
 10
1143.0965
 20
2126.564
 11
1146.8522
 21
2126.4165
  0
LINE
  8
1-2
  6
CONTINUOUS
 62
    3
 10
1146.8522
 20
2126.4165
 11
1150.6098
 21
2125.8691
  0
LINE
  8
1-2
  6
CONTINUOUS
 62
    3
 10
1150.6098
 20
2125.8691
 11
1154.1155
 21
2124.7713
  0
LINE
  8
1-2
  6
CONTINUOUS
 62
    3
 10
1154.1155
 20
2124.7713
 11
1157.1033
 21
2122.9513
  0
LINE
  8
1-2
  6
CONTINUOUS
 62
    3
 10
1157.1033
 20
2122.9513
 11
1159.3588
 21
2120.2914
  0
LINE
  8
1-2
  6
CONTINUOUS
 62
    3
 10
1159.3588
 20
2120.2914
 11
1161.1171
 21
2117.0979
  0
LINE
  8
1-2
  6
CONTINUOUS
 62
    3
 10
1066.3699
 20
2054.8757
 11
1072.0001
 21
2055.7118
  0
LINE
  8
1-2
  6
CONTINUOUS
 62
    3
 10
1072.0001
 20
2055.7118
 11
1077.5959
 21
2056.6578
  0
LINE
  8
1-2
  6
CONTINUOUS
 62
    3
 10
1077.5959
 20
2056.6578
 11
1083.13
 21
2057.8138
  0
LINE
  8
1-2
  6
CONTINUOUS
 62
    3
 10
1083.13
 20
2057.8138
 11
1088.5647
 21
2059.2927
  0
LINE
  8
1-2
  6
CONTINUOUS
 62
    3
 10
1088.5647
 20
2059.2927
 11
1093.872
 21
2061.1968
  0
LINE
  8
1-2
  6
CONTINUOUS
 62
    3
 10
1093.872
 20
2061.1968
 11
1099.0218
 21
2063.5517
  0
LINE
  8
1-2
  6
CONTINUOUS
 62
    3
 10
1099.0218
 20
2063.5517
 11
1103.9922
 21
2066.3124
  0
LINE
  8
1-2
  6
CONTINUOUS
 62
    3
 10
1103.9922
 20
2066.3124
 11
1108.7561
 21
2069.4467
  0
LINE
  8
1-2
  6
CONTINUOUS
 62
    3
 10
1108.7561
 20
2069.4467
 11
1113.2909
 21
2072.899
  0
LINE
  8
1-2
  6
CONTINUOUS
 62
    3
 10
1113.2909
 20
2072.899
 11
1117.5746
 21
2076.636
  0
LINE
  8
1-2
  6
CONTINUOUS
 62
    3
 10
1117.5746
 20
2076.636
 11
1121.6405
 21
2080.5896
  0
LINE
  8
1-2
  6
CONTINUOUS
 62
    3
 10
1121.6405
 20
2080.5896
 11
1125.5701
 21
2084.6707
  0
LINE
  8
1-2
  6
CONTINUOUS
 62
    3
 10
1125.5701
 20
2084.6707
 11
1129.45
 21
2088.7883
  0
LINE
  8
1-2
  6
CONTINUOUS
 62
    3
 10
1129.45
 20
2088.7883
 11
1133.3622
 21
2092.8518
  0
LINE
  8
1-2
  6
CONTINUOUS
 62
    3
 10
1133.3622
 20
2092.8518
 11
1137.3962
 21
2096.7722
  0
LINE
  8
1-2
  6
CONTINUOUS
 62
    3
 10
1137.3962
 20
2096.7722
 11
1141.6292
 21
2100.4719
  0
LINE
  8
1-2
  6
CONTINUOUS
 62
    3
 10
1141.6292
 20
2100.4719
 11
1146.0554
 21
2103.948
  0
LINE
  8
1-2
  6
CONTINUOUS
 62
    3
 10
1146.0554
 20
2103.948
 11
1150.6392
 21
2107.2535
  0
LINE
  8
1-2
  6
CONTINUOUS
 62
    3
 10
1150.6392
 20
2107.2535
 11
1155.3324
 21
2110.4304
  0
LINE
  8
1-2
  6
CONTINUOUS
 62
    3
 10
1155.3324
 20
2110.4304
 11
1160.0996
 21
2113.5276
  0
LINE
  8
1-2
  6
CONTINUOUS
 62
    3
 10
1160.0996
 20
2113.5276
 11
1163.4744
 21
2115.6843
  0
LINE
  8
1-2
  6
CONTINUOUS
 62
    3
 10
1163.4744
 20
2115.6843
 11
1168.7407
 21
2117.8689
  0
LINE
  8
1-2
  6
CONTINUOUS
 62
    3
 10
1168.7407
 20
2117.8689
 11
1174.0369
 21
2119.9083
  0
LINE
  8
1-2
  6
CONTINUOUS
 62
    3
 10
1174.0369
 20
2119.9083
 11
1179.3961
 21
2121.659
  0
LINE
  8
1-2
  6
CONTINUOUS
 62
    3
 10
1179.3961
 20
2121.659
 11
1184.8488
 21
2122.9783
  0
LINE
  8
1-2
  6
CONTINUOUS
 62
    3
 10
1184.8488
 20
2122.9783
 11
1190.4085
 21
2123.7867
  0
LINE
  8
1-2
  6
CONTINUOUS
 62
    3
 10
1190.4085
 20
2123.7867
 11
1196.0481
 21
2124.1415
  0
LINE
  8
1-2
  6
CONTINUOUS
 62
    3
 10
1196.0481
 20
2124.1415
 11
1201.7351
 21
2124.1207
  0
LINE
  8
1-2
  6
CONTINUOUS
 62
    3
 10
1201.7351
 20
2124.1207
 11
1207.4388
 21
2123.8006
  0
LINE
  8
1-2
  6
CONTINUOUS
 62
    3
 10
1207.4388
 20
2123.8006
 11
1213.1324
 21
2123.2604
  0
LINE
  8
1-2
  6
CONTINUOUS
 62
    3
 10
1213.1324
 20
2123.2604
 11
1218.7821
 21
2122.5656
  0
LINE
  8
1-2
  6
CONTINUOUS
 62
    3
 10
1218.7821
 20
2122.5656
 11
1224.3825
 21
2121.7015
  0
LINE
  8
1-2
  6
CONTINUOUS
 62
    3
 10
1224.3825
 20
2121.7015
 11
1229.9347
 21
2120.6494
  0
LINE
  8
1-2
  6
CONTINUOUS
 62
    3
 10
1229.9347
 20
2120.6494
 11
1235.4312
 21
2119.3734
  0
LINE
  8
1-2
  6
CONTINUOUS
 62
    3
 10
1235.4312
 20
2119.3734
 11
1240.875
 21
2117.8511
  0
LINE
  8
1-2
  6
CONTINUOUS
 62
    3
 10
1240.875
 20
2117.8511
 11
1246.2637
 21
2116.0493
  0
LINE
  8
1-2
  6
CONTINUOUS
 62
    3
 10
1246.2637
 20
2116.0493
 11
1251.5761
 21
2113.9416
  0
LINE
  8
1-2
  6
CONTINUOUS
 62
    3
 10
1251.5761
 20
2113.9416
 11
1256.7621
 21
2111.5053
  0
LINE
  8
1-2
  6
CONTINUOUS
 62
    3
 10
1256.7621
 20
2111.5053
 11
1261.7464
 21
2108.7245
  0
LINE
  8
1-2
  6
CONTINUOUS
 62
    3
 10
1261.7464
 20
2108.7245
 11
1266.4641
 21
2105.5741
  0
LINE
  8
1-2
  6
CONTINUOUS
 62
    3
 10
1266.4641
 20
2105.5741
 11
1270.8467
 21
2102.0305
  0
LINE
  8
1-2
  6
CONTINUOUS
 62
    3
 10
1270.8467
 20
2102.0305
 11
1274.8336
 21
2098.0836
  0
LINE
  8
1-2
  6
CONTINUOUS
 62
    3
 10
1274.8336
 20
2098.0836
 11
1278.476
 21
2093.791
  0
LINE
  8
1-2
  6
CONTINUOUS
 62
    3
 10
1278.476
 20
2093.791
 11
1281.865
 21
2089.2481
  0
LINE
  8
1-2
  6
CONTINUOUS
 62
    3
 10
1281.865
 20
2089.2481
 11
1285.0963
 21
2084.5512
  0
LINE
  8
1-2
  6
CONTINUOUS
 62
    3
 10
1285.0963
 20
2084.5512
 11
1286.974
 21
2081.7457
  0
LINE
  8
1-2
  6
CONTINUOUS
 62
    3
 10
1285.0963
 20
2084.5512
 11
1287.6227
 21
2079.3193
  0
LINE
  8
1-2
  6
CONTINUOUS
 62
    3
 10
1287.6227
 20
2079.3193
 11
1290.0149
 21
2074.0639
  0
LINE
  8
1-2
  6
CONTINUOUS
 62
    3
 10
1290.0149
 20
2074.0639
 11
1292.1429
 21
2068.7719
  0
LINE
  8
1-2
  6
CONTINUOUS
 62
    3
 10
1292.1429
 20
2068.7719
 11
1293.8715
 21
2063.4141
  0
LINE
  8
1-2
  6
CONTINUOUS
 62
    3
 10
1293.8715
 20
2063.4141
 11
1295.0691
 21
2057.9761
  0
LINE
  8
1-2
  6
CONTINUOUS
 62
    3
 10
1295.0691
 20
2057.9761
 11
1295.6075
 21
2052.4359
  0
LINE
  8
1-2
  6
CONTINUOUS
 62
    3
 10
1295.6075
 20
2052.4359
 11
1295.4531
 21
2046.8161
  0
LINE
  8
1-2
  6
CONTINUOUS
 62
    3
 10
1295.4531
 20
2046.8161
 11
1294.6997
 21
2041.1715
  0
LINE
  8
1-2
  6
CONTINUOUS
 62
    3
 10
1294.6997
 20
2041.1715
 11
1293.4447
 21
2035.5675
  0
LINE
  8
1-2
  6
CONTINUOUS
 62
    3
 10
1293.4447
 20
2035.5675
 11
1291.774
 21
2030.0684
  0
LINE
  8
1-2
  6
CONTINUOUS
 62
    3
 10
1291.774
 20
2030.0684
 11
1289.7155
 21
2024.7499
  0
LINE
  8
1-2
  6
CONTINUOUS
 62
    3
 10
1289.7155
 20
2024.7499
 11
1287.2136
 21
2019.6868
  0
LINE
  8
1-2
  6
CONTINUOUS
 62
    3
 10
1287.2136
 20
2019.6868
 11
1284.2081
 21
2014.9582
  0
LINE
  8
1-2
  6
CONTINUOUS
 62
    3
 10
1284.2081
 20
2014.9582
 11
1280.7059
 21
2010.5914
  0
LINE
  8
1-2
  6
CONTINUOUS
 62
    3
 10
1280.7059
 20
2010.5914
 11
1276.8126
 21
2006.5059
  0
LINE
  8
1-2
  6
CONTINUOUS
 62
    3
 10
1276.8126
 20
2006.5059
 11
1272.6512
 21
2002.6169
  0
LINE
  8
1-2
  6
CONTINUOUS
 62
    3
 10
1272.6512
 20
2002.6169
 11
1268.3378
 21
1998.841
  0
LINE
  8
1-2
  6
CONTINUOUS
 62
    3
 10
1268.3378
 20
1998.841
 11
1267.175
 21
1997.8416
  0
LINE
  8
1-2
  6
CONTINUOUS
 62
    3
 10
1268.3378
 20
1998.841
 11
1263.3875
 21
1996.0657
  0
LINE
  8
1-2
  6
CONTINUOUS
 62
    3
 10
1263.3875
 20
1996.0657
 11
1258.4183
 21
1993.3414
  0
LINE
  8
1-2
  6
CONTINUOUS
 62
    3
 10
1258.4183
 20
1993.3414
 11
1253.4078
 21
1990.7165
  0
LINE
  8
1-2
  6
CONTINUOUS
 62
    3
 10
1253.4078
 20
1990.7165
 11
1248.3287
 21
1988.2406
  0
LINE
  8
1-2
  6
CONTINUOUS
 62
    3
 10
1248.3287
 20
1988.2406
 11
1243.1682
 21
1985.9622
  0
LINE
  8
1-2
  6
CONTINUOUS
 62
    3
 10
1243.1682
 20
1985.9622
 11
1237.8976
 21
1983.9305
  0
LINE
  8
1-2
  6
CONTINUOUS
 62
    3
 10
1237.8976
 20
1983.9305
 11
1232.5158
 21
1982.1747
  0
LINE
  8
1-2
  6
CONTINUOUS
 62
    3
 10
1232.5158
 20
1982.1747
 11
1227.0449
 21
1980.7009
  0
LINE
  8
1-2
  6
CONTINUOUS
 62
    3
 10
1227.0449
 20
1980.7009
 11
1221.5057
 21
1979.5072
  0
LINE
  8
1-2
  6
CONTINUOUS
 62
    3
 10
1221.5057
 20
1979.5072
 11
1215.9158
 21
1978.5939
  0
LINE
  8
1-2
  6
CONTINUOUS
 62
    3
 10
1215.9158
 20
1978.5939
 11
1210.3014
 21
1977.9551
  0
LINE
  8
1-2
  6
CONTINUOUS
 62
    3
 10
1210.3014
 20
1977.9551
 11
1204.6686
 21
1977.5416
  0
LINE
  8
1-2
  6
CONTINUOUS
 62
    3
 10
1204.6686
 20
1977.5416
 11
1199.0211
 21
1977.3003
  0
LINE
  8
1-2
  6
CONTINUOUS
 62
    3
 10
1199.0211
 20
1977.3003
 11
1193.3611
 21
1977.1694
  0
LINE
  8
1-2
  6
CONTINUOUS
 62
    3
 10
1193.3611
 20
1977.1694
 11
1188.455
 21
1977.1004
  0
LINE
  8
1-2
  6
CONTINUOUS
 62
    3
 10
1125.2123
 20
1976.5805
 11
1130.5059
 21
1974.4379
  0
LINE
  8
1-2
  6
CONTINUOUS
 62
    3
 10
1130.5059
 20
1974.4379
 11
1135.8304
 21
1972.3199
  0
LINE
  8
1-2
  6
CONTINUOUS
 62
    3
 10
1135.8304
 20
1972.3199
 11
1141.2048
 21
1970.3681
  0
LINE
  8
1-2
  6
CONTINUOUS
 62
    3
 10
1141.2048
 20
1970.3681
 11
1146.6307
 21
1968.7406
  0
LINE
  8
1-2
  6
CONTINUOUS
 62
    3
 10
1146.6307
 20
1968.7406
 11
1152.1231
 21
1967.5928
  0
LINE
  8
1-2
  6
CONTINUOUS
 62
    3
 10
1152.1231
 20
1967.5928
 11
1157.6935
 21
1967.0788
  0
LINE
  8
1-2
  6
CONTINUOUS
 62
    3
 10
1157.6935
 20
1967.0788
 11
1163.3289
 21
1967.1593
  0
LINE
  8
1-2
  6
CONTINUOUS
 62
    3
 10
1163.3289
 20
1967.1593
 11
1169.0054
 21
1967.5779
  0
LINE
  8
1-2
  6
CONTINUOUS
 62
    3
 10
1169.0054
 20
1967.5779
 11
1170.0719
 21
1967.672
  0
LINE
  8
1-2
  6
CONTINUOUS
 62
    3
 10
1169.0054
 20
1967.5779
 11
1173.6469
 21
1968.6132
  0
LINE
  8
1-2
  6
CONTINUOUS
 62
    3
 10
1173.6469
 20
1968.6132
 11
1178.102
 21
1970.0454
  0
LINE
  8
1-2
  6
CONTINUOUS
 62
    3
 10
1178.102
 20
1970.0454
 11
1182.1895
 21
1972.2758
  0
LINE
  8
1-2
  6
CONTINUOUS
 62
    3
 10
1182.1895
 20
1972.2758
 11
1185.6742
 21
1975.4757
  0
LINE
  8
1-2
  6
CONTINUOUS
 62
    3
 10
1185.6742
 20
1975.4757
 11
1188.258
 21
1979.4865
  0
LINE
  8
1-2
  6
CONTINUOUS
 62
    3
 10
1188.258
 20
1979.4865
 11
1189.6653
 21
1984.0728
  0
LINE
  8
1-2
  6
CONTINUOUS
 62
    3
 10
1189.6653
 20
1984.0728
 11
1189.7691
 21
1988.8159
  0
LINE
  8
1-2
  6
CONTINUOUS
 62
    3
 10
1189.7691
 20
1988.8159
 11
1188.5139
 21
1993.26
  0
LINE
  8
1-2
  6
CONTINUOUS
 62
    3
 10
1188.5139
 20
1993.26
 11
1186.1684
 21
1997.3029
  0
LINE
  8
1-2
  6
CONTINUOUS
 62
    3
 10
1186.1684
 20
1997.3029
 11
1183.2709
 21
2001.1404
  0
LINE
  8
1-2
  6
CONTINUOUS
 62
    3
 10
1074.5147
 20
2047.5594
 11
1080.2193
 21
2046.5882
  0
LINE
  8
1-2
  6
CONTINUOUS
 62
    3
 10
1080.2193
 20
2046.5882
 11
1085.9053
 21
2045.7813
  0
LINE
  8
1-2
  6
CONTINUOUS
 62
    3
 10
1085.9053
 20
2045.7813
 11
1091.5495
 21
2045.3017
  0
LINE
  8
1-2
  6
CONTINUOUS
 62
    3
 10
1091.5495
 20
2045.3017
 11
1097.1326
 21
2045.3104
  0
LINE
  8
1-2
  6
CONTINUOUS
 62
    3
 10
1097.1326
 20
2045.3104
 11
1102.6342
 21
2045.9674
  0
LINE
  8
1-2
  6
CONTINUOUS
 62
    3
 10
1102.6342
 20
2045.9674
 11
1108.0547
 21
2047.3016
  0
LINE
  8
1-2
  6
CONTINUOUS
 62
    3
 10
1108.0547
 20
2047.3016
 11
1113.4062
 21
2049.1329
  0
LINE
  8
1-2
  6
CONTINUOUS
 62
    3
 10
1113.4062
 20
2049.1329
 11
1118.7143
 21
2051.2806
  0
LINE
  8
1-2
  6
CONTINUOUS
 62
    3
 10
1118.7143
 20
2051.2806
 11
1123.9895
 21
2053.5504
  0
LINE
  8
1-2
  6
CONTINUOUS
 62
    3
 10
1123.9895
 20
2053.5504
 11
1129.2587
 21
2055.7791
  0
LINE
  8
1-2
  6
CONTINUOUS
 62
    3
 10
1129.2587
 20
2055.7791
 11
1134.5225
 21
2057.9239
  0
LINE
  8
1-2
  6
CONTINUOUS
 62
    3
 10
1134.5225
 20
2057.9239
 11
1139.786
 21
2060.0051
  0
LINE
  8
1-2
  6
CONTINUOUS
 62
    3
 10
1139.786
 20
2060.0051
 11
1145.0436
 21
2062.0341
  0
LINE
  8
1-2
  6
CONTINUOUS
 62
    3
 10
1145.0436
 20
2062.0341
 11
1150.3012
 21
2064.0255
  0
LINE
  8
1-2
  6
CONTINUOUS
 62
    3
 10
1150.3012
 20
2064.0255
 11
1155.5602
 21
2065.9991
  0
LINE
  8
1-2
  6
CONTINUOUS
 62
    3
 10
1155.5602
 20
2065.9991
 11
1155.4868
 21
2061.1557
  0
LINE
  8
1-2
  6
CONTINUOUS
 62
    3
 10
1155.4868
 20
2061.1557
 11
1155.4172
 21
2056.3178
  0
LINE
  8
1-2
  6
CONTINUOUS
 62
    3
 10
1155.4172
 20
2056.3178
 11
1155.3474
 21
2051.4739
  0
LINE
  8
1-2
  6
CONTINUOUS
 62
    3
 10
1155.3474
 20
2051.4739
 11
1155.2745
 21
2046.635
  0
LINE
  8
1-2
  6
CONTINUOUS
 62
    3
 10
1155.2745
 20
2046.635
 11
1155.2054
 21
2041.7968
  0
LINE
  8
1-2
  6
CONTINUOUS
 62
    3
 10
1155.2054
 20
2041.7968
 11
1155.1352
 21
2036.9531
  0
LINE
  8
1-2
  6
CONTINUOUS
 62
    3
 10
1155.1352
 20
2036.9531
 11
1155.0623
 21
2032.1152
  0
LINE
  8
1-2
  6
CONTINUOUS
 62
    3
 10
1155.0623
 20
2032.1152
 11
1154.9929
 21
2027.272
  0
LINE
  8
1-2
  6
CONTINUOUS
 62
    3
 10
1154.9929
 20
2027.272
 11
1154.9207
 21
2022.4324
  0
LINE
  8
1-2
  6
CONTINUOUS
 62
    3
 10
1154.9207
 20
2022.4324
 11
1154.8504
 21
2017.5905
  0
LINE
  8
1-2
  6
CONTINUOUS
 62
    3
 10
1183.2709
 20
2001.1404
 11
1182.1135
 21
2002.1606
  0
LINE
  8
1-2
  6
CONTINUOUS
 62
    3
 10
1182.1135
 20
2002.1606
 11
1180.45
 21
2003.3943
  0
LINE
  8
1-2
  6
CONTINUOUS
 62
    3
 10
1180.45
 20
2003.3943
 11
1178.3466
 21
2004.8057
  0
LINE
  8
1-2
  6
CONTINUOUS
 62
    3
 10
1178.3466
 20
2004.8057
 11
1175.8597
 21
2006.3607
  0
LINE
  8
1-2
  6
CONTINUOUS
 62
    3
 10
1175.8597
 20
2006.3607
 11
1173.0245
 21
2008.0282
  0
LINE
  8
1-2
  6
CONTINUOUS
 62
    3
 10
1173.0245
 20
2008.0282
 11
1169.8918
 21
2009.787
  0
LINE
  8
1-2
  6
CONTINUOUS
 62
    3
 10
1169.8918
 20
2009.787
 11
1166.4915
 21
2011.615
  0
LINE
  8
1-2
  6
CONTINUOUS
 62
    3
 10
1166.4915
 20
2011.615
 11
1162.8491
 21
2013.4924
  0
LINE
  8
1-2
  6
CONTINUOUS
 62
    3
 10
1162.8491
 20
2013.4924
 11
1158.9977
 21
2015.4048
  0
LINE
  8
1-2
  6
CONTINUOUS
 62
    3
 10
1158.9977
 20
2015.4048
 11
1154.9583
 21
2017.3381
  0
LINE
  8
1-2
  6
CONTINUOUS
 62
    3
 10
1154.9583
 20
2017.3381
 11
1150.7456
 21
2019.2795
  0
LINE
  8
1-2
  6
CONTINUOUS
 62
    3
 10
1150.7456
 20
2019.2795
 11
1146.3862
 21
2021.2234
  0
LINE
  8
1-2
  6
CONTINUOUS
 62
    3
 10
1146.3862
 20
2021.2234
 11
1141.8922
 21
2023.1569
  0
LINE
  8
1-2
  6
CONTINUOUS
 62
    3
 10
1141.8922
 20
2023.1569
 11
1137.2861
 21
2025.075
  0
LINE
  8
1-2
  6
CONTINUOUS
 62
    3
 10
1137.2861
 20
2025.075
 11
1132.5803
 21
2026.9734
  0
LINE
  8
1-2
  6
CONTINUOUS
 62
    3
 10
1132.5803
 20
2026.9734
 11
1127.7934
 21
2028.8425
  0
LINE
  8
1-2
  6
CONTINUOUS
 62
    3
 10
1127.7934
 20
2028.8425
 11
1122.9427
 21
2030.681
  0
LINE
  8
1-2
  6
CONTINUOUS
 62
    3
 10
1122.9427
 20
2030.681
 11
1118.0479
 21
2032.4844
  0
LINE
  8
1-2
  6
CONTINUOUS
 62
    3
 10
1118.0479
 20
2032.4844
 11
1113.1298
 21
2034.2518
  0
LINE
  8
1-2
  6
CONTINUOUS
 62
    3
 10
1113.1298
 20
2034.2518
 11
1108.2066
 21
2035.9718
  0
LINE
  8
1-2
  6
CONTINUOUS
 62
    3
 10
1108.2066
 20
2035.9718
 11
1103.298
 21
2037.645
  0
LINE
  8
1-2
  6
CONTINUOUS
 62
    3
 10
1103.298
 20
2037.645
 11
1098.4284
 21
2039.2711
  0
LINE
  8
1-2
  6
CONTINUOUS
 62
    3
 10
1098.4284
 20
2039.2711
 11
1093.6244
 21
2040.8397
  0
LINE
  8
1-2
  6
CONTINUOUS
 62
    3
 10
1093.6244
 20
2040.8397
 11
1088.9037
 21
2042.351
  0
LINE
  8
1-2
  6
CONTINUOUS
 62
    3
 10
1088.9037
 20
2042.351
 11
1084.2975
 21
2043.799
  0
LINE
  8
1-2
  6
CONTINUOUS
 62
    3
 10
1084.2975
 20
2043.799
 11
1079.8296
 21
2045.176
  0
LINE
  8
1-2
  6
CONTINUOUS
 62
    3
 10
1079.8296
 20
2045.176
 11
1075.5253
 21
2046.4781
  0
LINE
  8
1-2
  6
CONTINUOUS
 62
    3
 10
1075.5253
 20
2046.4781
 11
1071.407
 21
2047.6999
  0
LINE
  8
1-2
  6
CONTINUOUS
 62
    3
 10
1071.407
 20
2047.6999
 11
1067.5017
 21
2048.8327
  0
LINE
  8
1-2
  6
CONTINUOUS
 62
    3
 10
1155.5602
 20
2065.9991
 11
1155.6271
 21
2066.0221
  0
LINE
  8
1-2
  6
CONTINUOUS
 62
    3
 10
1078.5904
 20
1965.2666
 11
1078.5904
 21
1954.1518
  0
LINE
  8
1-2
  6
CONTINUOUS
 62
    3
 10
1078.5904
 20
1954.1518
 11
1112.3665
 21
1954.1518
  0
LINE
  8
1-2
  6
CONTINUOUS
 62
    3
 10
1112.3665
 20
1965.2666
 11
1112.3665
 21
1954.1518
  0
LINE
  8
1-2
  6
CONTINUOUS
 62
    3
 10
1078.5904
 20
1965.2666
 11
1112.3665
 21
1965.2666
  0
LINE
  8
1-2
  6
CONTINUOUS
 62
    3
 10
1096.5484
 20
1965.2666
 11
1096.5484
 21
1987.4216
  0
LINE
  8
1-2
  6
CONTINUOUS
 62
    3
 10
1089.0136
 20
1994.9542
 11
1050
 21
1994.9542
  0
LINE
  8
1-2
  6
CONTINUOUS
 62
    3
 10
1062.941
 20
2079.008
 11
1062.941
 21
2042.5401
  0
LINE
  8
1-2
  6
CONTINUOUS
 62
    3
 10
1068.2561
 20
2068.0736
 11
1067.7043
 21
2067.7619
  0
LINE
  8
1-2
  6
CONTINUOUS
 62
    3
 10
1067.7043
 20
2067.7619
 11
1067.1395
 21
2067.4343
  0
LINE
  8
1-2
  6
CONTINUOUS
 62
    3
 10
1067.1395
 20
2067.4343
 11
1066.568
 21
2067.0908
  0
LINE
  8
1-2
  6
CONTINUOUS
 62
    3
 10
1066.568
 20
2067.0908
 11
1065.9841
 21
2066.7308
  0
LINE
  8
1-2
  6
CONTINUOUS
 62
    3
 10
1065.9841
 20
2066.7308
 11
1065.3885
 21
2066.3596
  0
LINE
  8
1-2
  6
CONTINUOUS
 62
    3
 10
1065.3885
 20
2066.3596
 11
1064.7828
 21
2065.9694
  0
LINE
  8
1-2
  6
CONTINUOUS
 62
    3
 10
1064.7828
 20
2065.9694
 11
1064.1669
 21
2065.5656
  0
LINE
  8
1-2
  6
CONTINUOUS
 62
    3
 10
1064.1669
 20
2065.5656
 11
1063.5388
 21
2065.1439
  0
LINE
  8
1-2
  6
CONTINUOUS
 62
    3
 10
1063.5388
 20
2065.1439
 11
1062.9023
 21
2064.7104
  0
LINE
  8
1-2
  6
CONTINUOUS
 62
    3
 10
1066.3699
 20
2054.8757
 11
1065.9606
 21
2054.7973
  0
LINE
  8
1-2
  6
CONTINUOUS
 62
    3
 10
1065.9606
 20
2054.7973
 11
1065.557
 21
2054.7243
  0
LINE
  8
1-2
  6
CONTINUOUS
 62
    3
 10
1065.557
 20
2054.7243
 11
1065.1609
 21
2054.652
  0
LINE
  8
1-2
  6
CONTINUOUS
 62
    3
 10
1065.1609
 20
2054.652
 11
1064.7687
 21
2054.5815
  0
LINE
  8
1-2
  6
CONTINUOUS
 62
    3
 10
1064.7687
 20
2054.5815
 11
1064.3847
 21
2054.5144
  0
LINE
  8
1-2
  6
CONTINUOUS
 62
    3
 10
1064.3847
 20
2054.5144
 11
1064.0044
 21
2054.4516
  0
LINE
  8
1-2
  6
CONTINUOUS
 62
    3
 10
1064.0044
 20
2054.4516
 11
1063.6312
 21
2054.3924
  0
LINE
  8
1-2
  6
CONTINUOUS
 62
    3
 10
1063.6312
 20
2054.3924
 11
1063.2625
 21
2054.3348
  0
LINE
  8
1-2
  6
CONTINUOUS
 62
    3
 10
1063.2625
 20
2054.3348
 11
1062.9023
 21
2054.2789
  0
LINE
  8
1-2
  6
CONTINUOUS
 62
    3
 10
1074.5147
 20
2047.5594
 11
1072.9597
 21
2047.889
  0
LINE
  8
1-2
  6
CONTINUOUS
 62
    3
 10
1072.9597
 20
2047.889
 11
1071.4678
 21
2048.2077
  0
LINE
  8
1-2
  6
CONTINUOUS
 62
    3
 10
1071.4678
 20
2048.2077
 11
1070.0441
 21
2048.5165
  0
LINE
  8
1-2
  6
CONTINUOUS
 62
    3
 10
1070.0441
 20
2048.5165
 11
1068.6872
 21
2048.8151
  0
LINE
  8
1-2
  6
CONTINUOUS
 62
    3
 10
1068.6872
 20
2048.8151
 11
1067.396
 21
2049.1029
  0
LINE
  8
1-2
  6
CONTINUOUS
 62
    3
 10
1067.396
 20
2049.1029
 11
1066.173
 21
2049.3823
  0
LINE
  8
1-2
  6
CONTINUOUS
 62
    3
 10
1066.173
 20
2049.3823
 11
1065.0156
 21
2049.6498
  0
LINE
  8
1-2
  6
CONTINUOUS
 62
    3
 10
1065.0156
 20
2049.6498
 11
1063.9257
 21
2049.9081
  0
LINE
  8
1-2
  6
CONTINUOUS
 62
    3
 10
1063.9257
 20
2049.9081
 11
1062.9023
 21
2050.155
  0
LINE
  8
1-2
  6
CONTINUOUS
 62
    3
 10
1067.5017
 20
2048.8327
 11
1066.8931
 21
2048.9985
  0
LINE
  8
1-2
  6
CONTINUOUS
 62
    3
 10
1066.8931
 20
2048.9985
 11
1066.3093
 21
2049.1579
  0
LINE
  8
1-2
  6
CONTINUOUS
 62
    3
 10
1066.3093
 20
2049.1579
 11
1065.7509
 21
2049.3152
  0
LINE
  8
1-2
  6
CONTINUOUS
 62
    3
 10
1065.7509
 20
2049.3152
 11
1065.2184
 21
2049.4667
  0
LINE
  8
1-2
  6
CONTINUOUS
 62
    3
 10
1065.2184
 20
2049.4667
 11
1064.7133
 21
2049.6122
  0
LINE
  8
1-2
  6
CONTINUOUS
 62
    3
 10
1064.7133
 20
2049.6122
 11
1064.2308
 21
2049.7507
  0
LINE
  8
1-2
  6
CONTINUOUS
 62
    3
 10
1064.2308
 20
2049.7507
 11
1063.7747
 21
2049.8868
  0
LINE
  8
1-2
  6
CONTINUOUS
 62
    3
 10
1063.7747
 20
2049.8868
 11
1063.3452
 21
2050.0184
  0
LINE
  8
1-2
  6
CONTINUOUS
 62
    3
 10
1063.3452
 20
2050.0184
 11
1062.941
 21
2050.1471
  0
LINE
  8
1-2
  6
CONTINUOUS
 62
    3
 10
1057.959
 20
2083.9922
 11
1050
 21
2083.9922
  0
LINE
  8
1-2
  6
CONTINUOUS
 62
    3
 10
1057.959
 20
2007.4227
 11
1050
 21
2007.4227
  0
LINE
  8
1-2
  6
CONTINUOUS
 62
    3
 10
1054.1575
 20
2033.3841
 11
1057.0441
 21
2030.1255
  0
LINE
  8
1-2
  6
CONTINUOUS
 62
    3
 10
1057.0441
 20
2030.1255
 11
1060.217
 21
2026.7403
  0
LINE
  8
1-2
  6
CONTINUOUS
 62
    3
 10
1060.217
 20
2026.7403
 11
1063.6294
 21
2023.2682
  0
LINE
  8
1-2
  6
CONTINUOUS
 62
    3
 10
1063.6294
 20
2023.2682
 11
1067.2379
 21
2019.7447
  0
LINE
  8
1-2
  6
CONTINUOUS
 62
    3
 10
1067.2379
 20
2019.7447
 11
1071.0011
 21
2016.2036
  0
LINE
  8
1-2
  6
CONTINUOUS
 62
    3
 10
1071.0011
 20
2016.2036
 11
1074.8811
 21
2012.6763
  0
LINE
  8
1-2
  6
CONTINUOUS
 62
    3
 10
1074.8811
 20
2012.6763
 11
1078.8415
 21
2009.1909
  0
LINE
  8
1-2
  6
CONTINUOUS
 62
    3
 10
1078.8415
 20
2009.1909
 11
1082.8495
 21
2005.7718
  0
LINE
  8
1-2
  6
CONTINUOUS
 62
    3
 10
1082.8495
 20
2005.7718
 11
1086.8744
 21
2002.4437
  0
LINE
  8
1-2
  6
CONTINUOUS
 62
    3
 10
1086.8744
 20
2002.4437
 11
1090.8884
 21
1999.226
  0
LINE
  8
1-2
  6
CONTINUOUS
 62
    3
 10
1090.8884
 20
1999.226
 11
1094.8663
 21
1996.1372
  0
LINE
  8
1-2
  6
CONTINUOUS
 62
    3
 10
1094.8663
 20
1996.1372
 11
1098.7857
 21
1993.1914
  0
LINE
  8
1-2
  6
CONTINUOUS
 62
    3
 10
1098.7857
 20
1993.1914
 11
1102.6265
 21
1990.4025
  0
LINE
  8
1-2
  6
CONTINUOUS
 62
    3
 10
1102.6265
 20
1990.4025
 11
1106.3716
 21
1987.7789
  0
LINE
  8
1-2
  6
CONTINUOUS
 62
    3
 10
1106.3716
 20
1987.7789
 11
1110.0064
 21
1985.3283
  0
LINE
  8
1-2
  6
CONTINUOUS
 62
    3
 10
1110.0064
 20
1985.3283
 11
1113.5186
 21
1983.0555
  0
LINE
  8
1-2
  6
CONTINUOUS
 62
    3
 10
1113.5186
 20
1983.0555
 11
1116.8993
 21
1980.9619
  0
LINE
  8
1-2
  6
CONTINUOUS
 62
    3
 10
1116.8993
 20
1980.9619
 11
1120.1418
 21
1979.0478
  0
LINE
  8
1-2
  6
CONTINUOUS
 62
    3
 10
1120.1418
 20
1979.0478
 11
1123.2416
 21
1977.3083
  0
LINE
  8
1-2
  6
CONTINUOUS
 62
    3
 10
1123.2416
 20
1977.3083
 11
1123.4697
 21
1977.2088
  0
LINE
  8
1-2
  6
CONTINUOUS
 62
    3
 10
1123.4697
 20
1977.2088
 11
1123.6955
 21
1977.1138
  0
LINE
  8
1-2
  6
CONTINUOUS
 62
    3
 10
1123.6955
 20
1977.1138
 11
1123.9194
 21
1977.0232
  0
LINE
  8
1-2
  6
CONTINUOUS
 62
    3
 10
1123.9194
 20
1977.0232
 11
1124.1406
 21
1976.9378
  0
LINE
  8
1-2
  6
CONTINUOUS
 62
    3
 10
1124.1406
 20
1976.9378
 11
1124.3595
 21
1976.8569
  0
LINE
  8
1-2
  6
CONTINUOUS
 62
    3
 10
1124.3595
 20
1976.8569
 11
1124.5761
 21
1976.7807
  0
LINE
  8
1-2
  6
CONTINUOUS
 62
    3
 10
1124.5761
 20
1976.7807
 11
1124.7907
 21
1976.7092
  0
LINE
  8
1-2
  6
CONTINUOUS
 62
    3
 10
1124.7907
 20
1976.7092
 11
1125.0027
 21
1976.6429
  0
LINE
  8
1-2
  6
CONTINUOUS
 62
    3
 10
1125.0027
 20
1976.6429
 11
1125.2123
 21
1976.5805
  0
LINE
  8
1-2
  6
CONTINUOUS
 62
    3
 10
1054.1575
 20
2033.3841
 11
1055.8641
 21
2034.2318
  0
LINE
  8
1-2
  6
CONTINUOUS
 62
    3
 10
1055.8641
 20
2034.2318
 11
1057.3878
 21
2035.1218
  0
LINE
  8
1-2
  6
CONTINUOUS
 62
    3
 10
1057.3878
 20
2035.1218
 11
1058.7289
 21
2036.0542
  0
LINE
  8
1-2
  6
CONTINUOUS
 62
    3
 10
1058.7289
 20
2036.0542
 11
1059.8876
 21
2037.0291
  0
LINE
  8
1-2
  6
CONTINUOUS
 62
    3
 10
1059.8876
 20
2037.0291
 11
1060.8635
 21
2038.0466
  0
LINE
  8
1-2
  6
CONTINUOUS
 62
    3
 10
1060.8635
 20
2038.0466
 11
1061.6568
 21
2039.1064
  0
LINE
  8
1-2
  6
CONTINUOUS
 62
    3
 10
1061.6568
 20
2039.1064
 11
1062.2675
 21
2040.2084
  0
LINE
  8
1-2
  6
CONTINUOUS
 62
    3
 10
1062.2675
 20
2040.2084
 11
1062.6955
 21
2041.3531
  0
LINE
  8
1-2
  6
CONTINUOUS
 62
    3
 10
1062.6955
 20
2041.3531
 11
1062.941
 21
2042.5401
  0
LINE
  8
1-2
  6
CONTINUOUS
 62
    3
 10
1062.9423
 20
2012.4071
 11
1062.9423
 21
2023.9672
  0
LINE
  8
1-2
  6
CONTINUOUS
 62
    3
 10
1127.6639
 20
2055.4215
 11
1117.8504
 21
2077.0508
  0
LINE
  8
1-2
  6
CONTINUOUS
 62
    3
 10
672.66673
 20
2030.0434
 11
1050
 21
2030.0434
  0
LINE
  8
1-2
  6
CONTINUOUS
 62
    3
 10
1427.3344
 20
2030.0429
 11
1305
 21
2030.0434
  0
LINE
  8
1-8
  6
CONTINUOUS
 62
    7
 10
1516.6665
 20
2030.0434
 11
1516.6665
 21
2213.3765
  0
LINE
  8
1-8
  6
CONTINUOUS
 62
    7
 10
1516.6665
 20
2213.3765
 11
1516.6665
 21
2300.0428
  0
LINE
  8
1-8
  6
CONTINUOUS
 62
    7
 10
1516.6665
 20
1880.0439
 11
1516.6665
 21
2030.0434
  0
LINE
  8
1-8
  6
CONTINUOUS
 62
    7
 10
1385.605
 20
1880.0426
 11
1385.6051
 21
2131.3772
  0
LINE
  8
1-8
  6
CONTINUOUS
 62
    7
 10
1304.9999
 20
1880.0426
 11
1385.605
 21
1880.0426
  0
LINE
  8
1-2
  6
CONTINUOUS
 62
    3
 10
795.00006
 20
1950.0438
 11
795.00006
 21
2030.0434
  0
LINE
  8
1-2
  6
CONTINUOUS
 62
    3
 10
672.66673
 20
2053.3767
 11
672.66673
 21
2030.0434
  0
LINE
  8
1-2
  6
CONTINUOUS
 62
    3
 10
672.66673
 20
2093.3768
 11
672.66673
 21
2063.3765
  0
LINE
  8
1-2
  6
CONTINUOUS
 62
    3
 10
672.66673
 20
2213.3765
 11
672.66673
 21
2103.3766
  0
LINE
  8
1-2
  6
CONTINUOUS
 62
    3
 10
1427.3334
 20
2053.376
 11
1427.3334
 21
2030.0429
  0
LINE
  8
1-2
  6
CONTINUOUS
 62
    3
 10
1427.3334
 20
2093.3761
 11
1427.3334
 21
2063.376
  0
LINE
  8
1-2
  6
CONTINUOUS
 62
    3
 10
1427.3334
 20
2053.376
 11
1305
 21
2053.3767
  0
LINE
  8
1-2
  6
CONTINUOUS
 62
    3
 10
1427.3334
 20
2063.376
 11
1305
 21
2063.3765
  0
LINE
  8
1-2
  6
CONTINUOUS
 62
    3
 10
1427.3334
 20
2093.3761
 11
1305
 21
2093.3768
  0
LINE
  8
1-2
  6
CONTINUOUS
 62
    3
 10
1427.3334
 20
2103.3761
 11
1305
 21
2103.3766
  0
LINE
  8
1-2
  6
CONTINUOUS
 62
    3
 10
1118.8847
 20
2121.3771
 11
1050
 21
2121.3771
  0
LINE
  8
1-2
  6
CONTINUOUS
 62
    3
 10
1305
 20
2121.3771
 11
1226.0939
 21
2121.3771
  0
LINE
  8
1-2
  6
CONTINUOUS
 62
    3
 10
1305
 20
2121.3771
 11
1305
 21
1950.0438
  0
LINE
  8
1-2
  6
CONTINUOUS
 62
    3
 10
1089.8817
 20
1938.7586
 11
1050
 21
1938.7586
  0
LINE
  8
1-2
  6
CONTINUOUS
 62
    3
 10
1096.5484
 20
1945.4251
 11
1096.5484
 21
1954.1518
  0
LINE
  8
1-2
  6
CONTINUOUS
 62
    3
 10
1086.5484
 20
1932.7641
 11
1050
 21
1932.7641
  0
LINE
  8
1-2
  6
CONTINUOUS
 62
    3
 10
1089.8817
 20
1936.0976
 11
1089.8817
 21
1938.7586
  0
LINE
  8
1-2
  6
CONTINUOUS
 62
    3
 10
1096.5484
 20
1950.0438
 11
1305
 21
1950.0438
  0
LINE
  8
1-2
  6
CONTINUOUS
 62
    3
 10
1093.8169
 20
1940.0438
 11
1305.0001
 21
1940.0438
  0
LINE
  8
1-2
  6
CONTINUOUS
 62
    3
 10
795.00006
 20
1950.0438
 11
1050
 21
1950.0438
  0
LINE
  8
1-2
  6
CONTINUOUS
 62
    3
 10
795.00006
 20
1940.0438
 11
1050
 21
1940.0438
  0
LINE
  8
1-2
  6
CONTINUOUS
 62
    3
 10
672.66673
 20
2103.3766
 11
1050
 21
2103.3766
  0
LINE
  8
1-2
  6
CONTINUOUS
 62
    3
 10
672.66673
 20
2093.3768
 11
1050
 21
2093.3768
  0
LINE
  8
1-2
  6
CONTINUOUS
 62
    3
 10
672.66673
 20
2063.3765
 11
1050
 21
2063.3765
  0
LINE
  8
1-2
  6
CONTINUOUS
 62
    3
 10
672.66673
 20
2053.3767
 11
1050
 21
2053.3767
  0
LINE
  8
1-2
  6
CONTINUOUS
 62
    3
 10
1373.3333
 20
1880.0426
 11
726.6667
 21
1880.0426
  0
LINE
  8
1-2
  6
CONTINUOUS
 62
    3
 10
1373.3333
 20
1880.0426
 11
1373.3333
 21
1840.0427
  0
LINE
  8
1-8
  6
CONTINUOUS
 62
    7
 10
1516.6665
 20
1840.044
 11
1516.6665
 21
1880.0439
  0
LINE
  8
1-8
  6
CONTINUOUS
 62
    7
 10
726.66708
 20
1716.8363
 11
1373.3333
 21
1716.8363
  0
LINE
  8
1-2
  6
CONTINUOUS
 62
    3
 10
726.6667
 20
1880.0426
 11
830.59168
 21
1940.0438
  0
LINE
  8
1-2
  6
CONTINUOUS
 62
    3
 10
795.00006
 20
1940.0438
 11
795.00006
 21
1919.4949
  0
LINE
  8
1-2
  6
CONTINUOUS
 62
    3
 10
1305.0001
 20
1940.0438
 11
1305.0001
 21
1880.0426
  0
LINE
  8
1-2
  6
CONTINUOUS
 62
    3
 10
1373.3333
 20
1880.0426
 11
1305.0001
 21
1919.4949
  0
LINE
  8
1-2
  6
CONTINUOUS
 62
    3
 10
830.59168
 20
1940.0438
 11
830.59168
 21
1880.0426
  0
LINE
  8
1-8
  6
CONTINUOUS
 62
    7
 10
672.66673
 20
2255.8785
 11
672.66673
 21
2403.0631
  0
LINE
  8
1-8
  6
CONTINUOUS
 62
    7
 10
1452.8203
 20
2300.0428
 11
1516.6665
 21
2300.0428
  0
LINE
  8
1-8
  6
CONTINUOUS
 62
    7
 10
1452.8203
 20
2213.3765
 11
1516.6665
 21
2213.3765
  0
LINE
  8
1-8
  6
CONTINUOUS
 62
    7
 10
1452.8203
 20
1880.0439
 11
1516.6665
 21
1880.0439
  0
LINE
  8
1-8
  6
CONTINUOUS
 62
    7
 10
1452.8203
 20
2030.0434
 11
1516.6665
 21
2030.0434
  0
LINE
  8
1-8
  6
CONTINUOUS
 62
    7
 10
1452.8203
 20
1840.044
 11
1516.6665
 21
1840.044
  0
LINE
  8
1-8
  6
CONTINUOUS
 62
    7
 10
1373.3333
 20
1809.4626
 11
1373.3333
 21
1716.8363
  0
LINE
  8
1-2
  6
CONTINUOUS
 62
    3
 10
1373.3333
 20
1840.0427
 11
726.66708
 21
1840.0427
  0
LINE
  8
1-8
  6
CONTINUOUS
 62
    7
 10
643.98555
 20
2300.0428
 11
583.33365
 21
2300.0428
  0
LINE
  8
1-8
  6
CONTINUOUS
 62
    7
 10
644.65333
 20
1840.0427
 11
583.33365
 21
1840.0427
  0
LINE
  8
1-8
  6
CONTINUOUS
 62
    7
 10
1328.918
 20
2131.3772
 11
1385.6051
 21
2131.3772
  0
LINE
  8
1-2
  6
CONTINUOUS
 62
    3
 10
1427.3344
 20
2213.2332
 11
1427.3344
 21
2103.3761
  0
LINE
  8
1-2
  6
CONTINUOUS
 62
    3
 10
726.6667
 20
1880.0426
 11
726.6667
 21
1840.0427
  0
LINE
  8
1-8
  6
CONTINUOUS
 62
    7
 10
726.66708
 20
1809.4626
 11
726.66708
 21
1716.8363
  0
LINE
  8
ADD_LINE
  6
DOT
 62
    4
 10
795.00006
 20
1785.3048
 11
795.00006
 21
2343.5031
  0
LINE
  8
ADD_LINE
  6
DOT
 62
    4
 10
1305.0001
 20
1785.3048
 11
1305.0001
 21
2343.5031
  0
LINE
  8
ADD_LINE
  6
DOT
 62
    4
 10
672.66673
 20
2505.6653
 11
672.66673
 21
1911.0706
  0
LINE
  8
ADD_LINE
  6
DOT
 62
    4
 10
1427.3334
 20
2473.2329
 11
1427.3334
 21
1921.8815
  0
LINE
  8
ADD_LINE
  6
DOT
 62
    4
 10
465.31531
 20
2300.0428
 11
1661.7119
 21
2300.0428
  0
LINE
  8
ADD_LINE
  6
DOT
 62
    4
 10
465.31531
 20
2213.3762
 11
1661.7119
 21
2213.3762
  0
LINE
  8
ADD_LINE
  6
DOT
 62
    4
 10
465.31531
 20
2030.0426
 11
1661.7119
 21
2030.0426
  0
LINE
  8
ADD_LINE
  6
DOT
 62
    4
 10
465.31531
 20
1880.0426
 11
1661.7119
 21
1880.0426
  0
LINE
  8
ADD_LINE
  6
DOT
 62
    4
 10
465.31531
 20
1840.0427
 11
1661.7119
 21
1840.0427
  0
LINE
  8
ADD_LINE
  6
DOT
 62
    4
 10
1373.3333
 20
2006.5418
 11
1373.3333
 21
1697.9953
  0
LINE
  8
ADD_LINE
  6
DOT
 62
    4
 10
726.6667
 20
2006.5418
 11
726.6667
 21
1697.9953
  0
LINE
  8
1-2
  6
CONTINUOUS
 62
    3
 10
672.66673
 20
2213.3765
 11
1050
 21
2213.3765
  0
LINE
  8
1-2
  6
CONTINUOUS
 62
    3
 10
1050
 20
2300.0428
 11
657.56678
 21
2209.9081
  0
LINE
  8
1-2
  6
CONTINUOUS
 62
    3
 10
1050
 20
2300.0428
 11
1442.4334
 21
2209.9081
  0
LINE
  8
1-2
  6
CONTINUOUS
 62
    3
 10
1221.6225
 20
2260.4893
 11
1050
 21
2260.4893
  0
LINE
  8
1-8
  6
CONTINUOUS
 62
    7
 10
1427.3344
 20
2255.8785
 11
1427.3344
 21
2403.0626
  0
LINE
  8
1-1
  6
CENTER2
 62
    7
 10
1050
 20
2369.3695
 11
1050
 21
1763.9641
  0
LINE
  8
1-2
  6
CONTINUOUS
 62
    3
 10
1305
 20
2131.3772
 11
1050
 21
2131.3772
  0
LINE
  8
1-4
  6
CONTINUOUS
 62
    3
 10
1305
 20
2131.3772
 11
1305
 21
2241.474
  0
LINE
  8
1-4
  6
CONTINUOUS
 62
    3
 10
1305.0001
 20
2241.474
 11
1050
 21
2241.474
  0
LINE
  8
1-2
  6
CONTINUOUS
 62
    3
 10
1221.6225
 20
2260.4895
 11
1188.6867
 21
2241.474
  0
LINE
  8
1-2
  6
CONTINUOUS
 62
    3
 10
1427.3344
 20
2213.3758
 11
1305.0001
 21
2213.3762
  0
LINE
  8
1-4
  6
CONTINUOUS
 62
    4
 10
1305.0001
 20
2236.474
 11
1050
 21
2236.474
  0
LINE
  8
1-4
  6
CONTINUOUS
 62
    4
 10
1305.0001
 20
2231.474
 11
1050
 21
2231.474
  0
LINE
  8
1-4
  6
CONTINUOUS
 62
    4
 10
1305.0001
 20
2226.474
 11
1050
 21
2226.474
  0
LINE
  8
1-4
  6
CONTINUOUS
 62
    4
 10
1305.0001
 20
2221.474
 11
1050
 21
2221.474
  0
LINE
  8
1-4
  6
CONTINUOUS
 62
    4
 10
1305.0001
 20
2216.4739
 11
1050
 21
2216.4739
  0
LINE
  8
1-4
  6
CONTINUOUS
 62
    4
 10
1305.0001
 20
2211.4739
 11
1050
 21
2211.4739
  0
LINE
  8
1-4
  6
CONTINUOUS
 62
    4
 10
1305.0001
 20
2206.4739
 11
1050
 21
2206.4739
  0
LINE
  8
1-4
  6
CONTINUOUS
 62
    4
 10
1305.0001
 20
2201.4741
 11
1050
 21
2201.4741
  0
LINE
  8
1-4
  6
CONTINUOUS
 62
    4
 10
1305.0001
 20
2196.4741
 11
1050
 21
2196.4741
  0
LINE
  8
1-4
  6
CONTINUOUS
 62
    4
 10
1305.0001
 20
2191.4741
 11
1050
 21
2191.4741
  0
LINE
  8
1-4
  6
CONTINUOUS
 62
    4
 10
1305.0001
 20
2186.4741
 11
1050
 21
2186.4741
  0
LINE
  8
1-4
  6
CONTINUOUS
 62
    4
 10
1305.0001
 20
2181.4741
 11
1050
 21
2181.4741
  0
LINE
  8
1-4
  6
CONTINUOUS
 62
    4
 10
1305.0001
 20
2176.4741
 11
1050
 21
2176.4741
  0
LINE
  8
1-4
  6
CONTINUOUS
 62
    4
 10
1305.0001
 20
2171.474
 11
1050
 21
2171.474
  0
LINE
  8
1-4
  6
CONTINUOUS
 62
    4
 10
1305.0001
 20
2166.474
 11
1050
 21
2166.474
  0
LINE
  8
1-4
  6
CONTINUOUS
 62
    4
 10
1305.0001
 20
2161.474
 11
1050
 21
2161.474
  0
LINE
  8
1-4
  6
CONTINUOUS
 62
    4
 10
1305.0001
 20
2156.474
 11
1050
 21
2156.474
  0
LINE
  8
1-4
  6
CONTINUOUS
 62
    4
 10
1305.0001
 20
2151.474
 11
1050
 21
2151.474
  0
LINE
  8
1-4
  6
CONTINUOUS
 62
    4
 10
1305.0001
 20
2146.474
 11
1050
 21
2146.474
  0
LINE
  8
1-4
  6
CONTINUOUS
 62
    4
 10
1305.0001
 20
2141.4739
 11
1050
 21
2141.4739
  0
LINE
  8
1-4
  6
CONTINUOUS
 62
    4
 10
1305.0001
 20
2136.4739
 11
1050
 21
2136.4739
  0
LINE
  8
1-4
  6
CONTINUOUS
 62
    4
 10
1300
 20
2131.3772
 11
1300
 21
2241.474
  0
LINE
  8
1-4
  6
CONTINUOUS
 62
    4
 10
1295
 20
2131.3772
 11
1295
 21
2241.474
  0
LINE
  8
1-4
  6
CONTINUOUS
 62
    4
 10
1289.9999
 20
2131.3772
 11
1289.9999
 21
2241.474
  0
LINE
  8
1-4
  6
CONTINUOUS
 62
    4
 10
1285
 20
2131.3772
 11
1285
 21
2241.474
  0
LINE
  8
1-4
  6
CONTINUOUS
 62
    4
 10
1280
 20
2131.3772
 11
1280
 21
2241.474
  0
LINE
  8
1-4
  6
CONTINUOUS
 62
    4
 10
1274.9999
 20
2131.3772
 11
1274.9999
 21
2241.474
  0
LINE
  8
1-4
  6
CONTINUOUS
 62
    4
 10
1269.9999
 20
2131.3772
 11
1269.9999
 21
2241.474
  0
LINE
  8
1-4
  6
CONTINUOUS
 62
    4
 10
1264.9999
 20
2131.3772
 11
1264.9999
 21
2241.474
  0
LINE
  8
1-4
  6
CONTINUOUS
 62
    4
 10
1260
 20
2131.3772
 11
1260
 21
2241.474
  0
LINE
  8
1-4
  6
CONTINUOUS
 62
    4
 10
1254.9999
 20
2131.3772
 11
1254.9999
 21
2241.474
  0
LINE
  8
1-4
  6
CONTINUOUS
 62
    4
 10
1249.9999
 20
2131.3772
 11
1249.9999
 21
2241.474
  0
LINE
  8
1-4
  6
CONTINUOUS
 62
    4
 10
1244.9999
 20
2131.3772
 11
1244.9999
 21
2241.474
  0
LINE
  8
1-4
  6
CONTINUOUS
 62
    4
 10
1239.9999
 20
2131.3772
 11
1239.9999
 21
2241.474
  0
LINE
  8
1-4
  6
CONTINUOUS
 62
    4
 10
1235
 20
2131.3772
 11
1235
 21
2241.474
  0
LINE
  8
1-4
  6
CONTINUOUS
 62
    4
 10
1230
 20
2131.3772
 11
1230
 21
2241.474
  0
LINE
  8
1-4
  6
CONTINUOUS
 62
    4
 10
1224.9998
 20
2131.3772
 11
1224.9998
 21
2241.474
  0
LINE
  8
1-4
  6
CONTINUOUS
 62
    4
 10
1219.9998
 20
2131.3772
 11
1219.9998
 21
2241.474
  0
LINE
  8
1-4
  6
CONTINUOUS
 62
    4
 10
1214.9998
 20
2131.3772
 11
1214.9998
 21
2241.474
  0
LINE
  8
1-4
  6
CONTINUOUS
 62
    4
 10
1209.9999
 20
2131.3772
 11
1209.9999
 21
2241.474
  0
LINE
  8
1-4
  6
CONTINUOUS
 62
    4
 10
1204.9999
 20
2131.3772
 11
1204.9999
 21
2241.474
  0
LINE
  8
1-4
  6
CONTINUOUS
 62
    4
 10
1199.9999
 20
2131.3772
 11
1199.9999
 21
2241.474
  0
LINE
  8
1-4
  6
CONTINUOUS
 62
    4
 10
1194.9999
 20
2131.3772
 11
1194.9999
 21
2241.474
  0
LINE
  8
1-4
  6
CONTINUOUS
 62
    4
 10
1189.9999
 20
2131.3772
 11
1189.9999
 21
2241.474
  0
LINE
  8
1-4
  6
CONTINUOUS
 62
    4
 10
1185
 20
2131.3772
 11
1185
 21
2241.474
  0
LINE
  8
1-4
  6
CONTINUOUS
 62
    4
 10
1179.9999
 20
2131.3772
 11
1179.9999
 21
2241.474
  0
LINE
  8
1-4
  6
CONTINUOUS
 62
    4
 10
1174.9998
 20
2131.3772
 11
1174.9998
 21
2241.474
  0
LINE
  8
1-4
  6
CONTINUOUS
 62
    4
 10
1169.9998
 20
2131.3772
 11
1169.9998
 21
2241.474
  0
LINE
  8
1-4
  6
CONTINUOUS
 62
    4
 10
1164.9998
 20
2131.3772
 11
1164.9998
 21
2241.474
  0
LINE
  8
1-4
  6
CONTINUOUS
 62
    4
 10
1159.9999
 20
2131.3772
 11
1159.9999
 21
2241.474
  0
LINE
  8
1-4
  6
CONTINUOUS
 62
    4
 10
1154.9999
 20
2131.3772
 11
1154.9999
 21
2241.474
  0
LINE
  8
1-4
  6
CONTINUOUS
 62
    4
 10
1149.9998
 20
2131.3772
 11
1149.9998
 21
2241.474
  0
LINE
  8
1-4
  6
CONTINUOUS
 62
    4
 10
1144.9998
 20
2131.3772
 11
1144.9998
 21
2241.474
  0
LINE
  8
1-4
  6
CONTINUOUS
 62
    4
 10
1139.9998
 20
2131.3772
 11
1139.9998
 21
2241.474
  0
LINE
  8
1-4
  6
CONTINUOUS
 62
    4
 10
1134.9999
 20
2131.3772
 11
1134.9999
 21
2241.474
  0
LINE
  8
1-4
  6
CONTINUOUS
 62
    4
 10
1129.9999
 20
2131.3772
 11
1129.9999
 21
2241.474
  0
LINE
  8
1-4
  6
CONTINUOUS
 62
    4
 10
1124.9998
 20
2131.3772
 11
1124.9998
 21
2241.474
  0
LINE
  8
1-4
  6
CONTINUOUS
 62
    4
 10
1119.9997
 20
2131.3772
 11
1119.9997
 21
2241.474
  0
LINE
  8
1-4
  6
CONTINUOUS
 62
    4
 10
1114.9997
 20
2131.3772
 11
1114.9997
 21
2241.474
  0
LINE
  8
1-4
  6
CONTINUOUS
 62
    4
 10
1109.9998
 20
2131.3772
 11
1109.9998
 21
2241.474
  0
LINE
  8
1-4
  6
CONTINUOUS
 62
    4
 10
1104.9998
 20
2131.3772
 11
1104.9998
 21
2241.474
  0
LINE
  8
1-4
  6
CONTINUOUS
 62
    4
 10
1099.9998
 20
2131.3772
 11
1099.9998
 21
2241.474
  0
LINE
  8
1-4
  6
CONTINUOUS
 62
    4
 10
1094.9998
 20
2131.3772
 11
1094.9998
 21
2241.474
  0
LINE
  8
1-4
  6
CONTINUOUS
 62
    4
 10
1089.9998
 20
2131.3772
 11
1089.9998
 21
2241.474
  0
LINE
  8
1-4
  6
CONTINUOUS
 62
    4
 10
1084.9999
 20
2131.3772
 11
1084.9999
 21
2241.474
  0
LINE
  8
1-4
  6
CONTINUOUS
 62
    4
 10
1079.9999
 20
2131.3772
 11
1079.9999
 21
2241.474
  0
LINE
  8
1-4
  6
CONTINUOUS
 62
    4
 10
1074.9997
 20
2131.3772
 11
1074.9997
 21
2241.474
  0
LINE
  8
1-4
  6
CONTINUOUS
 62
    4
 10
1069.9997
 20
2131.3772
 11
1069.9997
 21
2241.474
  0
LINE
  8
1-4
  6
CONTINUOUS
 62
    4
 10
1064.9997
 20
2131.3772
 11
1064.9997
 21
2241.474
  0
LINE
  8
1-4
  6
CONTINUOUS
 62
    4
 10
1059.9998
 20
2131.3772
 11
1059.9998
 21
2241.474
  0
LINE
  8
1-4
  6
CONTINUOUS
 62
    4
 10
1054.9998
 20
2131.3772
 11
1054.9998
 21
2241.474
  0
ARC
  8
1-2
  6
CONTINUOUS
 62
    3
 10
1089.0136
 20
1987.4216
 40
7.5333357
 50
0
 51
90
  0
ARC
  8
1-2
  6
CONTINUOUS
 62
    3
 10
1057.959
 20
2012.4071
 40
4.9833
 50
270
 51
0
  0
ARC
  8
1-2
  6
CONTINUOUS
 62
    3
 10
1057.959
 20
2079.008
 40
4.9833
 50
0
 51
90
  0
ARC
  8
1-2
  6
CONTINUOUS
 62
    3
 10
795.00006
 20
1945.0438
 40
5.0000167
 50
90
 51
270
  0
ARC
  8
1-2
  6
CONTINUOUS
 62
    3
 10
1305.0001
 20
1945.0438
 40
5.0000167
 50
270
 51
90.000946
  0
ARC
  8
1-2
  6
CONTINUOUS
 62
    3
 10
672.66673
 20
2098.3766
 40
5.0000167
 50
90
 51
270
  0
ARC
  8
1-2
  6
CONTINUOUS
 62
    3
 10
672.66673
 20
2058.3765
 40
5.0000167
 50
90
 51
270
  0
ARC
  8
1-2
  6
CONTINUOUS
 62
    3
 10
1427.3334
 20
2098.3761
 40
5.0000167
 50
270
 51
90
  0
ARC
  8
1-2
  6
CONTINUOUS
 62
    3
 10
1427.3334
 20
2058.376
 40
5.0000167
 50
270
 51
90
  0
ARC
  8
1-2
  6
CONTINUOUS
 62
    3
 10
1305
 20
2126.3774
 40
5.0000167
 50
270
 51
90
  0
ARC
  8
1-2
  6
CONTINUOUS
 62
    3
 10
1089.8817
 20
1945.4251
 40
6.6666666
 50
270
 51
0
  0
ARC
  8
1-2
  6
CONTINUOUS
 62
    3
 10
1086.5484
 20
1936.0976
 40
3.3333333
 50
270
 51
0
  0
TEXT
  8
1-d
 10
254.9998
 20
157.4999
 40
25
 41
1
 50
0
  1
図
  0
TEXT
  8
1-d
 10
254.9998
 20
97.49997
 40
25
 41
1
 50
0
  1
番
  0
TEXT
  8
1-d
 10
655.00046
 20
157.4999
 40
25
 41
1
 50
0
  1
承
  0
TEXT
  8
1-d
 10
655.00046
 20
97.49997
 40
25
 41
1
 50
0
  1
認
  0
TEXT
  8
1-d
 10
1020.0003
 20
237.49996
 40
25
 41
1
 50
0
  1
尺
  0
TEXT
  8
1-d
 10
1020.0003
 20
197.49979
 40
25
 41
1
 50
0.0000762
  1
度
  0
TEXT
  8
1-d
 10
855.00014
 20
157.4999
 40
25
 41
1
 50
0
  1
製
  0
TEXT
  8
1-d
 10
855.00014
 20
97.49997
 40
25
 41
1
 50
0
  1
図
  0
TEXT
  8
1-d
 10
1555.0001
 20
237.49996
 40
25
 41
1
 50
0
  1
日
  0
TEXT
  8
1-d
 10
1555.0001
 20
197.49979
 40
25
 41
1
 50
0.0000762
  1
付
  0
TEXT
  8
1-d
 10
1111.4263
 20
163.48226
 40
20
 41
1
 50
0
  1
株式
  0
TEXT
  8
1-d
 10
1111.4263
 20
141.85181
 40
20
 41
1
 50
0.0000152
  1
会社
  0
TEXT
  8
1-d
 10
1174.2247
 20
143.24712
 40
40
 41
1
 50
0
  1
スズキベンチレーター
  0
TEXT
  8
1-d
 10
1237.9182
 20
94.024183
 40
20
 41
1
 50
0
  1
TEL(054)296-7000  FAX(054)296-7001
  0
TEXT
  8
1-8
 10
1012.1397
 20
2412.0615
 40
30
 41
1
 50
0
  1
1,130
  0
TEXT
  8
1-8
 10
1509.9998
 20
2099.2097
 40
30
 41
1
 50
90
  1
275
  0
TEXT
  8
1-8
 10
1509.9998
 20
2234.2097
 40
30
 41
1
 50
90
  1
130
  0
TEXT
  8
1-8
 10
563.33359
 20
2065.8759
 40
30
 41
1
 50
90
  1
690
  0
TEXT
  8
1-8
 10
1509.9998
 20
1930.8769
 40
30
 41
1
 50
90
  1
225
  0
TEXT
  8
1-8
 10
1509.9998
 20
1845.4604
 40
30
 41
1
 50
90
  1
60
  0
TEXT
  8
1-8
 10
1378.9384
 20
1983.2099
 40
30
 41
1
 50
90
  1
370
  0
TEXT
  8
1-8
 10
1015.8334
 20
1723.503
 40
30
 41
1
 50
0
  1
970*970
  0
TEXT
  8
1-d
 10
1084.349
 20
210.10066
 40
40
 41
1
 50
0
  1
１／１５
  0
TEXT
  8
1-d
 10
308.45927
 20
140.30214
 40
30
 41
1
 50
0
  1
75-E04b
  0
TEXT
  8
1-d
 10
255.00006
 20
2792.7014
 40
50
 41
1
 50
0
  1
ＳＴ－７５　架台型（網付）断面
  0
TEXT
  8
1-d
 10
280.6757
 20
215.81083
 40
30
 41
1
 50
0
  1
ＳＴ－７５　架台型（網付）断面
  0
TEXT
  8
1-d
 10
1235.6794
 20
118.64593
 40
20
 41
1
 50
0
  1
〒421-2114　静岡市葵区安倍口新田１５２番地
  0
POINT
  8
1-8
 62
    2
 10
583.33365
 20
1840.0427
  0
POINT
  8
1-8
 62
    2
 10
583.33365
 20
2300.0428
  0
POINT
  8
1-8
 62
    2
 10
672.66673
 20
2403.0631
  0
POINT
  8
1-8
 62
    2
 10
1427.3344
 20
2403.0626
  0
POINT
  8
1-8
 62
    2
 10
1516.6665
 20
2030.0434
  0
POINT
  8
1-8
 62
    2
 10
1516.6665
 20
2213.3765
  0
POINT
  8
1-8
 62
    2
 10
1516.6665
 20
2300.0428
  0
POINT
  8
1-8
 62
    2
 10
1516.6665
 20
1880.0439
  0
POINT
  8
1-8
 62
    2
 10
1385.605
 20
1880.0426
  0
POINT
  8
1-8
 62
    2
 10
1385.6051
 20
2131.3772
  0
POINT
  8
1-8
 62
    2
 10
1516.6665
 20
1840.044
  0
POINT
  8
1-8
 62
    2
 10
726.66708
 20
1716.8363
  0
POINT
  8
1-8
 62
    2
 10
1373.3333
 20
1716.8363
  0
ENDSEC
  0
EOF
