  0
SECTION
  2
HEADER
  9
$EXTMIN
 10
0
 20
0
  9
$EXTMAX
 10
4200
 20
2970
  0
ENDSEC
  0
SECTION
  2
TABLES
  0
TABLE
  2
LTYPE
 70
     9
  0
LTYPE
  2
CONTINUOUS
 70
    64
  3
実線
 72
    65
 73
     0
 40
0.0
  0
LTYPE
  2
DASHED1
 70
    64
  3
--  --  --  --  --  --  --  --  
 72
    65
 73
     2
 40
2.5
 49
1.25
 49
-1.25
  0
LTYPE
  2
DASHED2
 70
    64
  3
----    ----    ----    ----    
 72
    65
 73
     2
 40
5.0
 49
2.5
 49
-2.5
  0
LTYPE
  2
DASHED3
 70
    64
  3
------  ------  ------  ------  
 72
    65
 73
     2
 40
5.0
 49
3.75
 49
-1.25
  0
LTYPE
  2
CENTER1
 70
    64
  3
----- - ----- - ----- - ----- - 
 72
    65
 73
     4
 40
10.0
 49
6.25
 49
-1.25
 49
1.25
 49
-1.25
  0
LTYPE
  2
CENTER2
 70
    64
  3
----------  --  ----------  --  
 72
    65
 73
     4
 40
20.0
 49
12.5
 49
-2.5
 49
2.5
 49
-2.5
  0
LTYPE
  2
PHANTOM1
 70
    64
  3
--- - - --- - - --- - - --- - - 
 72
    65
 73
     6
 40
10.0
 49
3.25
 49
-1.25
 49
1.25
 49
-1.25
 49
1.25
 49
-1.25
  0
LTYPE
  2
PHANTOM2
 70
    64
  3
--------  -  -  --------  -  -  
 72
    65
 73
     6
 40
20.0
 49
10.0
 49
-2.5
 49
1.25
 49
-2.5
 49
1.25
 49
-2.5
  0
LTYPE
  2
DOT
 70
    64
  3
-   -   -   -   -   -   -   -   
 72
    65
 73
     2
 40
2.5
 49
0.625
 49
-1.875
  0
ENDTAB
  0
TABLE
  2
STYLE
 70
    1
  0
STYLE
  2
STANDARD
 70
    64
 40
0.0
 41
1.0
 42
0.0
 50
0.0
 71
     0
  3
TXT
  4
BIGFONT
  0
ENDTAB
  0
TABLE
  2
LAYER
 70
    6
  0
LAYER
  2
1-0
 70
   64
 62
    7
  6
CONTINUOUS
  0
LAYER
  2
1-1
 70
   64
 62
    7
  6
CONTINUOUS
  0
LAYER
  2
1-2
 70
   64
 62
    7
  6
CONTINUOUS
  0
LAYER
  2
1-8
 70
   64
 62
    7
  6
CONTINUOUS
  0
LAYER
  2
1-d
 70
   64
 62
    7
  6
CONTINUOUS
  0
LAYER
  2
ADD_LINE
 70
   64
 62
    7
  6
CONTINUOUS
  0
ENDTAB
  0
ENDSEC
  0
SECTION
  2
ENTITIES
  0
LINE
  8
1-d
  6
CONTINUOUS
 62
    7
 10
250.00006
 20
2757.7013
 11
1850.0001
 21
2757.7013
  0
LINE
  8
1-d
  6
CONTINUOUS
 62
    7
 10
250.00006
 20
2767.7016
 11
1850.0001
 21
2767.7016
  0
LINE
  8
1-d
  6
CONTINUOUS
 62
    7
 10
249.99969
 20
189.99989
 11
1850.0005
 21
189.99989
  0
LINE
  8
1-d
  6
CONTINUOUS
 62
    7
 10
249.99969
 20
89.999806
 11
249.99969
 21
269.99991
  0
LINE
  8
1-d
  6
CONTINUOUS
 62
    7
 10
249.99969
 20
89.999806
 11
1850.0005
 21
89.999806
  0
LINE
  8
1-d
  6
CONTINUOUS
 62
    7
 10
1850.0005
 20
269.99991
 11
1850.0005
 21
89.999806
  0
LINE
  8
1-d
  6
CONTINUOUS
 62
    7
 10
249.99969
 20
269.99991
 11
1850.0005
 21
269.99991
  0
LINE
  8
1-d
  6
CONTINUOUS
 62
    7
 10
1050
 20
269.99991
 11
1050
 21
89.999806
  0
LINE
  8
1-d
  6
CONTINUOUS
 62
    7
 10
650.00019
 20
89.999806
 11
650.00019
 21
189.99989
  0
LINE
  8
1-d
  6
CONTINUOUS
 62
    7
 10
1050
 20
189.99989
 11
1050
 21
269.99991
  0
LINE
  8
1-d
  6
CONTINUOUS
 62
    7
 10
849.99981
 20
89.999806
 11
849.99981
 21
189.99989
  0
LINE
  8
1-d
  6
CONTINUOUS
 62
    7
 10
285.00002
 20
89.999806
 11
285.00002
 21
189.99989
  0
LINE
  8
1-d
  6
CONTINUOUS
 62
    7
 10
685.00006
 20
89.999806
 11
685.00006
 21
189.99989
  0
LINE
  8
1-d
  6
CONTINUOUS
 62
    7
 10
885.00018
 20
89.999806
 11
885.00018
 21
189.99989
  0
LINE
  8
1-d
  6
CONTINUOUS
 62
    7
 10
1015
 20
189.99989
 11
1015
 21
269.99991
  0
LINE
  8
1-d
  6
CONTINUOUS
 62
    7
 10
1550.0004
 20
189.99989
 11
1550.0004
 21
269.99991
  0
LINE
  8
1-d
  6
CONTINUOUS
 62
    7
 10
1585.0002
 20
189.99989
 11
1585.0002
 21
269.99991
  0
LINE
  8
1-8
  6
CONTINUOUS
 62
    7
 10
583.33365
 20
1840.0427
 11
583.33365
 21
2300.0428
  0
LINE
  8
1-8
  6
CONTINUOUS
 62
    7
 10
672.66673
 20
2403.0631
 11
1427.3344
 21
2403.0626
  0
LINE
  8
1-2
  6
CONTINUOUS
 62
    3
 10
672.66673
 20
2030.0434
 11
1050
 21
2030.0434
  0
LINE
  8
1-8
  6
CONTINUOUS
 62
    7
 10
1516.6665
 20
2030.0434
 11
1516.6665
 21
2213.3765
  0
LINE
  8
1-8
  6
CONTINUOUS
 62
    7
 10
1516.6665
 20
2213.3765
 11
1516.6665
 21
2300.0428
  0
LINE
  8
1-8
  6
CONTINUOUS
 62
    7
 10
1516.6665
 20
1880.0439
 11
1516.6665
 21
2030.0434
  0
LINE
  8
1-2
  6
CONTINUOUS
 62
    3
 10
795.00006
 20
1950.0438
 11
795.00006
 21
2030.0434
  0
LINE
  8
1-2
  6
CONTINUOUS
 62
    3
 10
672.66673
 20
2053.3767
 11
672.66673
 21
2030.0434
  0
LINE
  8
1-2
  6
CONTINUOUS
 62
    3
 10
672.66673
 20
2093.3768
 11
672.66673
 21
2063.3765
  0
LINE
  8
1-2
  6
CONTINUOUS
 62
    3
 10
672.66673
 20
2213.3765
 11
672.66673
 21
2103.3766
  0
LINE
  8
1-2
  6
CONTINUOUS
 62
    3
 10
795.00006
 20
1950.0438
 11
1050
 21
1950.0438
  0
LINE
  8
1-2
  6
CONTINUOUS
 62
    3
 10
795.00006
 20
1940.0438
 11
1050
 21
1940.0438
  0
LINE
  8
1-2
  6
CONTINUOUS
 62
    3
 10
672.66673
 20
2103.3766
 11
1050
 21
2103.3766
  0
LINE
  8
1-2
  6
CONTINUOUS
 62
    3
 10
672.66673
 20
2093.3768
 11
1050
 21
2093.3768
  0
LINE
  8
1-2
  6
CONTINUOUS
 62
    3
 10
672.66673
 20
2063.3765
 11
1050
 21
2063.3765
  0
LINE
  8
1-2
  6
CONTINUOUS
 62
    3
 10
672.66673
 20
2053.3767
 11
1050
 21
2053.3767
  0
LINE
  8
1-2
  6
CONTINUOUS
 62
    3
 10
1373.3333
 20
1880.0426
 11
726.6667
 21
1880.0426
  0
LINE
  8
1-8
  6
CONTINUOUS
 62
    7
 10
1516.6665
 20
1840.044
 11
1516.6665
 21
1880.0439
  0
LINE
  8
1-8
  6
CONTINUOUS
 62
    7
 10
726.66708
 20
1716.8363
 11
1373.3333
 21
1716.8363
  0
LINE
  8
1-2
  6
CONTINUOUS
 62
    3
 10
726.6667
 20
1880.0426
 11
830.59168
 21
1940.0438
  0
LINE
  8
1-2
  6
CONTINUOUS
 62
    3
 10
795.00006
 20
1940.0438
 11
795.00006
 21
1919.4949
  0
LINE
  8
1-2
  6
CONTINUOUS
 62
    3
 10
830.59168
 20
1940.0438
 11
830.59168
 21
1880.0426
  0
LINE
  8
1-8
  6
CONTINUOUS
 62
    7
 10
672.66673
 20
2255.8785
 11
672.66673
 21
2403.0631
  0
LINE
  8
1-8
  6
CONTINUOUS
 62
    7
 10
1452.8203
 20
2300.0428
 11
1516.6665
 21
2300.0428
  0
LINE
  8
1-8
  6
CONTINUOUS
 62
    7
 10
1452.8203
 20
2213.3765
 11
1516.6665
 21
2213.3765
  0
LINE
  8
1-8
  6
CONTINUOUS
 62
    7
 10
1452.8203
 20
1880.0439
 11
1516.6665
 21
1880.0439
  0
LINE
  8
1-8
  6
CONTINUOUS
 62
    7
 10
1452.8203
 20
2030.0434
 11
1516.6665
 21
2030.0434
  0
LINE
  8
1-8
  6
CONTINUOUS
 62
    7
 10
1452.8203
 20
1840.044
 11
1516.6665
 21
1840.044
  0
LINE
  8
1-8
  6
CONTINUOUS
 62
    7
 10
1373.3333
 20
1809.4626
 11
1373.3333
 21
1716.8363
  0
LINE
  8
1-2
  6
CONTINUOUS
 62
    3
 10
1373.3333
 20
1840.0427
 11
726.66708
 21
1840.0427
  0
LINE
  8
1-8
  6
CONTINUOUS
 62
    7
 10
643.98555
 20
2300.0428
 11
583.33365
 21
2300.0428
  0
LINE
  8
1-8
  6
CONTINUOUS
 62
    7
 10
644.65333
 20
1840.0427
 11
583.33365
 21
1840.0427
  0
LINE
  8
1-2
  6
CONTINUOUS
 62
    3
 10
726.6667
 20
1880.0426
 11
726.6667
 21
1840.0427
  0
LINE
  8
1-8
  6
CONTINUOUS
 62
    7
 10
726.66708
 20
1809.4626
 11
726.66708
 21
1716.8363
  0
LINE
  8
ADD_LINE
  6
DOT
 62
    4
 10
795.00006
 20
1785.3048
 11
795.00006
 21
2343.5031
  0
LINE
  8
ADD_LINE
  6
DOT
 62
    4
 10
1305.0001
 20
1785.3048
 11
1305.0001
 21
2343.5031
  0
LINE
  8
ADD_LINE
  6
DOT
 62
    4
 10
465.31531
 20
2300.0428
 11
1661.7119
 21
2300.0428
  0
LINE
  8
ADD_LINE
  6
DOT
 62
    4
 10
465.31531
 20
2213.3762
 11
1661.7119
 21
2213.3762
  0
LINE
  8
ADD_LINE
  6
DOT
 62
    4
 10
465.31531
 20
2030.0426
 11
1661.7119
 21
2030.0426
  0
LINE
  8
ADD_LINE
  6
DOT
 62
    4
 10
465.31531
 20
1880.0426
 11
1661.7119
 21
1880.0426
  0
LINE
  8
ADD_LINE
  6
DOT
 62
    4
 10
465.31531
 20
1840.0427
 11
1661.7119
 21
1840.0427
  0
LINE
  8
ADD_LINE
  6
DOT
 62
    4
 10
1373.3333
 20
2006.5418
 11
1373.3333
 21
1697.9953
  0
LINE
  8
ADD_LINE
  6
DOT
 62
    4
 10
726.6667
 20
2006.5418
 11
726.6667
 21
1697.9953
  0
LINE
  8
1-2
  6
CONTINUOUS
 62
    3
 10
672.66673
 20
2213.3765
 11
1050
 21
2213.3765
  0
LINE
  8
1-2
  6
CONTINUOUS
 62
    3
 10
1050
 20
2300.0428
 11
657.56678
 21
2209.9081
  0
LINE
  8
1-8
  6
CONTINUOUS
 62
    7
 10
1427.3344
 20
2255.8785
 11
1427.3344
 21
2403.0626
  0
LINE
  8
1-1
  6
CENTER2
 62
    7
 10
1050
 20
2369.3695
 11
1050
 21
1763.9641
  0
LINE
  8
1-2
  6
CONTINUOUS
 62
    3
 10
1427.3331
 20
2030.0434
 11
1049.9999
 21
2030.0434
  0
LINE
  8
1-2
  6
CONTINUOUS
 62
    3
 10
1304.9999
 20
1950.0438
 11
1304.9999
 21
2030.0434
  0
LINE
  8
1-2
  6
CONTINUOUS
 62
    3
 10
1427.3331
 20
2053.3767
 11
1427.3331
 21
2030.0434
  0
LINE
  8
1-2
  6
CONTINUOUS
 62
    3
 10
1427.3331
 20
2093.3768
 11
1427.3331
 21
2063.3765
  0
LINE
  8
1-2
  6
CONTINUOUS
 62
    3
 10
1427.3331
 20
2213.3765
 11
1427.3331
 21
2103.3766
  0
LINE
  8
1-2
  6
CONTINUOUS
 62
    3
 10
1304.9999
 20
1950.0438
 11
1049.9999
 21
1950.0438
  0
LINE
  8
1-2
  6
CONTINUOUS
 62
    3
 10
1304.9999
 20
1940.0438
 11
1049.9999
 21
1940.0438
  0
LINE
  8
1-2
  6
CONTINUOUS
 62
    3
 10
1427.3331
 20
2103.3766
 11
1049.9999
 21
2103.3766
  0
LINE
  8
1-2
  6
CONTINUOUS
 62
    3
 10
1427.3331
 20
2093.3768
 11
1049.9999
 21
2093.3768
  0
LINE
  8
1-2
  6
CONTINUOUS
 62
    3
 10
1427.3331
 20
2063.3765
 11
1049.9999
 21
2063.3765
  0
LINE
  8
1-2
  6
CONTINUOUS
 62
    3
 10
1427.3331
 20
2053.3767
 11
1049.9999
 21
2053.3767
  0
LINE
  8
1-2
  6
CONTINUOUS
 62
    3
 10
1373.3332
 20
1880.0426
 11
1269.4084
 21
1940.0438
  0
LINE
  8
1-2
  6
CONTINUOUS
 62
    3
 10
1304.9999
 20
1940.0438
 11
1304.9999
 21
1919.4949
  0
LINE
  8
1-2
  6
CONTINUOUS
 62
    3
 10
1269.4084
 20
1940.0438
 11
1269.4084
 21
1880.0426
  0
LINE
  8
1-2
  6
CONTINUOUS
 62
    3
 10
1373.3332
 20
1880.0426
 11
1373.3332
 21
1840.0427
  0
LINE
  8
1-2
  6
CONTINUOUS
 62
    3
 10
1427.3331
 20
2213.3765
 11
1049.9999
 21
2213.3765
  0
LINE
  8
1-2
  6
CONTINUOUS
 62
    3
 10
1049.9999
 20
2300.0428
 11
1442.4331
 21
2209.9081
  0
LINE
  8
ADD_LINE
  6
DOT
 62
    4
 10
672.66673
 20
2403.0631
 11
672.66673
 21
1911.0706
  0
LINE
  8
ADD_LINE
  6
DOT
 62
    4
 10
1427.3334
 20
2403.0626
 11
1427.3334
 21
1921.8815
  0
ARC
  8
1-2
  6
CONTINUOUS
 62
    3
 10
795.00006
 20
1945.0438
 40
5.0000167
 50
90
 51
270
  0
ARC
  8
1-2
  6
CONTINUOUS
 62
    3
 10
672.66673
 20
2098.3766
 40
5.0000167
 50
90
 51
270
  0
ARC
  8
1-2
  6
CONTINUOUS
 62
    3
 10
672.66673
 20
2058.3765
 40
5.0000167
 50
90
 51
270
  0
ARC
  8
1-2
  6
CONTINUOUS
 62
    3
 10
1304.9999
 20
1945.0438
 40
5.0000167
 50
270
 51
90
  0
ARC
  8
1-2
  6
CONTINUOUS
 62
    3
 10
1427.3331
 20
2098.3766
 40
5.0000167
 50
270
 51
90
  0
ARC
  8
1-2
  6
CONTINUOUS
 62
    3
 10
1427.3331
 20
2058.3765
 40
5.0000167
 50
270
 51
90
  0
TEXT
  8
1-d
 10
254.9998
 20
157.4999
 40
25
 41
1
 50
0
  1
図
  0
TEXT
  8
1-d
 10
254.9998
 20
97.49997
 40
25
 41
1
 50
0
  1
番
  0
TEXT
  8
1-d
 10
655.00046
 20
157.4999
 40
25
 41
1
 50
0
  1
承
  0
TEXT
  8
1-d
 10
655.00046
 20
97.49997
 40
25
 41
1
 50
0
  1
認
  0
TEXT
  8
1-d
 10
1020.0003
 20
237.49996
 40
25
 41
1
 50
0
  1
尺
  0
TEXT
  8
1-d
 10
1020.0003
 20
197.49979
 40
25
 41
1
 50
0.0000762
  1
度
  0
TEXT
  8
1-d
 10
855.00014
 20
157.4999
 40
25
 41
1
 50
0
  1
製
  0
TEXT
  8
1-d
 10
855.00014
 20
97.49997
 40
25
 41
1
 50
0
  1
図
  0
TEXT
  8
1-d
 10
1555.0001
 20
237.49996
 40
25
 41
1
 50
0
  1
日
  0
TEXT
  8
1-d
 10
1555.0001
 20
197.49979
 40
25
 41
1
 50
0.0000762
  1
付
  0
TEXT
  8
1-d
 10
1111.4263
 20
163.48226
 40
20
 41
1
 50
0
  1
株式
  0
TEXT
  8
1-d
 10
1111.4263
 20
141.85181
 40
20
 41
1
 50
0.0000152
  1
会社
  0
TEXT
  8
1-d
 10
1174.2247
 20
143.24712
 40
40
 41
1
 50
0
  1
スズキベンチレーター
  0
TEXT
  8
1-d
 10
1237.9182
 20
94.024183
 40
20
 41
1
 50
0
  1
TEL(054)296-7000  FAX(054)296-7001
  0
TEXT
  8
1-8
 10
1012.1397
 20
2412.0615
 40
30
 41
1
 50
0
  1
1,130
  0
TEXT
  8
1-8
 10
1509.9998
 20
2099.2097
 40
30
 41
1
 50
90
  1
275
  0
TEXT
  8
1-8
 10
1509.9998
 20
2234.2097
 40
30
 41
1
 50
90
  1
130
  0
TEXT
  8
1-8
 10
563.33359
 20
2065.8759
 40
30
 41
1
 50
90
  1
690
  0
TEXT
  8
1-8
 10
1509.9998
 20
1930.8769
 40
30
 41
1
 50
90
  1
225
  0
TEXT
  8
1-8
 10
1509.9998
 20
1845.4604
 40
30
 41
1
 50
90
  1
60
  0
TEXT
  8
1-8
 10
1015.8334
 20
1723.503
 40
30
 41
1
 50
0
  1
970*970
  0
TEXT
  8
1-d
 10
1084.349
 20
210.10066
 40
40
 41
1
 50
0
  1
１／１５
  0
TEXT
  8
1-d
 10
308.45927
 20
140.30214
 40
30
 41
1
 50
0
  1
75-E01b
  0
TEXT
  8
1-d
 10
255.00006
 20
2792.7014
 40
50
 41
1
 50
0
  1
ＳＴ－７５　架台型立面
  0
TEXT
  8
1-d
 10
280.6757
 20
215.81083
 40
30
 41
1
 50
0
  1
ＳＴ－７５　架台型立面
  0
TEXT
  8
1-d
 10
1235.6794
 20
118.64593
 40
20
 41
1
 50
0
  1
〒421-2114　静岡市葵区安倍口新田１５２番地
  0
POINT
  8
1-8
 62
    2
 10
583.33365
 20
1840.0427
  0
POINT
  8
1-8
 62
    2
 10
583.33365
 20
2300.0428
  0
POINT
  8
1-8
 62
    2
 10
672.66673
 20
2403.0631
  0
POINT
  8
1-8
 62
    2
 10
1427.3344
 20
2403.0626
  0
POINT
  8
1-8
 62
    2
 10
1516.6665
 20
2030.0434
  0
POINT
  8
1-8
 62
    2
 10
1516.6665
 20
2213.3765
  0
POINT
  8
1-8
 62
    2
 10
1516.6665
 20
2300.0428
  0
POINT
  8
1-8
 62
    2
 10
1516.6665
 20
1880.0439
  0
POINT
  8
1-8
 62
    2
 10
1516.6665
 20
1840.044
  0
POINT
  8
1-8
 62
    2
 10
726.66708
 20
1716.8363
  0
POINT
  8
1-8
 62
    2
 10
1373.3333
 20
1716.8363
  0
ENDSEC
  0
EOF
