  0
SECTION
  2
HEADER
  9
$EXTMIN
 10
0
 20
0
  9
$EXTMAX
 10
6300
 20
4455
  0
ENDSEC
  0
SECTION
  2
TABLES
  0
TABLE
  2
LTYPE
 70
     9
  0
LTYPE
  2
CONTINUOUS
 70
    64
  3
実線
 72
    65
 73
     0
 40
0.0
  0
LTYPE
  2
DASHED1
 70
    64
  3
--  --  --  --  --  --  --  --  
 72
    65
 73
     2
 40
2.5
 49
1.25
 49
-1.25
  0
LTYPE
  2
DASHED2
 70
    64
  3
----    ----    ----    ----    
 72
    65
 73
     2
 40
5.0
 49
2.5
 49
-2.5
  0
LTYPE
  2
DASHED3
 70
    64
  3
------  ------  ------  ------  
 72
    65
 73
     2
 40
5.0
 49
3.75
 49
-1.25
  0
LTYPE
  2
CENTER1
 70
    64
  3
----- - ----- - ----- - ----- - 
 72
    65
 73
     4
 40
10.0
 49
6.25
 49
-1.25
 49
1.25
 49
-1.25
  0
LTYPE
  2
CENTER2
 70
    64
  3
----------  --  ----------  --  
 72
    65
 73
     4
 40
20.0
 49
12.5
 49
-2.5
 49
2.5
 49
-2.5
  0
LTYPE
  2
PHANTOM1
 70
    64
  3
--- - - --- - - --- - - --- - - 
 72
    65
 73
     6
 40
10.0
 49
3.25
 49
-1.25
 49
1.25
 49
-1.25
 49
1.25
 49
-1.25
  0
LTYPE
  2
PHANTOM2
 70
    64
  3
--------  -  -  --------  -  -  
 72
    65
 73
     6
 40
20.0
 49
10.0
 49
-2.5
 49
1.25
 49
-2.5
 49
1.25
 49
-2.5
  0
LTYPE
  2
DOT
 70
    64
  3
-   -   -   -   -   -   -   -   
 72
    65
 73
     2
 40
2.5
 49
0.625
 49
-1.875
  0
ENDTAB
  0
TABLE
  2
STYLE
 70
    1
  0
STYLE
  2
STANDARD
 70
    64
 40
0.0
 41
1.0
 42
0.0
 50
0.0
 71
     0
  3
TXT
  4
BIGFONT
  0
ENDTAB
  0
TABLE
  2
LAYER
 70
    6
  0
LAYER
  2
1-0
 70
   64
 62
    7
  6
CONTINUOUS
  0
LAYER
  2
1-1
 70
   64
 62
    7
  6
CONTINUOUS
  0
LAYER
  2
1-2
 70
   64
 62
    7
  6
CONTINUOUS
  0
LAYER
  2
1-8
 70
   64
 62
    7
  6
CONTINUOUS
  0
LAYER
  2
1-d
 70
   64
 62
    7
  6
CONTINUOUS
  0
LAYER
  2
ADD_LINE
 70
   64
 62
    7
  6
CONTINUOUS
  0
ENDTAB
  0
ENDSEC
  0
SECTION
  2
ENTITIES
  0
LINE
  8
1-d
  6
CONTINUOUS
 62
    7
 10
375.00006
 20
4136.5517
 11
2774.9999
 21
4136.5517
  0
LINE
  8
1-d
  6
CONTINUOUS
 62
    7
 10
375.00006
 20
4151.5521
 11
2774.9999
 21
4151.5521
  0
LINE
  8
1-d
  6
CONTINUOUS
 62
    7
 10
374.99951
 20
284.99981
 11
2775.0005
 21
284.99981
  0
LINE
  8
1-d
  6
CONTINUOUS
 62
    7
 10
374.99951
 20
134.99969
 11
374.99951
 21
404.99984
  0
LINE
  8
1-d
  6
CONTINUOUS
 62
    7
 10
374.99951
 20
134.99969
 11
2775.0005
 21
134.99969
  0
LINE
  8
1-d
  6
CONTINUOUS
 62
    7
 10
2775.0005
 20
404.99984
 11
2775.0005
 21
134.99969
  0
LINE
  8
1-d
  6
CONTINUOUS
 62
    7
 10
374.99951
 20
404.99984
 11
2775.0005
 21
404.99984
  0
LINE
  8
1-d
  6
CONTINUOUS
 62
    7
 10
1574.9999
 20
404.99984
 11
1574.9999
 21
134.99969
  0
LINE
  8
1-d
  6
CONTINUOUS
 62
    7
 10
975.00022
 20
134.99969
 11
975.00022
 21
284.99981
  0
LINE
  8
1-d
  6
CONTINUOUS
 62
    7
 10
1574.9999
 20
284.99981
 11
1574.9999
 21
404.99984
  0
LINE
  8
1-d
  6
CONTINUOUS
 62
    7
 10
1274.9996
 20
134.99969
 11
1274.9996
 21
284.99981
  0
LINE
  8
1-d
  6
CONTINUOUS
 62
    7
 10
427.5
 20
134.99969
 11
427.5
 21
284.99981
  0
LINE
  8
1-d
  6
CONTINUOUS
 62
    7
 10
1027.5
 20
134.99969
 11
1027.5
 21
284.99981
  0
LINE
  8
1-d
  6
CONTINUOUS
 62
    7
 10
1327.5001
 20
134.99969
 11
1327.5001
 21
284.99981
  0
LINE
  8
1-d
  6
CONTINUOUS
 62
    7
 10
1522.4999
 20
284.99981
 11
1522.4999
 21
404.99984
  0
LINE
  8
1-d
  6
CONTINUOUS
 62
    7
 10
2325.0005
 20
284.99981
 11
2325.0005
 21
404.99984
  0
LINE
  8
1-d
  6
CONTINUOUS
 62
    7
 10
2377.5001
 20
284.99981
 11
2377.5001
 21
404.99984
  0
LINE
  8
1-2
  6
CONTINUOUS
 62
    3
 10
917.78372
 20
3726.821
 11
1483.7837
 21
3726.821
  0
LINE
  8
1-8
  6
CONTINUOUS
 62
    7
 10
783.7842
 20
3221.8226
 11
783.7842
 21
3856.8205
  0
LINE
  8
1-8
  6
CONTINUOUS
 62
    7
 10
917.78372
 20
4011.351
 11
2049.7852
 21
4011.3495
  0
LINE
  8
1-8
  6
CONTINUOUS
 62
    7
 10
1101.2836
 20
3119.0696
 11
1866.2835
 21
3119.0696
  0
LINE
  8
1-2
  6
CONTINUOUS
 62
    3
 10
917.78372
 20
3451.8218
 11
1483.7837
 21
3451.8218
  0
LINE
  8
1-8
  6
CONTINUOUS
 62
    7
 10
2183.7831
 20
3451.8218
 11
2183.7831
 21
3726.821
  0
LINE
  8
1-8
  6
CONTINUOUS
 62
    7
 10
2183.7831
 20
3726.821
 11
2183.7831
 21
3856.8205
  0
LINE
  8
1-8
  6
CONTINUOUS
 62
    7
 10
2183.7831
 20
3221.8226
 11
2183.7831
 21
3451.8218
  0
LINE
  8
1-2
  6
CONTINUOUS
 62
    3
 10
1101.2836
 20
3316.8224
 11
1101.2836
 21
3271.8227
  0
LINE
  8
1-2
  6
CONTINUOUS
 62
    3
 10
1101.2836
 20
3331.8225
 11
1101.2836
 21
3451.8218
  0
LINE
  8
1-2
  6
CONTINUOUS
 62
    3
 10
917.78372
 20
3486.8214
 11
917.78372
 21
3451.8218
  0
LINE
  8
1-2
  6
CONTINUOUS
 62
    3
 10
917.78372
 20
3546.8216
 11
917.78372
 21
3501.8214
  0
LINE
  8
1-2
  6
CONTINUOUS
 62
    3
 10
1101.2836
 20
3271.8227
 11
1866.2838
 21
3271.8227
  0
LINE
  8
1-2
  6
CONTINUOUS
 62
    3
 10
1101.2836
 20
3331.8225
 11
1483.7837
 21
3331.8225
  0
LINE
  8
1-2
  6
CONTINUOUS
 62
    3
 10
1101.2836
 20
3316.8224
 11
1483.7837
 21
3316.8224
  0
LINE
  8
1-2
  6
CONTINUOUS
 62
    3
 10
1101.2836
 20
3221.8226
 11
1483.7837
 21
3221.8226
  0
LINE
  8
1-2
  6
CONTINUOUS
 62
    3
 10
1101.2836
 20
3256.8226
 11
1101.2836
 21
3221.8226
  0
LINE
  8
1-2
  6
CONTINUOUS
 62
    3
 10
1101.2836
 20
3256.8226
 11
1866.2838
 21
3256.8204
  0
LINE
  8
1-2
  6
CONTINUOUS
 62
    3
 10
917.78372
 20
3561.8216
 11
1483.7837
 21
3561.8216
  0
LINE
  8
1-2
  6
CONTINUOUS
 62
    3
 10
917.78372
 20
3546.8216
 11
1483.7837
 21
3546.8216
  0
LINE
  8
1-2
  6
CONTINUOUS
 62
    3
 10
917.78372
 20
3501.8214
 11
1483.7837
 21
3501.8214
  0
LINE
  8
1-2
  6
CONTINUOUS
 62
    3
 10
917.78372
 20
3486.8214
 11
1483.7837
 21
3486.8214
  0
LINE
  8
1-8
  6
CONTINUOUS
 62
    7
 10
917.78372
 20
3777.8611
 11
917.78372
 21
4011.351
  0
LINE
  8
1-8
  6
CONTINUOUS
 62
    7
 10
2049.7852
 20
3777.86
 11
2049.7852
 21
4011.3495
  0
LINE
  8
1-8
  6
CONTINUOUS
 62
    7
 10
863.21674
 20
3856.8205
 11
783.7842
 21
3856.8205
  0
LINE
  8
1-8
  6
CONTINUOUS
 62
    7
 10
864.2185
 20
3221.8226
 11
783.7842
 21
3221.8226
  0
LINE
  8
1-8
  6
CONTINUOUS
 62
    7
 10
2088.0139
 20
3856.8205
 11
2183.7831
 21
3856.8205
  0
LINE
  8
1-8
  6
CONTINUOUS
 62
    7
 10
2088.0139
 20
3726.821
 11
2183.7831
 21
3726.821
  0
LINE
  8
1-8
  6
CONTINUOUS
 62
    7
 10
2088.0139
 20
3451.8218
 11
2183.7831
 21
3451.8218
  0
LINE
  8
1-8
  6
CONTINUOUS
 62
    7
 10
2088.0139
 20
3221.8226
 11
2183.7831
 21
3221.8226
  0
LINE
  8
1-8
  6
CONTINUOUS
 62
    7
 10
1866.2835
 20
3194.8263
 11
1866.2835
 21
3119.0696
  0
LINE
  8
1-8
  6
CONTINUOUS
 62
    7
 10
1101.2836
 20
3194.8263
 11
1101.2836
 21
3119.0696
  0
LINE
  8
ADD_LINE
  6
DOT
 62
    4
 10
1101.2836
 20
2936.4865
 11
1101.2836
 21
3952.7029
  0
LINE
  8
ADD_LINE
  6
DOT
 62
    4
 10
1866.2836
 20
2936.4865
 11
1866.2836
 21
3952.7029
  0
LINE
  8
ADD_LINE
  6
DOT
 62
    4
 10
2049.7837
 20
4106.7568
 11
2049.7837
 21
3101.3516
  0
LINE
  8
ADD_LINE
  6
DOT
 62
    4
 10
917.78372
 20
4106.7568
 11
917.78372
 21
3125.6759
  0
LINE
  8
ADD_LINE
  6
DOT
 62
    4
 10
671.6215
 20
3856.8209
 11
2393.243
 21
3856.8209
  0
LINE
  8
ADD_LINE
  6
DOT
 62
    4
 10
671.6215
 20
3726.821
 11
2393.243
 21
3726.821
  0
LINE
  8
ADD_LINE
  6
DOT
 62
    4
 10
671.6215
 20
3451.821
 11
2393.243
 21
3451.821
  0
LINE
  8
ADD_LINE
  6
DOT
 62
    4
 10
671.6215
 20
3221.8211
 11
2393.243
 21
3221.8211
  0
LINE
  8
1-2
  6
CONTINUOUS
 62
    3
 10
1483.7837
 20
3856.8205
 11
895.13388
 21
3721.6185
  0
LINE
  8
1-2
  6
CONTINUOUS
 62
    3
 10
917.78372
 20
3726.821
 11
917.78372
 21
3561.8216
  0
LINE
  8
1-2
  6
CONTINUOUS
 62
    3
 10
2049.7837
 20
3726.821
 11
1483.7837
 21
3726.821
  0
LINE
  8
1-2
  6
CONTINUOUS
 62
    3
 10
2049.7837
 20
3451.8218
 11
1483.7837
 21
3451.8218
  0
LINE
  8
1-2
  6
CONTINUOUS
 62
    3
 10
1866.2838
 20
3316.8224
 11
1866.2838
 21
3271.8227
  0
LINE
  8
1-2
  6
CONTINUOUS
 62
    3
 10
1866.2838
 20
3331.8225
 11
1866.2838
 21
3451.8218
  0
LINE
  8
1-2
  6
CONTINUOUS
 62
    3
 10
2049.7837
 20
3486.8214
 11
2049.7837
 21
3451.8218
  0
LINE
  8
1-2
  6
CONTINUOUS
 62
    3
 10
2049.7837
 20
3546.8216
 11
2049.7837
 21
3501.8214
  0
LINE
  8
1-2
  6
CONTINUOUS
 62
    3
 10
1866.2838
 20
3331.8225
 11
1483.7837
 21
3331.8225
  0
LINE
  8
1-2
  6
CONTINUOUS
 62
    3
 10
1866.2838
 20
3316.8224
 11
1483.7837
 21
3316.8224
  0
LINE
  8
1-2
  6
CONTINUOUS
 62
    3
 10
1866.2838
 20
3221.8226
 11
1483.7837
 21
3221.8226
  0
LINE
  8
1-2
  6
CONTINUOUS
 62
    3
 10
1866.2838
 20
3256.8226
 11
1866.2838
 21
3221.8226
  0
LINE
  8
1-2
  6
CONTINUOUS
 62
    3
 10
2049.7837
 20
3561.8216
 11
1483.7837
 21
3561.8216
  0
LINE
  8
1-2
  6
CONTINUOUS
 62
    3
 10
2049.7837
 20
3546.8216
 11
1483.7837
 21
3546.8216
  0
LINE
  8
1-2
  6
CONTINUOUS
 62
    3
 10
2049.7837
 20
3501.8214
 11
1483.7837
 21
3501.8214
  0
LINE
  8
1-2
  6
CONTINUOUS
 62
    3
 10
2049.7837
 20
3486.8214
 11
1483.7837
 21
3486.8214
  0
LINE
  8
1-2
  6
CONTINUOUS
 62
    3
 10
1483.7837
 20
3856.8205
 11
2072.4337
 21
3721.6185
  0
LINE
  8
1-2
  6
CONTINUOUS
 62
    3
 10
2049.7837
 20
3726.821
 11
2049.7837
 21
3561.8216
  0
LINE
  8
1-8
  6
CONTINUOUS
 62
    7
 10
2483.7832
 20
2330.9409
 11
2483.7832
 21
2800.9397
  0
LINE
  8
1-8
  6
CONTINUOUS
 62
    7
 10
2048.782
 20
2330.9409
 11
2483.7832
 21
2330.9409
  0
LINE
  8
1-8
  6
CONTINUOUS
 62
    7
 10
2048.782
 20
2700.9404
 11
2483.7832
 21
2700.9404
  0
LINE
  8
1-8
  6
CONTINUOUS
 62
    7
 10
2048.782
 20
2800.9397
 11
2483.7832
 21
2800.9397
  0
LINE
  8
1-2
  6
CONTINUOUS
 62
    3
 10
1033.7837
 20
841.08013
 11
1033.7837
 21
1741.0803
  0
LINE
  8
1-2
  6
CONTINUOUS
 62
    3
 10
1033.7837
 20
1741.0803
 11
1933.7837
 21
1741.0803
  0
LINE
  8
1-2
  6
CONTINUOUS
 62
    3
 10
1933.7837
 20
1741.0803
 11
1933.7837
 21
841.08013
  0
LINE
  8
1-2
  6
CONTINUOUS
 62
    3
 10
1933.7837
 20
841.08013
 11
1033.7837
 21
841.08013
  0
LINE
  8
1-2
  6
CONTINUOUS
 62
    3
 10
2173.7837
 20
601.08008
 11
2173.7837
 21
1981.08
  0
LINE
  8
1-2
  6
CONTINUOUS
 62
    3
 10
2173.7837
 20
1981.08
 11
793.78371
 21
1981.08
  0
LINE
  8
1-2
  6
CONTINUOUS
 62
    3
 10
793.78371
 20
1981.08
 11
793.78371
 21
601.08008
  0
LINE
  8
1-2
  6
CONTINUOUS
 62
    3
 10
793.78371
 20
601.08008
 11
2173.7837
 21
601.08008
  0
LINE
  8
1-8
  6
CONTINUOUS
 62
    7
 10
483.78405
 20
601.08008
 11
483.78405
 21
1981.08
  0
LINE
  8
1-8
  6
CONTINUOUS
 62
    7
 10
2483.7841
 20
841.08013
 11
2483.7841
 21
1741.0803
  0
LINE
  8
1-8
  6
CONTINUOUS
 62
    7
 10
1933.7829
 20
2082.1962
 11
1033.8514
 21
2082.1962
  0
LINE
  8
1-2
  6
CONTINUOUS
 62
    3
 10
1033.7837
 20
1741.0803
 11
1139.8498
 21
1635.014
  0
LINE
  8
1-2
  6
CONTINUOUS
 62
    3
 10
1933.7837
 20
1741.0803
 11
1827.7176
 21
1635.014
  0
LINE
  8
1-2
  6
CONTINUOUS
 62
    3
 10
1033.7837
 20
841.08013
 11
1139.8498
 21
947.14588
  0
LINE
  8
1-2
  6
CONTINUOUS
 62
    3
 10
1933.7837
 20
841.08013
 11
1827.7176
 21
947.14588
  0
LINE
  8
1-8
  6
CONTINUOUS
 62
    7
 10
1127.5073
 20
1166.2867
 11
1840.0605
 21
1415.8716
  0
LINE
  8
1-2
  6
CONTINUOUS
 62
    3
 10
1106.2836
 20
2700.9404
 11
1861.2836
 21
2700.9404
  0
LINE
  8
1-2
  6
CONTINUOUS
 62
    3
 10
1106.2836
 20
2800.9397
 11
1861.2836
 21
2800.9397
  0
LINE
  8
1-2
  6
CONTINUOUS
 62
    3
 10
1106.2836
 20
2700.9404
 11
1033.7844
 21
2330.9409
  0
LINE
  8
1-2
  6
CONTINUOUS
 62
    3
 10
1861.2836
 20
2700.9404
 11
1933.7159
 21
2330.4681
  0
LINE
  8
1-8
  6
CONTINUOUS
 62
    7
 10
1861.2838
 20
2952.7025
 11
1106.2838
 21
2952.7025
  0
LINE
  8
1-8
  6
CONTINUOUS
 62
    7
 10
1933.7829
 20
2251.3153
 11
1933.7829
 21
2082.1962
  0
LINE
  8
1-8
  6
CONTINUOUS
 62
    7
 10
1033.8514
 20
2251.3153
 11
1033.8514
 21
2082.1962
  0
LINE
  8
1-8
  6
CONTINUOUS
 62
    7
 10
687.09162
 20
1981.08
 11
483.78405
 21
1981.08
  0
LINE
  8
1-8
  6
CONTINUOUS
 62
    7
 10
687.09162
 20
601.08008
 11
483.78405
 21
601.08008
  0
LINE
  8
1-8
  6
CONTINUOUS
 62
    7
 10
2279.568
 20
1741.0803
 11
2483.7841
 21
1741.0803
  0
LINE
  8
1-8
  6
CONTINUOUS
 62
    7
 10
2279.568
 20
841.08013
 11
2483.7841
 21
841.08013
  0
LINE
  8
1-8
  6
CONTINUOUS
 62
    7
 10
1861.2838
 20
2853.9443
 11
1861.2838
 21
2952.7025
  0
LINE
  8
1-8
  6
CONTINUOUS
 62
    7
 10
1106.2838
 20
2853.9443
 11
1106.2838
 21
2952.7025
  0
LINE
  8
1-d
  6
CONTINUOUS
 62
    7
 10
671.5417
 20
2390.8346
 11
811.14229
 21
2390.8346
  0
LINE
  8
1-d
  6
CONTINUOUS
 62
    7
 10
671.5417
 20
2390.8346
 11
811.14229
 21
2432.7129
  0
LINE
  8
1-d
  6
CONTINUOUS
 62
    7
 10
811.14229
 20
2390.8346
 11
811.14229
 21
2432.7129
  0
LINE
  8
1-1
  6
CENTER2
 62
    7
 10
2173.7837
 20
1291.0797
 11
793.78371
 21
1291.0797
  0
LINE
  8
1-8
  6
CONTINUOUS
 62
    7
 10
2483.7841
 20
601.08008
 11
2483.7841
 21
841.08013
  0
LINE
  8
1-8
  6
CONTINUOUS
 62
    7
 10
2279.568
 20
601.08008
 11
2483.7841
 21
601.08008
  0
LINE
  8
1-8
  6
CONTINUOUS
 62
    7
 10
2483.7841
 20
1741.0803
 11
2483.7841
 21
1981.08
  0
LINE
  8
1-8
  6
CONTINUOUS
 62
    7
 10
2279.568
 20
1981.08
 11
2483.7841
 21
1981.08
  0
LINE
  8
1-2
  6
CONTINUOUS
 62
    3
 10
1106.2836
 20
2763.9399
 11
1106.2836
 21
2700.9404
  0
LINE
  8
1-2
  6
CONTINUOUS
 62
    3
 10
1106.2836
 20
2800.9397
 11
1106.2836
 21
2775.9399
  0
LINE
  8
1-2
  6
CONTINUOUS
 62
    3
 10
1106.2836
 20
2775.9399
 11
1861.2838
 21
2775.9399
  0
LINE
  8
1-2
  6
CONTINUOUS
 62
    3
 10
1861.2838
 20
2800.9397
 11
1861.2838
 21
2775.9399
  0
LINE
  8
1-2
  6
CONTINUOUS
 62
    3
 10
1106.2836
 20
2763.9399
 11
1861.2836
 21
2763.9399
  0
LINE
  8
1-2
  6
CONTINUOUS
 62
    3
 10
1861.2836
 20
2763.9399
 11
1861.2836
 21
2700.9404
  0
LINE
  8
1-2
  6
CONTINUOUS
 62
    3
 10
1483.7837
 20
2465.9521
 11
793.78371
 21
2258.9602
  0
LINE
  8
1-2
  6
CONTINUOUS
 62
    3
 10
2173.7837
 20
2258.5303
 11
1483.7837
 21
2465.9521
  0
LINE
  8
1-1
  6
CENTER2
 62
    7
 10
1483.7837
 20
3952.7025
 11
1483.7837
 21
522.97295
  0
ARC
  8
1-2
  6
CONTINUOUS
 62
    3
 10
1101.2836
 20
3324.3225
 40
7.5000245
 50
90
 51
270
  0
ARC
  8
1-2
  6
CONTINUOUS
 62
    3
 10
1101.2836
 20
3264.3223
 40
7.5000245
 50
90
 51
270
  0
ARC
  8
1-2
  6
CONTINUOUS
 62
    3
 10
917.78372
 20
3554.3216
 40
7.5000245
 50
90
 51
270
  0
ARC
  8
1-2
  6
CONTINUOUS
 62
    3
 10
917.78372
 20
3494.3214
 40
7.5000245
 50
90
 51
270
  0
ARC
  8
1-2
  6
CONTINUOUS
 62
    3
 10
1866.2838
 20
3324.3225
 40
7.5000245
 50
270
 51
90
  0
ARC
  8
1-2
  6
CONTINUOUS
 62
    3
 10
1866.2838
 20
3264.3223
 40
7.5000245
 50
270
 51
90
  0
ARC
  8
1-2
  6
CONTINUOUS
 62
    3
 10
2049.7837
 20
3554.3216
 40
7.5000245
 50
270
 51
90
  0
ARC
  8
1-2
  6
CONTINUOUS
 62
    3
 10
2049.7837
 20
3494.3214
 40
7.5000245
 50
270
 51
90
  0
CIRCLE
  8
1-2
  6
CONTINUOUS
 62
    3
 10
1483.7837
 20
1291.0797
 40
377.49996
  0
ARC
  8
1-2
  6
CONTINUOUS
 62
    3
 10
1106.2836
 20
2769.9401
 40
6.000168
 50
270
 51
90
  0
ARC
  8
1-2
  6
CONTINUOUS
 62
    3
 10
1861.2838
 20
2769.9401
 40
6.000168
 50
90
 51
270
  0
TEXT
  8
1-d
 10
382.49967
 20
236.24984
 40
37.5
 41
1
 50
0
  1
図
  0
TEXT
  8
1-d
 10
382.49967
 20
146.24994
 40
37.5
 41
1
 50
0
  1
番
  0
TEXT
  8
1-d
 10
982.50061
 20
236.24984
 40
37.5
 41
1
 50
0
  1
承
  0
TEXT
  8
1-d
 10
982.50061
 20
146.24994
 40
37.5
 41
1
 50
0
  1
認
  0
TEXT
  8
1-d
 10
1530.0003
 20
356.24991
 40
37.5
 41
1
 50
0
  1
尺
  0
TEXT
  8
1-d
 10
1530.0003
 20
296.24967
 40
37.5
 41
1
 50
0.0000762
  1
度
  0
TEXT
  8
1-d
 10
1282.5001
 20
236.24984
 40
37.5
 41
1
 50
0
  1
製
  0
TEXT
  8
1-d
 10
1282.5001
 20
146.24994
 40
37.5
 41
1
 50
0
  1
図
  0
TEXT
  8
1-d
 10
2332.5
 20
356.24991
 40
37.5
 41
1
 50
0
  1
日
  0
TEXT
  8
1-d
 10
2332.5
 20
296.24967
 40
37.5
 41
1
 50
0.0000762
  1
付
  0
TEXT
  8
1-d
 10
1667.1394
 20
245.22337
 40
30
 41
1
 50
0
  1
株式
  0
TEXT
  8
1-d
 10
1667.1394
 20
212.7777
 40
30
 41
1
 50
0.0000152
  1
会社
  0
TEXT
  8
1-d
 10
1761.3369
 20
214.87067
 40
60
 41
1
 50
0
  1
スズキベンチレーター
  0
TEXT
  8
1-d
 10
1856.8772
 20
141.03626
 40
30
 41
1
 50
0
  1
TEL(054)296-7000  FAX(054)296-7001
  0
TEXT
  8
1-8
 10
753.7841
 20
3505.5701
 40
45
 41
1
 50
90
  1
635
  0
TEXT
  8
1-8
 10
1426.2837
 20
4041.3518
 40
45
 41
1
 50
0
  1
1,130
  0
TEXT
  8
1-8
 10
1449.5093
 20
3137.9346
 40
45
 41
1
 50
0
  1
765
  0
TEXT
  8
1-8
 10
2173.7834
 20
3555.5713
 40
45
 41
1
 50
90
  1
275
  0
TEXT
  8
1-8
 10
2173.7834
 20
3758.0708
 40
45
 41
1
 50
90
  1
130
  0
TEXT
  8
1-8
 10
2173.7834
 20
3303.0721
 40
45
 41
1
 50
90
  1
230
  0
TEXT
  8
1-d
 10
849.21511
 20
2416.2163
 40
45
 41
1
 50
0
  1
3
  0
TEXT
  8
1-d
 10
717.48385
 20
2332.4038
 40
45
 41
1
 50
0
  1
10
  0
TEXT
  8
1-8
 10
2550.5023
 20
1247.2593
 40
45
 41
1
 50
90
  1
900
  0
TEXT
  8
1-8
 10
1422.3093
 20
1317.227
 40
45
 41
1
 50
19.303787
  1
755φ
  0
TEXT
  8
1-8
 10
1438.8173
 20
2127.1959
 40
45
 41
1
 50
0
  1
900
  0
TEXT
  8
1-8
 10
2583.7833
 20
2485.9406
 40
45
 41
1
 50
90
  1
370
  0
TEXT
  8
1-8
 10
2583.7833
 20
2720.94
 40
45
 41
1
 50
90
  1
100
  0
TEXT
  8
1-8
 10
1423.0698
 20
2976.6538
 40
45
 41
1
 50
0
  1
755φ
  0
TEXT
  8
1-8
 10
2543.7841
 20
689.20477
 40
45
 41
1
 50
90
  1
240
  0
TEXT
  8
1-8
 10
2543.7841
 20
1829.2053
 40
45
 41
1
 50
90
  1
240
  0
TEXT
  8
1-8
 10
438.78409
 20
1239.8298
 40
45
 41
1
 50
90
  1
≒　1,380
  0
TEXT
  8
1-d
 10
462.68887
 20
210.4532
 40
45
 41
1
 50
0
  1
75-E01
  0
TEXT
  8
1-d
 10
1626.5234
 20
315.15097
 40
60
 41
1
 50
0
  1
１／１５
  0
TEXT
  8
1-d
 10
411.85877
 20
307.29067
 40
45
 41
1
 50
0
  1
ＳＴ－７５　直付型立面、直付袴立面・平面
  0
TEXT
  8
1-d
 10
382.50006
 20
4189.0519
 40
75
 41
1
 50
0
  1
ＳＴ－７５　直付型立面、直付袴立面・平面
  0
TEXT
  8
1-d
 10
1853.5189
 20
177.96888
 40
30
 41
1
 50
0
  1
〒421-2114　静岡市葵区安倍口新田１５２番地
  0
POINT
  8
1-8
 62
    2
 10
783.7842
 20
3221.8226
  0
POINT
  8
1-8
 62
    2
 10
783.7842
 20
3856.8205
  0
POINT
  8
1-8
 62
    2
 10
917.78372
 20
4011.351
  0
POINT
  8
1-8
 62
    2
 10
2049.7852
 20
4011.3495
  0
POINT
  8
1-8
 62
    2
 10
1101.2836
 20
3119.0696
  0
POINT
  8
1-8
 62
    2
 10
1866.2835
 20
3119.0696
  0
POINT
  8
1-8
 62
    2
 10
2183.7831
 20
3451.8218
  0
POINT
  8
1-8
 62
    2
 10
2183.7831
 20
3726.821
  0
POINT
  8
1-8
 62
    2
 10
2183.7831
 20
3856.8205
  0
POINT
  8
1-8
 62
    2
 10
2183.7831
 20
3221.8226
  0
POINT
  8
1-8
 62
    2
 10
2483.7832
 20
2330.9409
  0
POINT
  8
1-8
 62
    2
 10
2483.7832
 20
2700.9404
  0
POINT
  8
1-8
 62
    2
 10
2483.7832
 20
2800.9397
  0
POINT
  8
1-8
 62
    2
 10
483.78405
 20
601.08008
  0
POINT
  8
1-8
 62
    2
 10
483.78405
 20
1981.08
  0
POINT
  8
1-8
 62
    2
 10
2483.7841
 20
841.08013
  0
POINT
  8
1-8
 62
    2
 10
2483.7841
 20
1741.0803
  0
POINT
  8
1-8
 62
    2
 10
1933.7829
 20
2082.1962
  0
POINT
  8
1-8
 62
    2
 10
1033.8514
 20
2082.1962
  0
POINT
  8
1-8
 62
    2
 10
1127.5073
 20
1166.2867
  0
POINT
  8
1-8
 62
    2
 10
1840.0605
 20
1415.8716
  0
POINT
  8
1-8
 62
    2
 10
1861.2838
 20
2952.7025
  0
POINT
  8
1-8
 62
    2
 10
1106.2838
 20
2952.7025
  0
POINT
  8
1-8
 62
    2
 10
2483.7841
 20
601.08008
  0
POINT
  8
1-8
 62
    2
 10
2483.7841
 20
1981.08
  0
ENDSEC
  0
EOF
