  0
SECTION
  2
HEADER
  9
$EXTMIN
 10
0
 20
0
  9
$EXTMAX
 10
8400
 20
5940
  0
ENDSEC
  0
SECTION
  2
TABLES
  0
TABLE
  2
LTYPE
 70
     9
  0
LTYPE
  2
CONTINUOUS
 70
    64
  3
実線
 72
    65
 73
     0
 40
0.0
  0
LTYPE
  2
DASHED1
 70
    64
  3
--  --  --  --  --  --  --  --  
 72
    65
 73
     2
 40
2.5
 49
1.25
 49
-1.25
  0
LTYPE
  2
DASHED2
 70
    64
  3
----    ----    ----    ----    
 72
    65
 73
     2
 40
5.0
 49
2.5
 49
-2.5
  0
LTYPE
  2
DASHED3
 70
    64
  3
------  ------  ------  ------  
 72
    65
 73
     2
 40
5.0
 49
3.75
 49
-1.25
  0
LTYPE
  2
CENTER1
 70
    64
  3
----- - ----- - ----- - ----- - 
 72
    65
 73
     4
 40
10.0
 49
6.25
 49
-1.25
 49
1.25
 49
-1.25
  0
LTYPE
  2
CENTER2
 70
    64
  3
----------  --  ----------  --  
 72
    65
 73
     4
 40
20.0
 49
12.5
 49
-2.5
 49
2.5
 49
-2.5
  0
LTYPE
  2
PHANTOM1
 70
    64
  3
--- - - --- - - --- - - --- - - 
 72
    65
 73
     6
 40
10.0
 49
3.25
 49
-1.25
 49
1.25
 49
-1.25
 49
1.25
 49
-1.25
  0
LTYPE
  2
PHANTOM2
 70
    64
  3
--------  -  -  --------  -  -  
 72
    65
 73
     6
 40
20.0
 49
10.0
 49
-2.5
 49
1.25
 49
-2.5
 49
1.25
 49
-2.5
  0
LTYPE
  2
DOT
 70
    64
  3
-   -   -   -   -   -   -   -   
 72
    65
 73
     2
 40
2.5
 49
0.625
 49
-1.875
  0
ENDTAB
  0
TABLE
  2
STYLE
 70
    1
  0
STYLE
  2
STANDARD
 70
    64
 40
0.0
 41
1.0
 42
0.0
 50
0.0
 71
     0
  3
TXT
  4
BIGFONT
  0
ENDTAB
  0
TABLE
  2
LAYER
 70
    5
  0
LAYER
  2
0-2
 70
   64
 62
    7
  6
CONTINUOUS
  0
LAYER
  2
0-5
 70
   64
 62
    7
  6
CONTINUOUS
  0
LAYER
  2
0-8
 70
   64
 62
    7
  6
CONTINUOUS
  0
LAYER
  2
0-d
 70
   64
 62
    7
  6
CONTINUOUS
  0
LAYER
  2
ADD_LINE
 70
   64
 62
    7
  6
CONTINUOUS
  0
ENDTAB
  0
ENDSEC
  0
SECTION
  2
ENTITIES
  0
LINE
  8
0-d
  6
CONTINUOUS
 62
    7
 10
500.00006
 20
5515.4027
 11
3700.0002
 21
5515.4027
  0
LINE
  8
0-d
  6
CONTINUOUS
 62
    7
 10
500.00006
 20
5535.4028
 11
3700.0002
 21
5535.4028
  0
LINE
  8
0-d
  6
CONTINUOUS
 62
    7
 10
499.99981
 20
375.13524
 11
3700
 21
375.13524
  0
LINE
  8
0-d
  6
CONTINUOUS
 62
    7
 10
499.99981
 20
175.13519
 11
499.99981
 21
535.13516
  0
LINE
  8
0-d
  6
CONTINUOUS
 62
    7
 10
499.99981
 20
175.13519
 11
3700
 21
175.13519
  0
LINE
  8
0-d
  6
CONTINUOUS
 62
    7
 10
2100.0001
 20
535.13516
 11
2100.0001
 21
175.13519
  0
LINE
  8
0-d
  6
CONTINUOUS
 62
    7
 10
1300
 20
175.13519
 11
1300
 21
375.13524
  0
LINE
  8
0-d
  6
CONTINUOUS
 62
    7
 10
2100.0001
 20
375.13524
 11
2100.0001
 21
535.13516
  0
LINE
  8
0-d
  6
CONTINUOUS
 62
    7
 10
1700
 20
175.13519
 11
1700
 21
375.13524
  0
LINE
  8
0-d
  6
CONTINUOUS
 62
    7
 10
569.99968
 20
175.13519
 11
569.99968
 21
375.13524
  0
LINE
  8
0-d
  6
CONTINUOUS
 62
    7
 10
1369.9996
 20
175.13519
 11
1369.9996
 21
375.13524
  0
LINE
  8
0-d
  6
CONTINUOUS
 62
    7
 10
1769.9996
 20
175.13519
 11
1769.9996
 21
375.13524
  0
LINE
  8
0-d
  6
CONTINUOUS
 62
    7
 10
2029.9999
 20
375.13524
 11
2029.9999
 21
535.13516
  0
LINE
  8
0-d
  6
CONTINUOUS
 62
    7
 10
3099.9999
 20
375.13524
 11
3099.9999
 21
535.13516
  0
LINE
  8
0-d
  6
CONTINUOUS
 62
    7
 10
3169.9997
 20
375.13524
 11
3169.9997
 21
535.13516
  0
LINE
  8
0-d
  6
CONTINUOUS
 62
    7
 10
499.99981
 20
535.13516
 11
3700
 21
535.13516
  0
LINE
  8
0-d
  6
CONTINUOUS
 62
    7
 10
3700
 20
535.13516
 11
3700
 21
175.13519
  0
LINE
  8
0-d
  6
CENTER2
 62
    7
 10
2100.0001
 20
3171.3831
 11
2100.0001
 21
4986.4867
  0
LINE
  8
0-8
  6
CONTINUOUS
 62
    7
 10
1100.0002
 20
5112.1426
 11
3100.0004
 21
5112.1426
  0
LINE
  8
0-8
  6
CONTINUOUS
 62
    7
 10
1099.9997
 20
4787.2194
 11
1100.0002
 21
5112.1426
  0
LINE
  8
0-8
  6
CONTINUOUS
 62
    7
 10
1439.4055
 20
4986.4877
 11
651.0335
 21
4986.4877
  0
LINE
  8
0-8
  6
CONTINUOUS
 62
    7
 10
3100.0004
 20
4787.2194
 11
3100.0004
 21
5112.1426
  0
LINE
  8
0-2
  6
CONTINUOUS
 62
    3
 10
1100.0002
 20
3742.0643
 11
1100.0002
 21
3664.0643
  0
LINE
  8
0-2
  6
CONTINUOUS
 62
    3
 10
1100.0002
 20
3638.0643
 11
1100.0002
 21
3577.3972
  0
LINE
  8
0-2
  6
CONTINUOUS
 62
    3
 10
1100.0002
 20
3577.3972
 11
2100.0001
 21
3577.3972
  0
LINE
  8
0-2
  6
CONTINUOUS
 62
    3
 10
1100.0002
 20
3638.0643
 11
2100.0001
 21
3638.0643
  0
LINE
  8
0-2
  6
CONTINUOUS
 62
    3
 10
1100.0002
 20
3664.0643
 11
2100.0001
 21
3664.0643
  0
LINE
  8
0-2
  6
CONTINUOUS
 62
    3
 10
1100.0002
 20
3742.0643
 11
2100.0001
 21
3742.0643
  0
LINE
  8
0-2
  6
CONTINUOUS
 62
    3
 10
1100.0002
 20
3768.0632
 11
2100.0001
 21
3768.0632
  0
LINE
  8
0-8
  6
CONTINUOUS
 62
    7
 10
1051.8622
 20
3286.4879
 11
651.03276
 21
3286.4879
  0
LINE
  8
0-2
  6
CONTINUOUS
 62
    3
 10
1360.6058
 20
3544.4266
 11
2100.0001
 21
3544.4271
  0
LINE
  8
0-2
  6
CONTINUOUS
 62
    3
 10
1360.6058
 20
3518.4257
 11
2100.0001
 21
3518.4261
  0
LINE
  8
0-2
  6
CONTINUOUS
 62
    3
 10
1360.6058
 20
3577.3972
 11
1360.6058
 21
3544.4266
  0
LINE
  8
0-2
  6
CONTINUOUS
 62
    3
 10
3100.0004
 20
3742.0643
 11
3100.0004
 21
3664.0643
  0
LINE
  8
0-2
  6
CONTINUOUS
 62
    3
 10
3100.0004
 20
3638.0643
 11
3100.0004
 21
3577.3972
  0
LINE
  8
0-2
  6
CONTINUOUS
 62
    3
 10
2839.3938
 20
3544.4271
 11
2100.0001
 21
3544.4271
  0
LINE
  8
0-2
  6
CONTINUOUS
 62
    3
 10
2839.3938
 20
3518.4261
 11
2100.0001
 21
3518.4261
  0
LINE
  8
0-2
  6
CONTINUOUS
 62
    3
 10
1099.9997
 20
4543.0319
 11
1099.9997
 21
4621.0319
  0
LINE
  8
0-2
  6
CONTINUOUS
 62
    3
 10
3100.0004
 20
4543.0319
 11
3100.0004
 21
4621.0319
  0
LINE
  8
0-2
  6
CONTINUOUS
 62
    3
 10
1100.0002
 20
4517.0329
 11
1100.0002
 21
3768.0632
  0
LINE
  8
0-2
  6
CONTINUOUS
 62
    3
 10
3100.0004
 20
4517.0329
 11
3100.0004
 21
3768.0632
  0
LINE
  8
0-2
  6
CONTINUOUS
 62
    3
 10
3100.0004
 20
4707.6992
 11
3100.0004
 21
4647.0319
  0
LINE
  8
0-2
  6
CONTINUOUS
 62
    3
 10
1100.0002
 20
4707.6992
 11
1100.0002
 21
4647.0319
  0
LINE
  8
0-2
  6
CONTINUOUS
 62
    3
 10
1100.0002
 20
4707.6992
 11
2100.0001
 21
4707.6992
  0
LINE
  8
0-2
  6
CONTINUOUS
 62
    3
 10
1099.9997
 20
4647.0319
 11
2100.0001
 21
4647.0319
  0
LINE
  8
0-2
  6
CONTINUOUS
 62
    3
 10
1099.9997
 20
4621.0319
 11
2100.0001
 21
4621.0319
  0
LINE
  8
0-2
  6
CONTINUOUS
 62
    3
 10
1099.9997
 20
4543.0319
 11
2100.0001
 21
4543.0319
  0
LINE
  8
0-2
  6
CONTINUOUS
 62
    3
 10
1099.9997
 20
4517.0329
 11
2100.0001
 21
4517.0329
  0
LINE
  8
0-2
  6
CONTINUOUS
 62
    3
 10
2100.0001
 20
4186.4875
 11
2839.3928
 21
4186.4875
  0
LINE
  8
0-2
  6
CONTINUOUS
 62
    3
 10
2839.3928
 20
4150.1237
 11
2099.9991
 21
4150.1237
  0
LINE
  8
0-2
  6
CONTINUOUS
 62
    3
 10
2839.3928
 20
4124.1222
 11
2099.9991
 21
4124.1222
  0
LINE
  8
0-2
  6
CONTINUOUS
 62
    3
 10
2839.3928
 20
4186.4875
 11
2839.3928
 21
4150.1227
  0
LINE
  8
0-2
  6
CONTINUOUS
 62
    3
 10
2839.3963
 20
4124.1222
 11
2839.3938
 21
3544.4271
  0
LINE
  8
0-2
  6
CONTINUOUS
 62
    3
 10
3100.0004
 20
3768.0632
 11
2839.3948
 21
3768.0632
  0
LINE
  8
0-2
  6
CONTINUOUS
 62
    3
 10
3100.0004
 20
3742.0643
 11
2839.3948
 21
3742.0643
  0
LINE
  8
0-2
  6
CONTINUOUS
 62
    3
 10
3100.0004
 20
3664.0643
 11
2839.3938
 21
3664.0643
  0
LINE
  8
0-2
  6
CONTINUOUS
 62
    3
 10
3100.0004
 20
3638.0643
 11
2839.3938
 21
3638.0643
  0
LINE
  8
0-2
  6
CONTINUOUS
 62
    3
 10
3100.0004
 20
3577.3972
 11
2839.3938
 21
3577.3972
  0
LINE
  8
0-2
  6
CONTINUOUS
 62
    3
 10
2100.0001
 20
4986.4867
 11
2949.6614
 21
4470.7429
  0
LINE
  8
0-2
  6
CONTINUOUS
 62
    3
 10
2949.6614
 20
4470.7429
 11
2100.0001
 21
4470.7429
  0
LINE
  8
0-2
  6
CONTINUOUS
 62
    3
 10
3100.0004
 20
4707.6992
 11
2559.2875
 21
4707.6992
  0
LINE
  8
0-2
  6
CONTINUOUS
 62
    3
 10
3100.0004
 20
4647.0319
 11
2659.2339
 21
4647.0319
  0
LINE
  8
0-2
  6
CONTINUOUS
 62
    3
 10
3100.0004
 20
4621.0319
 11
2702.0677
 21
4621.0319
  0
LINE
  8
0-2
  6
CONTINUOUS
 62
    3
 10
3100.0004
 20
4543.0319
 11
2830.5691
 21
4543.0319
  0
LINE
  8
0-2
  6
CONTINUOUS
 62
    3
 10
3100.0004
 20
4517.0329
 11
2873.401
 21
4517.0329
  0
LINE
  8
0-2
  6
CONTINUOUS
 62
    3
 10
2548.4848
 20
4470.7429
 11
2931.869
 21
4238.0292
  0
LINE
  8
0-2
  6
CONTINUOUS
 62
    3
 10
2548.4848
 20
4507.1067
 11
2548.4848
 21
4470.7429
  0
LINE
  8
0-2
  6
CONTINUOUS
 62
    3
 10
2100.0001
 20
4986.4867
 11
1640.7131
 21
4707.6992
  0
LINE
  8
0-2
  6
CONTINUOUS
 62
    3
 10
1240.0001
 20
3286.4879
 11
2960
 21
3286.4879
  0
LINE
  8
0-2
  6
CONTINUOUS
 62
    3
 10
1240.0001
 20
3286.4879
 11
1240.0001
 21
3356.4879
  0
LINE
  8
0-2
  6
CONTINUOUS
 62
    3
 10
2839.3938
 20
3518.4261
 11
2839.3938
 21
3356.4879
  0
LINE
  8
0-2
  6
CONTINUOUS
 62
    3
 10
2960
 20
3286.4879
 11
2960
 21
3356.4879
  0
LINE
  8
0-5
  6
CONTINUOUS
 62
    3
 10
2548.4848
 20
4714.2564
 11
2100.0001
 21
4714.2564
  0
LINE
  8
0-5
  6
CONTINUOUS
 62
    3
 10
2548.4848
 20
4470.7429
 11
2548.4848
 21
4714.2564
  0
LINE
  8
0-5
  6
CONTINUOUS
 62
    4
 10
2530.3029
 20
4470.7429
 11
2530.3029
 21
4714.2564
  0
LINE
  8
0-5
  6
CONTINUOUS
 62
    4
 10
2512.121
 20
4470.7429
 11
2512.121
 21
4714.2564
  0
LINE
  8
0-5
  6
CONTINUOUS
 62
    4
 10
2493.9396
 20
4470.7429
 11
2493.9396
 21
4714.2564
  0
LINE
  8
0-5
  6
CONTINUOUS
 62
    4
 10
2475.7577
 20
4470.7429
 11
2475.7577
 21
4714.2564
  0
LINE
  8
0-5
  6
CONTINUOUS
 62
    4
 10
2457.5759
 20
4470.7429
 11
2457.5759
 21
4714.2564
  0
LINE
  8
0-5
  6
CONTINUOUS
 62
    4
 10
2439.394
 20
4470.7429
 11
2439.394
 21
4714.2564
  0
LINE
  8
0-5
  6
CONTINUOUS
 62
    4
 10
2421.2121
 20
4470.7429
 11
2421.2121
 21
4714.2564
  0
LINE
  8
0-5
  6
CONTINUOUS
 62
    4
 10
2403.0307
 20
4470.7429
 11
2403.0307
 21
4714.2564
  0
LINE
  8
0-5
  6
CONTINUOUS
 62
    4
 10
2384.8488
 20
4470.7429
 11
2384.8488
 21
4714.2564
  0
LINE
  8
0-5
  6
CONTINUOUS
 62
    4
 10
2366.667
 20
4470.7429
 11
2366.667
 21
4714.2564
  0
LINE
  8
0-5
  6
CONTINUOUS
 62
    4
 10
2348.4851
 20
4470.7429
 11
2348.4851
 21
4714.2564
  0
LINE
  8
0-5
  6
CONTINUOUS
 62
    4
 10
2330.3032
 20
4470.7429
 11
2330.3032
 21
4714.2564
  0
LINE
  8
0-5
  6
CONTINUOUS
 62
    4
 10
2312.1213
 20
4470.7429
 11
2312.1213
 21
4714.2564
  0
LINE
  8
0-5
  6
CONTINUOUS
 62
    4
 10
2293.9394
 20
4470.7429
 11
2293.9394
 21
4714.2564
  0
LINE
  8
0-5
  6
CONTINUOUS
 62
    4
 10
2275.7576
 20
4470.7429
 11
2275.7576
 21
4714.2564
  0
LINE
  8
0-5
  6
CONTINUOUS
 62
    4
 10
2257.5757
 20
4470.7429
 11
2257.5757
 21
4714.2564
  0
LINE
  8
0-5
  6
CONTINUOUS
 62
    4
 10
2239.3938
 20
4470.7429
 11
2239.3938
 21
4714.2564
  0
LINE
  8
0-5
  6
CONTINUOUS
 62
    4
 10
2221.2119
 20
4470.7429
 11
2221.2119
 21
4714.2564
  0
LINE
  8
0-5
  6
CONTINUOUS
 62
    4
 10
2203.03
 20
4470.7429
 11
2203.03
 21
4714.2564
  0
LINE
  8
0-5
  6
CONTINUOUS
 62
    4
 10
2184.8482
 20
4470.7429
 11
2184.8482
 21
4714.2564
  0
LINE
  8
0-5
  6
CONTINUOUS
 62
    4
 10
2166.6663
 20
4470.7429
 11
2166.6663
 21
4714.2564
  0
LINE
  8
0-5
  6
CONTINUOUS
 62
    4
 10
2148.4854
 20
4470.7429
 11
2148.4854
 21
4714.2564
  0
LINE
  8
0-5
  6
CONTINUOUS
 62
    4
 10
2130.3035
 20
4470.7429
 11
2130.3035
 21
4714.2564
  0
LINE
  8
0-5
  6
CONTINUOUS
 62
    4
 10
2112.1216
 20
4470.7429
 11
2112.1216
 21
4714.2564
  0
LINE
  8
0-5
  6
CONTINUOUS
 62
    4
 10
2548.4848
 20
4696.0745
 11
2100.0001
 21
4696.0745
  0
LINE
  8
0-5
  6
CONTINUOUS
 62
    4
 10
2548.4848
 20
4677.8926
 11
2100.0001
 21
4677.8926
  0
LINE
  8
0-5
  6
CONTINUOUS
 62
    4
 10
2548.4848
 20
4659.7112
 11
2100.0001
 21
4659.7112
  0
LINE
  8
0-5
  6
CONTINUOUS
 62
    4
 10
2548.4848
 20
4641.5293
 11
2100.0001
 21
4641.5293
  0
LINE
  8
0-5
  6
CONTINUOUS
 62
    4
 10
2548.4848
 20
4623.3475
 11
2100.0001
 21
4623.3475
  0
LINE
  8
0-5
  6
CONTINUOUS
 62
    4
 10
2548.4848
 20
4605.1656
 11
2100.0001
 21
4605.1656
  0
LINE
  8
0-5
  6
CONTINUOUS
 62
    4
 10
2548.4848
 20
4586.9837
 11
2100.0001
 21
4586.9837
  0
LINE
  8
0-5
  6
CONTINUOUS
 62
    4
 10
2548.4848
 20
4568.8023
 11
2100.0001
 21
4568.8023
  0
LINE
  8
0-5
  6
CONTINUOUS
 62
    4
 10
2548.4848
 20
4550.6204
 11
2100.0001
 21
4550.6204
  0
LINE
  8
0-5
  6
CONTINUOUS
 62
    4
 10
2548.4848
 20
4532.4386
 11
2100.0001
 21
4532.4386
  0
LINE
  8
0-5
  6
CONTINUOUS
 62
    4
 10
2548.4848
 20
4514.2567
 11
2100.0001
 21
4514.2567
  0
LINE
  8
0-5
  6
CONTINUOUS
 62
    4
 10
2548.4848
 20
4496.0748
 11
2100.0001
 21
4496.0748
  0
LINE
  8
0-5
  6
CONTINUOUS
 62
    4
 10
2548.4848
 20
4477.8929
 11
2100.0001
 21
4477.8929
  0
LINE
  8
0-5
  6
CONTINUOUS
 62
    3
 10
2839.3928
 20
4294.1619
 11
2100.0001
 21
4294.1619
  0
LINE
  8
0-5
  6
CONTINUOUS
 62
    3
 10
2839.3928
 20
4186.4875
 11
2839.3928
 21
4294.1619
  0
LINE
  8
0-5
  6
CONTINUOUS
 62
    4
 10
2839.3928
 20
4275.98
 11
2100.0001
 21
4275.98
  0
LINE
  8
0-5
  6
CONTINUOUS
 62
    4
 10
2839.3928
 20
4257.7986
 11
2100.0001
 21
4257.7986
  0
LINE
  8
0-5
  6
CONTINUOUS
 62
    4
 10
2839.3928
 20
4239.6168
 11
2100.0001
 21
4239.6168
  0
LINE
  8
0-5
  6
CONTINUOUS
 62
    4
 10
2839.3928
 20
4221.4349
 11
2100.0001
 21
4221.4349
  0
LINE
  8
0-5
  6
CONTINUOUS
 62
    4
 10
2839.3928
 20
4203.253
 11
2100.0001
 21
4203.253
  0
LINE
  8
0-5
  6
CONTINUOUS
 62
    4
 10
2821.211
 20
4186.4875
 11
2821.211
 21
4294.1619
  0
LINE
  8
0-5
  6
CONTINUOUS
 62
    4
 10
2803.0291
 20
4186.4875
 11
2803.0291
 21
4294.1619
  0
LINE
  8
0-5
  6
CONTINUOUS
 62
    4
 10
2784.8472
 20
4186.4875
 11
2784.8472
 21
4294.1619
  0
LINE
  8
0-5
  6
CONTINUOUS
 62
    4
 10
2766.6653
 20
4186.4875
 11
2766.6653
 21
4294.1619
  0
LINE
  8
0-5
  6
CONTINUOUS
 62
    4
 10
2748.4834
 20
4186.4875
 11
2748.4834
 21
4294.1619
  0
LINE
  8
0-5
  6
CONTINUOUS
 62
    4
 10
2730.3016
 20
4186.4875
 11
2730.3016
 21
4294.1619
  0
LINE
  8
0-5
  6
CONTINUOUS
 62
    4
 10
2712.1197
 20
4186.4875
 11
2712.1197
 21
4294.1619
  0
LINE
  8
0-5
  6
CONTINUOUS
 62
    4
 10
2693.9383
 20
4186.4875
 11
2693.9383
 21
4294.1619
  0
LINE
  8
0-5
  6
CONTINUOUS
 62
    4
 10
2675.7564
 20
4186.4875
 11
2675.7564
 21
4294.1619
  0
LINE
  8
0-5
  6
CONTINUOUS
 62
    4
 10
2657.5745
 20
4186.4875
 11
2657.5745
 21
4294.1619
  0
LINE
  8
0-5
  6
CONTINUOUS
 62
    4
 10
2639.3927
 20
4186.4875
 11
2639.3927
 21
4294.1619
  0
LINE
  8
0-5
  6
CONTINUOUS
 62
    4
 10
2621.2108
 20
4186.4875
 11
2621.2108
 21
4294.1619
  0
LINE
  8
0-5
  6
CONTINUOUS
 62
    4
 10
2603.0294
 20
4186.4875
 11
2603.0294
 21
4294.1619
  0
LINE
  8
0-5
  6
CONTINUOUS
 62
    4
 10
2584.8475
 20
4186.4875
 11
2584.8475
 21
4294.1619
  0
LINE
  8
0-5
  6
CONTINUOUS
 62
    4
 10
2566.6656
 20
4186.4875
 11
2566.6656
 21
4294.1619
  0
LINE
  8
0-5
  6
CONTINUOUS
 62
    4
 10
2548.4838
 20
4186.4875
 11
2548.4838
 21
4294.1619
  0
LINE
  8
0-5
  6
CONTINUOUS
 62
    4
 10
2530.3019
 20
4186.4875
 11
2530.3019
 21
4294.1619
  0
LINE
  8
0-5
  6
CONTINUOUS
 62
    4
 10
2512.12
 20
4186.4875
 11
2512.12
 21
4294.1619
  0
LINE
  8
0-5
  6
CONTINUOUS
 62
    4
 10
2493.9381
 20
4186.4875
 11
2493.9381
 21
4294.1619
  0
LINE
  8
0-5
  6
CONTINUOUS
 62
    4
 10
2475.7563
 20
4186.4875
 11
2475.7563
 21
4294.1619
  0
LINE
  8
0-5
  6
CONTINUOUS
 62
    4
 10
2457.5744
 20
4186.4875
 11
2457.5744
 21
4294.1619
  0
LINE
  8
0-5
  6
CONTINUOUS
 62
    4
 10
2439.3925
 20
4186.4875
 11
2439.3925
 21
4294.1619
  0
LINE
  8
0-5
  6
CONTINUOUS
 62
    4
 10
2421.2106
 20
4186.4875
 11
2421.2106
 21
4294.1619
  0
LINE
  8
0-5
  6
CONTINUOUS
 62
    4
 10
2403.0287
 20
4186.4875
 11
2403.0287
 21
4294.1619
  0
LINE
  8
0-5
  6
CONTINUOUS
 62
    4
 10
2384.8469
 20
4186.4875
 11
2384.8469
 21
4294.1619
  0
LINE
  8
0-5
  6
CONTINUOUS
 62
    4
 10
2366.665
 20
4186.4875
 11
2366.665
 21
4294.1619
  0
LINE
  8
0-5
  6
CONTINUOUS
 62
    4
 10
2348.4831
 20
4186.4875
 11
2348.4831
 21
4294.1619
  0
LINE
  8
0-5
  6
CONTINUOUS
 62
    4
 10
2330.3017
 20
4186.4875
 11
2330.3017
 21
4294.1619
  0
LINE
  8
0-5
  6
CONTINUOUS
 62
    4
 10
2312.1198
 20
4186.4875
 11
2312.1198
 21
4294.1619
  0
LINE
  8
0-5
  6
CONTINUOUS
 62
    4
 10
2293.938
 20
4186.4875
 11
2293.938
 21
4294.1619
  0
LINE
  8
0-5
  6
CONTINUOUS
 62
    4
 10
2275.7561
 20
4186.4875
 11
2275.7561
 21
4294.1619
  0
LINE
  8
0-5
  6
CONTINUOUS
 62
    4
 10
2257.5742
 20
4186.4875
 11
2257.5742
 21
4294.1619
  0
LINE
  8
0-5
  6
CONTINUOUS
 62
    4
 10
2239.3928
 20
4186.4875
 11
2239.3928
 21
4294.1619
  0
LINE
  8
0-5
  6
CONTINUOUS
 62
    4
 10
2221.2109
 20
4186.4875
 11
2221.2109
 21
4294.1619
  0
LINE
  8
0-5
  6
CONTINUOUS
 62
    4
 10
2203.0291
 20
4186.4875
 11
2203.0291
 21
4294.1619
  0
LINE
  8
0-5
  6
CONTINUOUS
 62
    4
 10
2184.8472
 20
4186.4875
 11
2184.8472
 21
4294.1619
  0
LINE
  8
0-5
  6
CONTINUOUS
 62
    4
 10
2166.6653
 20
4186.4875
 11
2166.6653
 21
4294.1619
  0
LINE
  8
0-5
  6
CONTINUOUS
 62
    4
 10
2148.4834
 20
4186.4875
 11
2148.4834
 21
4294.1619
  0
LINE
  8
0-5
  6
CONTINUOUS
 62
    4
 10
2130.3015
 20
4186.4875
 11
2130.3015
 21
4294.1619
  0
LINE
  8
0-5
  6
CONTINUOUS
 62
    4
 10
2112.1197
 20
4186.4875
 11
2112.1197
 21
4294.1619
  0
LINE
  8
0-2
  6
CONTINUOUS
 62
    3
 10
1240.0001
 20
3356.4879
 11
2960
 21
3356.4879
  0
LINE
  8
0-8
  6
CONTINUOUS
 62
    7
 10
651.03276
 20
3286.4879
 11
651.0335
 21
4986.4877
  0
LINE
  8
0-8
  6
CONTINUOUS
 62
    7
 10
1240.0001
 20
3067.0773
 11
2960.0005
 21
3067.0773
  0
LINE
  8
0-8
  6
CONTINUOUS
 62
    7
 10
1240.0001
 20
3229.2395
 11
1240.0001
 21
3067.0773
  0
LINE
  8
0-8
  6
CONTINUOUS
 62
    7
 10
2960.0005
 20
3229.2395
 11
2960.0005
 21
3067.0773
  0
LINE
  8
0-2
  6
CONTINUOUS
 62
    3
 10
1577.1696
 20
3518.4254
 11
1577.1696
 21
3356.4879
  0
LINE
  8
0-2
  6
CONTINUOUS
 62
    3
 10
1240.0001
 20
3356.4879
 11
1519.8784
 21
3518.4257
  0
LINE
  8
0-2
  6
CONTINUOUS
 62
    3
 10
1360.6058
 20
3518.4257
 11
1360.6058
 21
3426.4696
  0
LINE
  8
0-2
  6
CONTINUOUS
 62
    3
 10
2960
 20
3356.4879
 11
2839.3938
 21
3426.4701
  0
LINE
  8
0-8
  6
CONTINUOUS
 62
    7
 10
791.33387
 20
3286.4879
 11
791.33387
 21
3356.4879
  0
LINE
  8
0-8
  6
CONTINUOUS
 62
    7
 10
1051.8622
 20
3286.4879
 11
791.33387
 21
3286.4879
  0
LINE
  8
0-8
  6
CONTINUOUS
 62
    7
 10
1051.8622
 20
3356.4879
 11
791.33387
 21
3356.4879
  0
LINE
  8
0-2
  6
CONTINUOUS
 62
    3
 10
2931.869
 20
4238.0292
 11
2839.3968
 21
4238.0292
  0
LINE
  8
0-2
  6
CONTINUOUS
 62
    3
 10
1100.0002
 20
3768.0636
 11
1097.8489
 21
3767.8661
  0
LINE
  8
0-2
  6
CONTINUOUS
 62
    3
 10
1097.8489
 20
3767.8661
 11
1095.7629
 21
3767.2796
  0
LINE
  8
0-2
  6
CONTINUOUS
 62
    3
 10
1095.7629
 20
3767.2796
 11
1093.8057
 21
3766.322
  0
LINE
  8
0-2
  6
CONTINUOUS
 62
    3
 10
1093.8057
 20
3766.322
 11
1092.0368
 21
3765.0222
  0
LINE
  8
0-2
  6
CONTINUOUS
 62
    3
 10
1092.0368
 20
3765.0222
 11
1090.5097
 21
3763.4199
  0
LINE
  8
0-2
  6
CONTINUOUS
 62
    3
 10
1090.5097
 20
3763.4199
 11
1089.2711
 21
3761.5637
  0
LINE
  8
0-2
  6
CONTINUOUS
 62
    3
 10
1089.2711
 20
3761.5637
 11
1088.3584
 21
3759.51
  0
LINE
  8
0-2
  6
CONTINUOUS
 62
    3
 10
1088.3584
 20
3759.51
 11
1087.7995
 21
3757.3212
  0
LINE
  8
0-2
  6
CONTINUOUS
 62
    3
 10
1087.7995
 20
3757.3212
 11
1087.6113
 21
3755.0637
  0
LINE
  8
0-2
  6
CONTINUOUS
 62
    3
 10
1087.6113
 20
3755.0637
 11
1087.7995
 21
3752.8063
  0
LINE
  8
0-2
  6
CONTINUOUS
 62
    3
 10
1087.7995
 20
3752.8063
 11
1088.3584
 21
3750.6175
  0
LINE
  8
0-2
  6
CONTINUOUS
 62
    3
 10
1088.3584
 20
3750.6175
 11
1089.2711
 21
3748.5638
  0
LINE
  8
0-2
  6
CONTINUOUS
 62
    3
 10
1089.2711
 20
3748.5638
 11
1090.5097
 21
3746.7076
  0
LINE
  8
0-2
  6
CONTINUOUS
 62
    3
 10
1090.5097
 20
3746.7076
 11
1092.0368
 21
3745.1053
  0
LINE
  8
0-2
  6
CONTINUOUS
 62
    3
 10
1092.0368
 20
3745.1053
 11
1093.8057
 21
3743.8055
  0
LINE
  8
0-2
  6
CONTINUOUS
 62
    3
 10
1093.8057
 20
3743.8055
 11
1095.7629
 21
3742.8479
  0
LINE
  8
0-2
  6
CONTINUOUS
 62
    3
 10
1095.7629
 20
3742.8479
 11
1097.8489
 21
3742.2614
  0
LINE
  8
0-2
  6
CONTINUOUS
 62
    3
 10
1097.8489
 20
3742.2614
 11
1100.0002
 21
3742.0639
  0
LINE
  8
0-2
  6
CONTINUOUS
 62
    3
 10
1100.0002
 20
3664.0637
 11
1097.8489
 21
3663.8662
  0
LINE
  8
0-2
  6
CONTINUOUS
 62
    3
 10
1097.8489
 20
3663.8662
 11
1095.7629
 21
3663.2797
  0
LINE
  8
0-2
  6
CONTINUOUS
 62
    3
 10
1095.7629
 20
3663.2797
 11
1093.8057
 21
3662.322
  0
LINE
  8
0-2
  6
CONTINUOUS
 62
    3
 10
1093.8057
 20
3662.322
 11
1092.0368
 21
3661.0223
  0
LINE
  8
0-2
  6
CONTINUOUS
 62
    3
 10
1092.0368
 20
3661.0223
 11
1090.5097
 21
3659.42
  0
LINE
  8
0-2
  6
CONTINUOUS
 62
    3
 10
1090.5097
 20
3659.42
 11
1089.2711
 21
3657.5637
  0
LINE
  8
0-2
  6
CONTINUOUS
 62
    3
 10
1089.2711
 20
3657.5637
 11
1088.3584
 21
3655.51
  0
LINE
  8
0-2
  6
CONTINUOUS
 62
    3
 10
1088.3584
 20
3655.51
 11
1087.7995
 21
3653.3212
  0
LINE
  8
0-2
  6
CONTINUOUS
 62
    3
 10
1087.7995
 20
3653.3212
 11
1087.6113
 21
3651.0638
  0
LINE
  8
0-2
  6
CONTINUOUS
 62
    3
 10
1087.6113
 20
3651.0638
 11
1087.7995
 21
3648.8064
  0
LINE
  8
0-2
  6
CONTINUOUS
 62
    3
 10
1087.7995
 20
3648.8064
 11
1088.3584
 21
3646.6176
  0
LINE
  8
0-2
  6
CONTINUOUS
 62
    3
 10
1088.3584
 20
3646.6176
 11
1089.2711
 21
3644.5639
  0
LINE
  8
0-2
  6
CONTINUOUS
 62
    3
 10
1089.2711
 20
3644.5639
 11
1090.5097
 21
3642.7076
  0
LINE
  8
0-2
  6
CONTINUOUS
 62
    3
 10
1090.5097
 20
3642.7076
 11
1092.0368
 21
3641.1053
  0
LINE
  8
0-2
  6
CONTINUOUS
 62
    3
 10
1092.0368
 20
3641.1053
 11
1093.8057
 21
3639.8056
  0
LINE
  8
0-2
  6
CONTINUOUS
 62
    3
 10
1093.8057
 20
3639.8056
 11
1095.7629
 21
3638.8479
  0
LINE
  8
0-2
  6
CONTINUOUS
 62
    3
 10
1095.7629
 20
3638.8479
 11
1097.8489
 21
3638.2614
  0
LINE
  8
0-2
  6
CONTINUOUS
 62
    3
 10
1097.8489
 20
3638.2614
 11
1100.0002
 21
3638.0639
  0
LINE
  8
0-2
  6
CONTINUOUS
 62
    3
 10
1360.6058
 20
3544.4255
 11
1358.4545
 21
3544.228
  0
LINE
  8
0-2
  6
CONTINUOUS
 62
    3
 10
1358.4545
 20
3544.228
 11
1356.3685
 21
3543.6415
  0
LINE
  8
0-2
  6
CONTINUOUS
 62
    3
 10
1356.3685
 20
3543.6415
 11
1354.4113
 21
3542.6839
  0
LINE
  8
0-2
  6
CONTINUOUS
 62
    3
 10
1354.4113
 20
3542.6839
 11
1352.6424
 21
3541.3841
  0
LINE
  8
0-2
  6
CONTINUOUS
 62
    3
 10
1352.6424
 20
3541.3841
 11
1351.1154
 21
3539.7818
  0
LINE
  8
0-2
  6
CONTINUOUS
 62
    3
 10
1351.1154
 20
3539.7818
 11
1349.8767
 21
3537.9256
  0
LINE
  8
0-2
  6
CONTINUOUS
 62
    3
 10
1349.8767
 20
3537.9256
 11
1348.9641
 21
3535.8719
  0
LINE
  8
0-2
  6
CONTINUOUS
 62
    3
 10
1348.9641
 20
3535.8719
 11
1348.4051
 21
3533.6831
  0
LINE
  8
0-2
  6
CONTINUOUS
 62
    3
 10
1348.4051
 20
3533.6831
 11
1348.2169
 21
3531.4256
  0
LINE
  8
0-2
  6
CONTINUOUS
 62
    3
 10
1348.2169
 20
3531.4256
 11
1348.4051
 21
3529.1682
  0
LINE
  8
0-2
  6
CONTINUOUS
 62
    3
 10
1348.4051
 20
3529.1682
 11
1348.9641
 21
3526.9794
  0
LINE
  8
0-2
  6
CONTINUOUS
 62
    3
 10
1348.9641
 20
3526.9794
 11
1349.8767
 21
3524.9257
  0
LINE
  8
0-2
  6
CONTINUOUS
 62
    3
 10
1349.8767
 20
3524.9257
 11
1351.1154
 21
3523.0695
  0
LINE
  8
0-2
  6
CONTINUOUS
 62
    3
 10
1351.1154
 20
3523.0695
 11
1352.6424
 21
3521.4672
  0
LINE
  8
0-2
  6
CONTINUOUS
 62
    3
 10
1352.6424
 20
3521.4672
 11
1354.4113
 21
3520.1674
  0
LINE
  8
0-2
  6
CONTINUOUS
 62
    3
 10
1354.4113
 20
3520.1674
 11
1356.3685
 21
3519.2098
  0
LINE
  8
0-2
  6
CONTINUOUS
 62
    3
 10
1356.3685
 20
3519.2098
 11
1358.4545
 21
3518.6233
  0
LINE
  8
0-2
  6
CONTINUOUS
 62
    3
 10
1358.4545
 20
3518.6233
 11
1360.6058
 21
3518.4258
  0
LINE
  8
0-2
  6
CONTINUOUS
 62
    3
 10
3100.0004
 20
3742.0639
 11
3102.1517
 21
3742.2614
  0
LINE
  8
0-2
  6
CONTINUOUS
 62
    3
 10
3102.1517
 20
3742.2614
 11
3104.2377
 21
3742.8479
  0
LINE
  8
0-2
  6
CONTINUOUS
 62
    3
 10
3104.2377
 20
3742.8479
 11
3106.1949
 21
3743.8055
  0
LINE
  8
0-2
  6
CONTINUOUS
 62
    3
 10
3106.1949
 20
3743.8055
 11
3107.9639
 21
3745.1053
  0
LINE
  8
0-2
  6
CONTINUOUS
 62
    3
 10
3107.9639
 20
3745.1053
 11
3109.4909
 21
3746.7076
  0
LINE
  8
0-2
  6
CONTINUOUS
 62
    3
 10
3109.4909
 20
3746.7076
 11
3110.7295
 21
3748.5638
  0
LINE
  8
0-2
  6
CONTINUOUS
 62
    3
 10
3110.7295
 20
3748.5638
 11
3111.6422
 21
3750.6175
  0
LINE
  8
0-2
  6
CONTINUOUS
 62
    3
 10
3111.6422
 20
3750.6175
 11
3112.2011
 21
3752.8063
  0
LINE
  8
0-2
  6
CONTINUOUS
 62
    3
 10
3112.2011
 20
3752.8063
 11
3112.3893
 21
3755.0637
  0
LINE
  8
0-2
  6
CONTINUOUS
 62
    3
 10
3112.3893
 20
3755.0637
 11
3112.2011
 21
3757.3212
  0
LINE
  8
0-2
  6
CONTINUOUS
 62
    3
 10
3112.2011
 20
3757.3212
 11
3111.6422
 21
3759.51
  0
LINE
  8
0-2
  6
CONTINUOUS
 62
    3
 10
3111.6422
 20
3759.51
 11
3110.7295
 21
3761.5637
  0
LINE
  8
0-2
  6
CONTINUOUS
 62
    3
 10
3110.7295
 20
3761.5637
 11
3109.4909
 21
3763.4199
  0
LINE
  8
0-2
  6
CONTINUOUS
 62
    3
 10
3109.4909
 20
3763.4199
 11
3107.9639
 21
3765.0222
  0
LINE
  8
0-2
  6
CONTINUOUS
 62
    3
 10
3107.9639
 20
3765.0222
 11
3106.1949
 21
3766.322
  0
LINE
  8
0-2
  6
CONTINUOUS
 62
    3
 10
3106.1949
 20
3766.322
 11
3104.2377
 21
3767.2796
  0
LINE
  8
0-2
  6
CONTINUOUS
 62
    3
 10
3104.2377
 20
3767.2796
 11
3102.1517
 21
3767.8661
  0
LINE
  8
0-2
  6
CONTINUOUS
 62
    3
 10
3102.1517
 20
3767.8661
 11
3100.0004
 21
3768.0636
  0
LINE
  8
0-2
  6
CONTINUOUS
 62
    3
 10
3100.0004
 20
3638.0639
 11
3102.1517
 21
3638.2614
  0
LINE
  8
0-2
  6
CONTINUOUS
 62
    3
 10
3102.1517
 20
3638.2614
 11
3104.2377
 21
3638.8479
  0
LINE
  8
0-2
  6
CONTINUOUS
 62
    3
 10
3104.2377
 20
3638.8479
 11
3106.1949
 21
3639.8056
  0
LINE
  8
0-2
  6
CONTINUOUS
 62
    3
 10
3106.1949
 20
3639.8056
 11
3107.9639
 21
3641.1053
  0
LINE
  8
0-2
  6
CONTINUOUS
 62
    3
 10
3107.9639
 20
3641.1053
 11
3109.4909
 21
3642.7076
  0
LINE
  8
0-2
  6
CONTINUOUS
 62
    3
 10
3109.4909
 20
3642.7076
 11
3110.7295
 21
3644.5639
  0
LINE
  8
0-2
  6
CONTINUOUS
 62
    3
 10
3110.7295
 20
3644.5639
 11
3111.6422
 21
3646.6176
  0
LINE
  8
0-2
  6
CONTINUOUS
 62
    3
 10
3111.6422
 20
3646.6176
 11
3112.2011
 21
3648.8064
  0
LINE
  8
0-2
  6
CONTINUOUS
 62
    3
 10
3112.2011
 20
3648.8064
 11
3112.3893
 21
3651.0638
  0
LINE
  8
0-2
  6
CONTINUOUS
 62
    3
 10
3112.3893
 20
3651.0638
 11
3112.2011
 21
3653.3212
  0
LINE
  8
0-2
  6
CONTINUOUS
 62
    3
 10
3112.2011
 20
3653.3212
 11
3111.6422
 21
3655.51
  0
LINE
  8
0-2
  6
CONTINUOUS
 62
    3
 10
3111.6422
 20
3655.51
 11
3110.7295
 21
3657.5637
  0
LINE
  8
0-2
  6
CONTINUOUS
 62
    3
 10
3110.7295
 20
3657.5637
 11
3109.4909
 21
3659.42
  0
LINE
  8
0-2
  6
CONTINUOUS
 62
    3
 10
3109.4909
 20
3659.42
 11
3107.9639
 21
3661.0223
  0
LINE
  8
0-2
  6
CONTINUOUS
 62
    3
 10
3107.9639
 20
3661.0223
 11
3106.1949
 21
3662.322
  0
LINE
  8
0-2
  6
CONTINUOUS
 62
    3
 10
3106.1949
 20
3662.322
 11
3104.2377
 21
3663.2797
  0
LINE
  8
0-2
  6
CONTINUOUS
 62
    3
 10
3104.2377
 20
3663.2797
 11
3102.1517
 21
3663.8662
  0
LINE
  8
0-2
  6
CONTINUOUS
 62
    3
 10
3102.1517
 20
3663.8662
 11
3100.0004
 21
3664.0637
  0
LINE
  8
0-2
  6
CONTINUOUS
 62
    3
 10
2839.3938
 20
3518.4263
 11
2841.5451
 21
3518.6238
  0
LINE
  8
0-2
  6
CONTINUOUS
 62
    3
 10
2841.5451
 20
3518.6238
 11
2843.6311
 21
3519.2103
  0
LINE
  8
0-2
  6
CONTINUOUS
 62
    3
 10
2843.6311
 20
3519.2103
 11
2845.5883
 21
3520.1679
  0
LINE
  8
0-2
  6
CONTINUOUS
 62
    3
 10
2845.5883
 20
3520.1679
 11
2847.3572
 21
3521.4677
  0
LINE
  8
0-2
  6
CONTINUOUS
 62
    3
 10
2847.3572
 20
3521.4677
 11
2848.8843
 21
3523.07
  0
LINE
  8
0-2
  6
CONTINUOUS
 62
    3
 10
2848.8843
 20
3523.07
 11
2850.1229
 21
3524.9262
  0
LINE
  8
0-2
  6
CONTINUOUS
 62
    3
 10
2850.1229
 20
3524.9262
 11
2851.0356
 21
3526.9799
  0
LINE
  8
0-2
  6
CONTINUOUS
 62
    3
 10
2851.0356
 20
3526.9799
 11
2851.5945
 21
3529.1687
  0
LINE
  8
0-2
  6
CONTINUOUS
 62
    3
 10
2851.5945
 20
3529.1687
 11
2851.7827
 21
3531.4261
  0
LINE
  8
0-2
  6
CONTINUOUS
 62
    3
 10
2851.7827
 20
3531.4261
 11
2851.5945
 21
3533.6835
  0
LINE
  8
0-2
  6
CONTINUOUS
 62
    3
 10
2851.5945
 20
3533.6835
 11
2851.0356
 21
3535.8724
  0
LINE
  8
0-2
  6
CONTINUOUS
 62
    3
 10
2851.0356
 20
3535.8724
 11
2850.1229
 21
3537.9261
  0
LINE
  8
0-2
  6
CONTINUOUS
 62
    3
 10
2850.1229
 20
3537.9261
 11
2848.8843
 21
3539.7823
  0
LINE
  8
0-2
  6
CONTINUOUS
 62
    3
 10
2848.8843
 20
3539.7823
 11
2847.3572
 21
3541.3846
  0
LINE
  8
0-2
  6
CONTINUOUS
 62
    3
 10
2847.3572
 20
3541.3846
 11
2845.5883
 21
3542.6844
  0
LINE
  8
0-2
  6
CONTINUOUS
 62
    3
 10
2845.5883
 20
3542.6844
 11
2843.6311
 21
3543.642
  0
LINE
  8
0-2
  6
CONTINUOUS
 62
    3
 10
2843.6311
 20
3543.642
 11
2841.5451
 21
3544.2285
  0
LINE
  8
0-2
  6
CONTINUOUS
 62
    3
 10
2841.5451
 20
3544.2285
 11
2839.3938
 21
3544.426
  0
LINE
  8
0-2
  6
CONTINUOUS
 62
    3
 10
1099.9997
 20
4543.0328
 11
1097.8484
 21
4542.8353
  0
LINE
  8
0-2
  6
CONTINUOUS
 62
    3
 10
1097.8484
 20
4542.8353
 11
1095.7624
 21
4542.2488
  0
LINE
  8
0-2
  6
CONTINUOUS
 62
    3
 10
1095.7624
 20
4542.2488
 11
1093.8052
 21
4541.2912
  0
LINE
  8
0-2
  6
CONTINUOUS
 62
    3
 10
1093.8052
 20
4541.2912
 11
1092.0363
 21
4539.9914
  0
LINE
  8
0-2
  6
CONTINUOUS
 62
    3
 10
1092.0363
 20
4539.9914
 11
1090.5092
 21
4538.3891
  0
LINE
  8
0-2
  6
CONTINUOUS
 62
    3
 10
1090.5092
 20
4538.3891
 11
1089.2706
 21
4536.5329
  0
LINE
  8
0-2
  6
CONTINUOUS
 62
    3
 10
1089.2706
 20
4536.5329
 11
1088.3579
 21
4534.4792
  0
LINE
  8
0-2
  6
CONTINUOUS
 62
    3
 10
1088.3579
 20
4534.4792
 11
1087.799
 21
4532.2903
  0
LINE
  8
0-2
  6
CONTINUOUS
 62
    3
 10
1087.799
 20
4532.2903
 11
1087.6108
 21
4530.0329
  0
LINE
  8
0-2
  6
CONTINUOUS
 62
    3
 10
1087.6108
 20
4530.0329
 11
1087.799
 21
4527.7755
  0
LINE
  8
0-2
  6
CONTINUOUS
 62
    3
 10
1087.799
 20
4527.7755
 11
1088.3579
 21
4525.5867
  0
LINE
  8
0-2
  6
CONTINUOUS
 62
    3
 10
1088.3579
 20
4525.5867
 11
1089.2706
 21
4523.533
  0
LINE
  8
0-2
  6
CONTINUOUS
 62
    3
 10
1089.2706
 20
4523.533
 11
1090.5092
 21
4521.6768
  0
LINE
  8
0-2
  6
CONTINUOUS
 62
    3
 10
1090.5092
 20
4521.6768
 11
1092.0363
 21
4520.0745
  0
LINE
  8
0-2
  6
CONTINUOUS
 62
    3
 10
1092.0363
 20
4520.0745
 11
1093.8052
 21
4518.7747
  0
LINE
  8
0-2
  6
CONTINUOUS
 62
    3
 10
1093.8052
 20
4518.7747
 11
1095.7624
 21
4517.8171
  0
LINE
  8
0-2
  6
CONTINUOUS
 62
    3
 10
1095.7624
 20
4517.8171
 11
1097.8484
 21
4517.2306
  0
LINE
  8
0-2
  6
CONTINUOUS
 62
    3
 10
1097.8484
 20
4517.2306
 11
1099.9997
 21
4517.0331
  0
LINE
  8
0-2
  6
CONTINUOUS
 62
    3
 10
1099.9997
 20
4647.0318
 11
1097.8484
 21
4646.8343
  0
LINE
  8
0-2
  6
CONTINUOUS
 62
    3
 10
1097.8484
 20
4646.8343
 11
1095.7624
 21
4646.2478
  0
LINE
  8
0-2
  6
CONTINUOUS
 62
    3
 10
1095.7624
 20
4646.2478
 11
1093.8052
 21
4645.2901
  0
LINE
  8
0-2
  6
CONTINUOUS
 62
    3
 10
1093.8052
 20
4645.2901
 11
1092.0363
 21
4643.9904
  0
LINE
  8
0-2
  6
CONTINUOUS
 62
    3
 10
1092.0363
 20
4643.9904
 11
1090.5092
 21
4642.3881
  0
LINE
  8
0-2
  6
CONTINUOUS
 62
    3
 10
1090.5092
 20
4642.3881
 11
1089.2706
 21
4640.5318
  0
LINE
  8
0-2
  6
CONTINUOUS
 62
    3
 10
1089.2706
 20
4640.5318
 11
1088.3579
 21
4638.4781
  0
LINE
  8
0-2
  6
CONTINUOUS
 62
    3
 10
1088.3579
 20
4638.4781
 11
1087.799
 21
4636.2893
  0
LINE
  8
0-2
  6
CONTINUOUS
 62
    3
 10
1087.799
 20
4636.2893
 11
1087.6108
 21
4634.0319
  0
LINE
  8
0-2
  6
CONTINUOUS
 62
    3
 10
1087.6108
 20
4634.0319
 11
1087.799
 21
4631.7745
  0
LINE
  8
0-2
  6
CONTINUOUS
 62
    3
 10
1087.799
 20
4631.7745
 11
1088.3579
 21
4629.5857
  0
LINE
  8
0-2
  6
CONTINUOUS
 62
    3
 10
1088.3579
 20
4629.5857
 11
1089.2706
 21
4627.532
  0
LINE
  8
0-2
  6
CONTINUOUS
 62
    3
 10
1089.2706
 20
4627.532
 11
1090.5092
 21
4625.6757
  0
LINE
  8
0-2
  6
CONTINUOUS
 62
    3
 10
1090.5092
 20
4625.6757
 11
1092.0363
 21
4624.0734
  0
LINE
  8
0-2
  6
CONTINUOUS
 62
    3
 10
1092.0363
 20
4624.0734
 11
1093.8052
 21
4622.7737
  0
LINE
  8
0-2
  6
CONTINUOUS
 62
    3
 10
1093.8052
 20
4622.7737
 11
1095.7624
 21
4621.816
  0
LINE
  8
0-2
  6
CONTINUOUS
 62
    3
 10
1095.7624
 20
4621.816
 11
1097.8484
 21
4621.2295
  0
LINE
  8
0-2
  6
CONTINUOUS
 62
    3
 10
1097.8484
 20
4621.2295
 11
1099.9997
 21
4621.032
  0
LINE
  8
0-2
  6
CONTINUOUS
 62
    3
 10
3100.0004
 20
4517.0331
 11
3102.1517
 21
4517.2306
  0
LINE
  8
0-2
  6
CONTINUOUS
 62
    3
 10
3102.1517
 20
4517.2306
 11
3104.2377
 21
4517.8171
  0
LINE
  8
0-2
  6
CONTINUOUS
 62
    3
 10
3104.2377
 20
4517.8171
 11
3106.1949
 21
4518.7747
  0
LINE
  8
0-2
  6
CONTINUOUS
 62
    3
 10
3106.1949
 20
4518.7747
 11
3107.9639
 21
4520.0745
  0
LINE
  8
0-2
  6
CONTINUOUS
 62
    3
 10
3107.9639
 20
4520.0745
 11
3109.4909
 21
4521.6768
  0
LINE
  8
0-2
  6
CONTINUOUS
 62
    3
 10
3109.4909
 20
4521.6768
 11
3110.7295
 21
4523.533
  0
LINE
  8
0-2
  6
CONTINUOUS
 62
    3
 10
3110.7295
 20
4523.533
 11
3111.6422
 21
4525.5867
  0
LINE
  8
0-2
  6
CONTINUOUS
 62
    3
 10
3111.6422
 20
4525.5867
 11
3112.2011
 21
4527.7755
  0
LINE
  8
0-2
  6
CONTINUOUS
 62
    3
 10
3112.2011
 20
4527.7755
 11
3112.3893
 21
4530.0329
  0
LINE
  8
0-2
  6
CONTINUOUS
 62
    3
 10
3112.3893
 20
4530.0329
 11
3112.2011
 21
4532.2903
  0
LINE
  8
0-2
  6
CONTINUOUS
 62
    3
 10
3112.2011
 20
4532.2903
 11
3111.6422
 21
4534.4792
  0
LINE
  8
0-2
  6
CONTINUOUS
 62
    3
 10
3111.6422
 20
4534.4792
 11
3110.7295
 21
4536.5329
  0
LINE
  8
0-2
  6
CONTINUOUS
 62
    3
 10
3110.7295
 20
4536.5329
 11
3109.4909
 21
4538.3891
  0
LINE
  8
0-2
  6
CONTINUOUS
 62
    3
 10
3109.4909
 20
4538.3891
 11
3107.9639
 21
4539.9914
  0
LINE
  8
0-2
  6
CONTINUOUS
 62
    3
 10
3107.9639
 20
4539.9914
 11
3106.1949
 21
4541.2912
  0
LINE
  8
0-2
  6
CONTINUOUS
 62
    3
 10
3106.1949
 20
4541.2912
 11
3104.2377
 21
4542.2488
  0
LINE
  8
0-2
  6
CONTINUOUS
 62
    3
 10
3104.2377
 20
4542.2488
 11
3102.1517
 21
4542.8353
  0
LINE
  8
0-2
  6
CONTINUOUS
 62
    3
 10
3102.1517
 20
4542.8353
 11
3100.0004
 21
4543.0328
  0
LINE
  8
0-2
  6
CONTINUOUS
 62
    3
 10
3100.0004
 20
4621.032
 11
3102.1517
 21
4621.2295
  0
LINE
  8
0-2
  6
CONTINUOUS
 62
    3
 10
3102.1517
 20
4621.2295
 11
3104.2377
 21
4621.816
  0
LINE
  8
0-2
  6
CONTINUOUS
 62
    3
 10
3104.2377
 20
4621.816
 11
3106.1949
 21
4622.7737
  0
LINE
  8
0-2
  6
CONTINUOUS
 62
    3
 10
3106.1949
 20
4622.7737
 11
3107.9639
 21
4624.0734
  0
LINE
  8
0-2
  6
CONTINUOUS
 62
    3
 10
3107.9639
 20
4624.0734
 11
3109.4909
 21
4625.6757
  0
LINE
  8
0-2
  6
CONTINUOUS
 62
    3
 10
3109.4909
 20
4625.6757
 11
3110.7295
 21
4627.532
  0
LINE
  8
0-2
  6
CONTINUOUS
 62
    3
 10
3110.7295
 20
4627.532
 11
3111.6422
 21
4629.5857
  0
LINE
  8
0-2
  6
CONTINUOUS
 62
    3
 10
3111.6422
 20
4629.5857
 11
3112.2011
 21
4631.7745
  0
LINE
  8
0-2
  6
CONTINUOUS
 62
    3
 10
3112.2011
 20
4631.7745
 11
3112.3893
 21
4634.0319
  0
LINE
  8
0-2
  6
CONTINUOUS
 62
    3
 10
3112.3893
 20
4634.0319
 11
3112.2011
 21
4636.2893
  0
LINE
  8
0-2
  6
CONTINUOUS
 62
    3
 10
3112.2011
 20
4636.2893
 11
3111.6422
 21
4638.4781
  0
LINE
  8
0-2
  6
CONTINUOUS
 62
    3
 10
3111.6422
 20
4638.4781
 11
3110.7295
 21
4640.5318
  0
LINE
  8
0-2
  6
CONTINUOUS
 62
    3
 10
3110.7295
 20
4640.5318
 11
3109.4909
 21
4642.3881
  0
LINE
  8
0-2
  6
CONTINUOUS
 62
    3
 10
3109.4909
 20
4642.3881
 11
3107.9639
 21
4643.9904
  0
LINE
  8
0-2
  6
CONTINUOUS
 62
    3
 10
3107.9639
 20
4643.9904
 11
3106.1949
 21
4645.2901
  0
LINE
  8
0-2
  6
CONTINUOUS
 62
    3
 10
3106.1949
 20
4645.2901
 11
3104.2377
 21
4646.2478
  0
LINE
  8
0-2
  6
CONTINUOUS
 62
    3
 10
3104.2377
 20
4646.2478
 11
3102.1517
 21
4646.8343
  0
LINE
  8
0-2
  6
CONTINUOUS
 62
    3
 10
3102.1517
 20
4646.8343
 11
3100.0004
 21
4647.0318
  0
LINE
  8
0-2
  6
CONTINUOUS
 62
    3
 10
2839.3928
 20
4124.1224
 11
2841.5441
 21
4124.3199
  0
LINE
  8
0-2
  6
CONTINUOUS
 62
    3
 10
2841.5441
 20
4124.3199
 11
2843.6301
 21
4124.9064
  0
LINE
  8
0-2
  6
CONTINUOUS
 62
    3
 10
2843.6301
 20
4124.9064
 11
2845.5873
 21
4125.864
  0
LINE
  8
0-2
  6
CONTINUOUS
 62
    3
 10
2845.5873
 20
4125.864
 11
2847.3563
 21
4127.1638
  0
LINE
  8
0-2
  6
CONTINUOUS
 62
    3
 10
2847.3563
 20
4127.1638
 11
2848.8833
 21
4128.7661
  0
LINE
  8
0-2
  6
CONTINUOUS
 62
    3
 10
2848.8833
 20
4128.7661
 11
2850.1219
 21
4130.6223
  0
LINE
  8
0-2
  6
CONTINUOUS
 62
    3
 10
2850.1219
 20
4130.6223
 11
2851.0346
 21
4132.676
  0
LINE
  8
0-2
  6
CONTINUOUS
 62
    3
 10
2851.0346
 20
4132.676
 11
2851.5935
 21
4134.8648
  0
LINE
  8
0-2
  6
CONTINUOUS
 62
    3
 10
2851.5935
 20
4134.8648
 11
2851.7817
 21
4137.1222
  0
LINE
  8
0-2
  6
CONTINUOUS
 62
    3
 10
2851.7817
 20
4137.1222
 11
2851.5935
 21
4139.3796
  0
LINE
  8
0-2
  6
CONTINUOUS
 62
    3
 10
2851.5935
 20
4139.3796
 11
2851.0346
 21
4141.5685
  0
LINE
  8
0-2
  6
CONTINUOUS
 62
    3
 10
2851.0346
 20
4141.5685
 11
2850.1219
 21
4143.6222
  0
LINE
  8
0-2
  6
CONTINUOUS
 62
    3
 10
2850.1219
 20
4143.6222
 11
2848.8833
 21
4145.4784
  0
LINE
  8
0-2
  6
CONTINUOUS
 62
    3
 10
2848.8833
 20
4145.4784
 11
2847.3563
 21
4147.0807
  0
LINE
  8
0-2
  6
CONTINUOUS
 62
    3
 10
2847.3563
 20
4147.0807
 11
2845.5873
 21
4148.3805
  0
LINE
  8
0-2
  6
CONTINUOUS
 62
    3
 10
2845.5873
 20
4148.3805
 11
2843.6301
 21
4149.3381
  0
LINE
  8
0-2
  6
CONTINUOUS
 62
    3
 10
2843.6301
 20
4149.3381
 11
2841.5441
 21
4149.9246
  0
LINE
  8
0-2
  6
CONTINUOUS
 62
    3
 10
2841.5441
 20
4149.9246
 11
2839.3928
 21
4150.1221
  0
TEXT
  8
0-d
 10
509.99972
 20
310.13515
 40
50
 41
1
 50
0
  1
図
  0
TEXT
  8
0-d
 10
509.99972
 20
190.13521
 40
50
 41
1
 50
0
  1
番
  0
TEXT
  8
0-d
 10
1309.9998
 20
310.13515
 40
50
 41
1
 50
0
  1
承
  0
TEXT
  8
0-d
 10
1309.9998
 20
190.13521
 40
50
 41
1
 50
0
  1
認
  0
TEXT
  8
0-d
 10
2039.9997
 20
470.13525
 40
50
 41
1
 50
0
  1
尺
  0
TEXT
  8
0-d
 10
2039.9997
 20
390.13529
 40
50
 41
1
 50
359.99986
  1
度
  0
TEXT
  8
0-d
 10
1709.9997
 20
310.13515
 40
50
 41
1
 50
0
  1
製
  0
TEXT
  8
0-d
 10
1709.9997
 20
190.13521
 40
50
 41
1
 50
0
  1
図
  0
TEXT
  8
0-d
 10
3110
 20
470.13525
 40
50
 41
1
 50
0
  1
日
  0
TEXT
  8
0-d
 10
3110
 20
390.13529
 40
50
 41
1
 50
359.99986
  1
付
  0
TEXT
  8
0-d
 10
2222.852
 20
322.09976
 40
40
 41
1
 50
0
  1
株式
  0
TEXT
  8
0-d
 10
2222.852
 20
278.83889
 40
40
 41
1
 50
0.0000152
  1
会社
  0
TEXT
  8
0-d
 10
2348.4485
 20
281.62989
 40
80
 41
1
 50
0
  1
スズキベンチレーター
  0
TEXT
  8
0-d
 10
2475.8354
 20
183.18397
 40
40
 41
1
 50
0
  1
TEL(054)296-7000  FAX(054)296-7001
  0
TEXT
  8
0-d
 10
2168.6978
 20
415.33667
 40
80
 41
1
 50
0
  1
１／２０
  0
TEXT
  8
0-8
 10
2012.1213
 20
5136.3848
 40
60
 41
1
 50
0
  1
2,000
  0
TEXT
  8
0-8
 10
626.79083
 20
4080.4273
 40
60
 41
1
 50
90
  1
1,700
  0
TEXT
  8
0-8
 10
771.3338
 20
3293.9878
 40
60
 41
1
 50
90
  1
70
  0
TEXT
  8
0-8
 10
1922.2357
 20
3078.2139
 40
60
 41
1
 50
0
  1
1,720x1,720
  0
TEXT
  8
0-d
 10
596.6753
 20
287.90676
 40
60
 41
1
 50
0
  1
150-i03
  0
TEXT
  8
0-d
 10
510.00006
 20
5545.4028
 40
100
 41
1
 50
0
  1
ＤＳ－１５００  自然換気  架台型（網付）断面
  0
TEXT
  8
0-d
 10
519.75312
 20
424.57109
 40
60
 41
1
 50
0
  1
ＤＳ－１５００ 自然換気 架台型（網付）断面
  0
TEXT
  8
0-d
 10
2471.3583
 20
232.42738
 40
40
 41
1
 50
0
  1
〒421-2114　静岡市葵区安倍口新田１５２番地
  0
POINT
  8
0-8
 62
    2
 10
651.03276
 20
3286.4879
  0
POINT
  8
0-8
 62
    2
 10
651.0335
 20
4986.4877
  0
POINT
  8
0-8
 62
    2
 10
1100.0002
 20
5112.1426
  0
POINT
  8
0-8
 62
    2
 10
3100.0004
 20
5112.1426
  0
POINT
  8
0-8
 62
    2
 10
1240.0001
 20
3067.0773
  0
POINT
  8
0-8
 62
    2
 10
2960.0005
 20
3067.0773
  0
POINT
  8
0-8
 62
    2
 10
791.33387
 20
3286.4879
  0
POINT
  8
0-8
 62
    2
 10
791.33387
 20
3356.4879
  0
ENDSEC
  0
EOF
