  0
SECTION
  2
HEADER
  9
$EXTMIN
 10
0
 20
0
  9
$EXTMAX
 10
8400
 20
5940
  0
ENDSEC
  0
SECTION
  2
TABLES
  0
TABLE
  2
LTYPE
 70
     9
  0
LTYPE
  2
CONTINUOUS
 70
    64
  3
実線
 72
    65
 73
     0
 40
0.0
  0
LTYPE
  2
DASHED1
 70
    64
  3
--  --  --  --  --  --  --  --  
 72
    65
 73
     2
 40
2.5
 49
1.25
 49
-1.25
  0
LTYPE
  2
DASHED2
 70
    64
  3
----    ----    ----    ----    
 72
    65
 73
     2
 40
5.0
 49
2.5
 49
-2.5
  0
LTYPE
  2
DASHED3
 70
    64
  3
------  ------  ------  ------  
 72
    65
 73
     2
 40
5.0
 49
3.75
 49
-1.25
  0
LTYPE
  2
CENTER1
 70
    64
  3
----- - ----- - ----- - ----- - 
 72
    65
 73
     4
 40
10.0
 49
6.25
 49
-1.25
 49
1.25
 49
-1.25
  0
LTYPE
  2
CENTER2
 70
    64
  3
----------  --  ----------  --  
 72
    65
 73
     4
 40
20.0
 49
12.5
 49
-2.5
 49
2.5
 49
-2.5
  0
LTYPE
  2
PHANTOM1
 70
    64
  3
--- - - --- - - --- - - --- - - 
 72
    65
 73
     6
 40
10.0
 49
3.25
 49
-1.25
 49
1.25
 49
-1.25
 49
1.25
 49
-1.25
  0
LTYPE
  2
PHANTOM2
 70
    64
  3
--------  -  -  --------  -  -  
 72
    65
 73
     6
 40
20.0
 49
10.0
 49
-2.5
 49
1.25
 49
-2.5
 49
1.25
 49
-2.5
  0
LTYPE
  2
DOT
 70
    64
  3
-   -   -   -   -   -   -   -   
 72
    65
 73
     2
 40
2.5
 49
0.625
 49
-1.875
  0
ENDTAB
  0
TABLE
  2
STYLE
 70
    1
  0
STYLE
  2
STANDARD
 70
    64
 40
0.0
 41
1.0
 42
0.0
 50
0.0
 71
     0
  3
TXT
  4
BIGFONT
  0
ENDTAB
  0
TABLE
  2
LAYER
 70
    4
  0
LAYER
  2
0-2
 70
   64
 62
    7
  6
CONTINUOUS
  0
LAYER
  2
0-8
 70
   64
 62
    7
  6
CONTINUOUS
  0
LAYER
  2
0-d
 70
   64
 62
    7
  6
CONTINUOUS
  0
LAYER
  2
ADD_LINE
 70
   64
 62
    7
  6
CONTINUOUS
  0
ENDTAB
  0
ENDSEC
  0
SECTION
  2
ENTITIES
  0
LINE
  8
0-d
  6
CONTINUOUS
 62
    7
 10
500.00006
 20
5515.4027
 11
3700.0002
 21
5515.4027
  0
LINE
  8
0-d
  6
CONTINUOUS
 62
    7
 10
500.00006
 20
5535.4028
 11
3700.0002
 21
5535.4028
  0
LINE
  8
0-d
  6
CONTINUOUS
 62
    7
 10
499.99981
 20
375.13524
 11
3700
 21
375.13524
  0
LINE
  8
0-d
  6
CONTINUOUS
 62
    7
 10
499.99981
 20
175.13519
 11
499.99981
 21
535.13516
  0
LINE
  8
0-d
  6
CONTINUOUS
 62
    7
 10
499.99981
 20
175.13519
 11
3700
 21
175.13519
  0
LINE
  8
0-d
  6
CONTINUOUS
 62
    7
 10
2100.0001
 20
535.13516
 11
2100.0001
 21
175.13519
  0
LINE
  8
0-d
  6
CONTINUOUS
 62
    7
 10
1300
 20
175.13519
 11
1300
 21
375.13524
  0
LINE
  8
0-d
  6
CONTINUOUS
 62
    7
 10
2100.0001
 20
375.13524
 11
2100.0001
 21
535.13516
  0
LINE
  8
0-d
  6
CONTINUOUS
 62
    7
 10
1700
 20
175.13519
 11
1700
 21
375.13524
  0
LINE
  8
0-d
  6
CONTINUOUS
 62
    7
 10
569.99968
 20
175.13519
 11
569.99968
 21
375.13524
  0
LINE
  8
0-d
  6
CONTINUOUS
 62
    7
 10
1369.9996
 20
175.13519
 11
1369.9996
 21
375.13524
  0
LINE
  8
0-d
  6
CONTINUOUS
 62
    7
 10
1769.9996
 20
175.13519
 11
1769.9996
 21
375.13524
  0
LINE
  8
0-d
  6
CONTINUOUS
 62
    7
 10
2029.9999
 20
375.13524
 11
2029.9999
 21
535.13516
  0
LINE
  8
0-d
  6
CONTINUOUS
 62
    7
 10
3099.9999
 20
375.13524
 11
3099.9999
 21
535.13516
  0
LINE
  8
0-d
  6
CONTINUOUS
 62
    7
 10
3169.9997
 20
375.13524
 11
3169.9997
 21
535.13516
  0
LINE
  8
0-d
  6
CONTINUOUS
 62
    7
 10
499.99981
 20
535.13516
 11
3700
 21
535.13516
  0
LINE
  8
0-d
  6
CONTINUOUS
 62
    7
 10
3700
 20
535.13516
 11
3700
 21
175.13519
  0
LINE
  8
0-d
  6
CENTER2
 62
    7
 10
2100.0001
 20
3486.4866
 11
2100.0001
 21
4986.4867
  0
LINE
  8
0-8
  6
CONTINUOUS
 62
    7
 10
1275
 20
5090.1526
 11
2925.0001
 21
5090.1526
  0
LINE
  8
0-8
  6
CONTINUOUS
 62
    7
 10
1489.9995
 20
3604.4927
 11
1489.9995
 21
3477.4877
  0
LINE
  8
0-8
  6
CONTINUOUS
 62
    7
 10
2709.9991
 20
3604.4931
 11
2709.9991
 21
3477.4885
  0
LINE
  8
0-8
  6
CONTINUOUS
 62
    7
 10
1275
 20
4822.0911
 11
1275
 21
5090.1526
  0
LINE
  8
0-8
  6
CONTINUOUS
 62
    7
 10
1555.0094
 20
4986.4877
 11
904.60242
 21
4986.4877
  0
LINE
  8
0-8
  6
CONTINUOUS
 62
    7
 10
2925.0001
 20
4822.0911
 11
2925.0001
 21
5090.1526
  0
LINE
  8
0-2
  6
CONTINUOUS
 62
    3
 10
1275
 20
3962.3382
 11
1275
 21
3897.988
  0
LINE
  8
0-2
  6
CONTINUOUS
 62
    3
 10
1275
 20
3876.5379
 11
1275
 21
3826.4875
  0
LINE
  8
0-2
  6
CONTINUOUS
 62
    3
 10
1275
 20
3826.4875
 11
2100.0001
 21
3826.4875
  0
LINE
  8
0-2
  6
CONTINUOUS
 62
    3
 10
1275
 20
3876.5379
 11
2100.0001
 21
3876.5379
  0
LINE
  8
0-2
  6
CONTINUOUS
 62
    3
 10
1275
 20
3897.988
 11
2100.0001
 21
3897.988
  0
LINE
  8
0-2
  6
CONTINUOUS
 62
    3
 10
1275
 20
3962.3382
 11
2100.0001
 21
3962.3382
  0
LINE
  8
0-2
  6
CONTINUOUS
 62
    3
 10
1275
 20
3983.7872
 11
2100.0001
 21
3983.7872
  0
LINE
  8
0-8
  6
CONTINUOUS
 62
    7
 10
1489.9995
 20
3477.4877
 11
2709.9991
 21
3477.4885
  0
LINE
  8
0-8
  6
CONTINUOUS
 62
    7
 10
1235.2864
 20
3636.4876
 11
904.60217
 21
3636.4876
  0
LINE
  8
0-2
  6
CONTINUOUS
 62
    3
 10
1489.9995
 20
3636.4871
 11
2709.9991
 21
3636.4876
  0
LINE
  8
0-2
  6
CONTINUOUS
 62
    3
 10
1489.9995
 20
3766.2869
 11
2100.0001
 21
3766.2874
  0
LINE
  8
0-2
  6
CONTINUOUS
 62
    3
 10
1489.9995
 20
3744.8358
 11
2100.0001
 21
3744.8363
  0
LINE
  8
0-2
  6
CONTINUOUS
 62
    3
 10
1489.9995
 20
3669.4864
 11
2709.9991
 21
3669.4869
  0
LINE
  8
0-2
  6
CONTINUOUS
 62
    3
 10
1489.9995
 20
3669.4864
 11
2100.0001
 21
3669.4869
  0
LINE
  8
0-2
  6
CONTINUOUS
 62
    3
 10
1489.9995
 20
3690.9365
 11
2709.9991
 21
3690.937
  0
LINE
  8
0-2
  6
CONTINUOUS
 62
    3
 10
1490
 20
3826.4875
 11
1489.9995
 21
3766.2869
  0
LINE
  8
0-2
  6
CONTINUOUS
 62
    3
 10
1489.9995
 20
3744.8358
 11
1489.9995
 21
3690.9365
  0
LINE
  8
0-2
  6
CONTINUOUS
 62
    3
 10
1489.9995
 20
3669.4864
 11
1489.9995
 21
3636.4871
  0
LINE
  8
0-2
  6
CONTINUOUS
 62
    3
 10
2925.0006
 20
3962.3382
 11
2925.0006
 21
3897.988
  0
LINE
  8
0-2
  6
CONTINUOUS
 62
    3
 10
2925.0006
 20
3876.5379
 11
2925.0006
 21
3826.4875
  0
LINE
  8
0-2
  6
CONTINUOUS
 62
    3
 10
2709.9996
 20
3766.2874
 11
2100.0001
 21
3766.2874
  0
LINE
  8
0-2
  6
CONTINUOUS
 62
    3
 10
2709.9996
 20
3744.8363
 11
2100.0001
 21
3744.8363
  0
LINE
  8
0-2
  6
CONTINUOUS
 62
    3
 10
2709.9996
 20
3669.4869
 11
2100.0001
 21
3669.4869
  0
LINE
  8
0-2
  6
CONTINUOUS
 62
    3
 10
2709.9996
 20
3744.8363
 11
2709.9996
 21
3690.937
  0
LINE
  8
0-2
  6
CONTINUOUS
 62
    3
 10
2709.9996
 20
3669.4869
 11
2709.9996
 21
3636.4876
  0
LINE
  8
0-2
  6
CONTINUOUS
 62
    3
 10
1275
 20
4620.6365
 11
1275
 21
4684.9867
  0
LINE
  8
0-2
  6
CONTINUOUS
 62
    3
 10
2925.0001
 20
4620.6365
 11
2925.0001
 21
4684.9867
  0
LINE
  8
0-2
  6
CONTINUOUS
 62
    3
 10
1275
 20
4599.1874
 11
1275
 21
3983.7872
  0
LINE
  8
0-2
  6
CONTINUOUS
 62
    3
 10
2925.0001
 20
4599.1874
 11
2925.0006
 21
3983.7872
  0
LINE
  8
0-2
  6
CONTINUOUS
 62
    3
 10
2925.0001
 20
4756.4874
 11
2925.0001
 21
4706.4368
  0
LINE
  8
0-2
  6
CONTINUOUS
 62
    3
 10
1275
 20
4756.4874
 11
1275
 21
4706.4368
  0
LINE
  8
0-8
  6
CONTINUOUS
 62
    7
 10
904.60217
 20
3636.4876
 11
904.60242
 21
4986.4877
  0
LINE
  8
0-2
  6
CONTINUOUS
 62
    3
 10
1275
 20
4756.4874
 11
2100.0001
 21
4756.4874
  0
LINE
  8
0-2
  6
CONTINUOUS
 62
    3
 10
1275
 20
4706.4368
 11
2100.0001
 21
4706.4368
  0
LINE
  8
0-2
  6
CONTINUOUS
 62
    3
 10
1275
 20
4684.9867
 11
2100.0001
 21
4684.9867
  0
LINE
  8
0-2
  6
CONTINUOUS
 62
    3
 10
1275
 20
4620.6365
 11
2100.0001
 21
4620.6365
  0
LINE
  8
0-2
  6
CONTINUOUS
 62
    3
 10
1275
 20
4599.1874
 11
2100.0001
 21
4599.1874
  0
LINE
  8
0-2
  6
CONTINUOUS
 62
    3
 10
2100.0001
 20
4326.4874
 11
2709.9986
 21
4326.4874
  0
LINE
  8
0-2
  6
CONTINUOUS
 62
    3
 10
2709.9986
 20
4296.4873
 11
2099.9991
 21
4296.4873
  0
LINE
  8
0-2
  6
CONTINUOUS
 62
    3
 10
2709.9986
 20
4275.0363
 11
2099.9991
 21
4275.0363
  0
LINE
  8
0-2
  6
CONTINUOUS
 62
    3
 10
2709.9986
 20
4326.4874
 11
2709.9986
 21
4296.4864
  0
LINE
  8
0-2
  6
CONTINUOUS
 62
    3
 10
2710.0016
 20
4275.0363
 11
2709.9996
 21
3766.2874
  0
LINE
  8
0-2
  6
CONTINUOUS
 62
    3
 10
2925.0006
 20
3983.7872
 11
2710.0006
 21
3983.7872
  0
LINE
  8
0-2
  6
CONTINUOUS
 62
    3
 10
2925.0006
 20
3962.3382
 11
2710.0006
 21
3962.3382
  0
LINE
  8
0-2
  6
CONTINUOUS
 62
    3
 10
2925.0006
 20
3897.988
 11
2710.0006
 21
3897.988
  0
LINE
  8
0-2
  6
CONTINUOUS
 62
    3
 10
2925.0006
 20
3876.5379
 11
2710.0006
 21
3876.5379
  0
LINE
  8
0-2
  6
CONTINUOUS
 62
    3
 10
2925.0006
 20
3826.4875
 11
2710.0001
 21
3826.4875
  0
LINE
  8
0-2
  6
CONTINUOUS
 62
    3
 10
2100.0001
 20
4986.4867
 11
2800.9704
 21
4560.9981
  0
LINE
  8
0-2
  6
CONTINUOUS
 62
    3
 10
2800.9704
 20
4560.9981
 11
2100.0001
 21
4560.9981
  0
LINE
  8
0-2
  6
CONTINUOUS
 62
    3
 10
2925.0001
 20
4756.4874
 11
2478.9121
 21
4756.4874
  0
LINE
  8
0-2
  6
CONTINUOUS
 62
    3
 10
2925.0001
 20
4706.4368
 11
2561.368
 21
4706.4368
  0
LINE
  8
0-2
  6
CONTINUOUS
 62
    3
 10
2925.0001
 20
4684.9867
 11
2596.7058
 21
4684.9867
  0
LINE
  8
0-2
  6
CONTINUOUS
 62
    3
 10
2925.0001
 20
4620.6365
 11
2702.7195
 21
4620.6365
  0
LINE
  8
0-2
  6
CONTINUOUS
 62
    3
 10
2925.0001
 20
4599.1874
 11
2738.0553
 21
4599.1874
  0
LINE
  8
0-2
  6
CONTINUOUS
 62
    3
 10
2469.9998
 20
4560.9981
 11
2786.2918
 21
4369.0095
  0
LINE
  8
0-2
  6
CONTINUOUS
 62
    3
 10
2786.2918
 20
4369.0095
 11
2100.0001
 21
4369.0095
  0
LINE
  8
0-2
  6
CONTINUOUS
 62
    3
 10
2469.9998
 20
4590.9982
 11
2100.0001
 21
4590.9982
  0
LINE
  8
0-2
  6
CONTINUOUS
 62
    3
 10
2469.9998
 20
4590.9982
 11
2469.9998
 21
4560.9981
  0
LINE
  8
0-2
  6
CONTINUOUS
 62
    3
 10
2100.0001
 20
4986.4867
 11
1721.088
 21
4756.4874
  0
LINE
  8
0-8
  6
CONTINUOUS
 62
    7
 10
3437.838
 20
3636.4876
 11
3437.838
 21
3826.4875
  0
LINE
  8
0-8
  6
CONTINUOUS
 62
    7
 10
2983.7839
 20
3636.4876
 11
3437.838
 21
3636.4876
  0
LINE
  8
0-8
  6
CONTINUOUS
 62
    7
 10
2983.7839
 20
3826.4875
 11
3437.838
 21
3826.4875
  0
LINE
  8
0-8
  6
CONTINUOUS
 62
    7
 10
3437.838
 20
3826.4875
 11
3437.838
 21
4756.4874
  0
LINE
  8
0-8
  6
CONTINUOUS
 62
    7
 10
2983.7839
 20
4756.4874
 11
3437.838
 21
4756.4874
  0
LINE
  8
0-8
  6
CONTINUOUS
 62
    7
 10
3437.838
 20
4756.4874
 11
3437.838
 21
4986.4867
  0
LINE
  8
0-8
  6
CONTINUOUS
 62
    7
 10
2983.7839
 20
4986.4867
 11
3437.838
 21
4986.4867
  0
LINE
  8
0-8
  6
CONTINUOUS
 62
    7
 10
2825.0146
 20
3636.4876
 11
2825.0146
 21
4326.4874
  0
LINE
  8
0-8
  6
CONTINUOUS
 62
    7
 10
2738.7338
 20
3636.4876
 11
2825.0146
 21
3636.4876
  0
LINE
  8
0-8
  6
CONTINUOUS
 62
    7
 10
2738.7338
 20
4326.4874
 11
2825.0146
 21
4326.4874
  0
LINE
  8
0-2
  6
CONTINUOUS
 62
    3
 10
1275
 20
3983.7876
 11
1273.2252
 21
3983.6247
  0
LINE
  8
0-2
  6
CONTINUOUS
 62
    3
 10
1273.2252
 20
3983.6247
 11
1271.5043
 21
3983.1408
  0
LINE
  8
0-2
  6
CONTINUOUS
 62
    3
 10
1271.5043
 20
3983.1408
 11
1269.8896
 21
3982.3507
  0
LINE
  8
0-2
  6
CONTINUOUS
 62
    3
 10
1269.8896
 20
3982.3507
 11
1268.4302
 21
3981.2784
  0
LINE
  8
0-2
  6
CONTINUOUS
 62
    3
 10
1268.4302
 20
3981.2784
 11
1267.1704
 21
3979.9565
  0
LINE
  8
0-2
  6
CONTINUOUS
 62
    3
 10
1267.1704
 20
3979.9565
 11
1266.1485
 21
3978.4251
  0
LINE
  8
0-2
  6
CONTINUOUS
 62
    3
 10
1266.1485
 20
3978.4251
 11
1265.3956
 21
3976.7308
  0
LINE
  8
0-2
  6
CONTINUOUS
 62
    3
 10
1265.3956
 20
3976.7308
 11
1264.9345
 21
3974.9251
  0
LINE
  8
0-2
  6
CONTINUOUS
 62
    3
 10
1264.9345
 20
3974.9251
 11
1264.7792
 21
3973.0627
  0
LINE
  8
0-2
  6
CONTINUOUS
 62
    3
 10
1264.7792
 20
3973.0627
 11
1264.9345
 21
3971.2003
  0
LINE
  8
0-2
  6
CONTINUOUS
 62
    3
 10
1264.9345
 20
3971.2003
 11
1265.3956
 21
3969.3946
  0
LINE
  8
0-2
  6
CONTINUOUS
 62
    3
 10
1265.3956
 20
3969.3946
 11
1266.1485
 21
3967.7003
  0
LINE
  8
0-2
  6
CONTINUOUS
 62
    3
 10
1266.1485
 20
3967.7003
 11
1267.1704
 21
3966.1689
  0
LINE
  8
0-2
  6
CONTINUOUS
 62
    3
 10
1267.1704
 20
3966.1689
 11
1268.4302
 21
3964.847
  0
LINE
  8
0-2
  6
CONTINUOUS
 62
    3
 10
1268.4302
 20
3964.847
 11
1269.8896
 21
3963.7747
  0
LINE
  8
0-2
  6
CONTINUOUS
 62
    3
 10
1269.8896
 20
3963.7747
 11
1271.5043
 21
3962.9846
  0
LINE
  8
0-2
  6
CONTINUOUS
 62
    3
 10
1271.5043
 20
3962.9846
 11
1273.2252
 21
3962.5007
  0
LINE
  8
0-2
  6
CONTINUOUS
 62
    3
 10
1273.2252
 20
3962.5007
 11
1275
 21
3962.3378
  0
LINE
  8
0-2
  6
CONTINUOUS
 62
    3
 10
1275
 20
3897.9873
 11
1273.2252
 21
3897.8244
  0
LINE
  8
0-2
  6
CONTINUOUS
 62
    3
 10
1273.2252
 20
3897.8244
 11
1271.5043
 21
3897.3405
  0
LINE
  8
0-2
  6
CONTINUOUS
 62
    3
 10
1271.5043
 20
3897.3405
 11
1269.8896
 21
3896.5505
  0
LINE
  8
0-2
  6
CONTINUOUS
 62
    3
 10
1269.8896
 20
3896.5505
 11
1268.4302
 21
3895.4782
  0
LINE
  8
0-2
  6
CONTINUOUS
 62
    3
 10
1268.4302
 20
3895.4782
 11
1267.1704
 21
3894.1563
  0
LINE
  8
0-2
  6
CONTINUOUS
 62
    3
 10
1267.1704
 20
3894.1563
 11
1266.1485
 21
3892.6249
  0
LINE
  8
0-2
  6
CONTINUOUS
 62
    3
 10
1266.1485
 20
3892.6249
 11
1265.3956
 21
3890.9306
  0
LINE
  8
0-2
  6
CONTINUOUS
 62
    3
 10
1265.3956
 20
3890.9306
 11
1264.9345
 21
3889.1248
  0
LINE
  8
0-2
  6
CONTINUOUS
 62
    3
 10
1264.9345
 20
3889.1248
 11
1264.7792
 21
3887.2624
  0
LINE
  8
0-2
  6
CONTINUOUS
 62
    3
 10
1264.7792
 20
3887.2624
 11
1264.9345
 21
3885.4001
  0
LINE
  8
0-2
  6
CONTINUOUS
 62
    3
 10
1264.9345
 20
3885.4001
 11
1265.3956
 21
3883.5943
  0
LINE
  8
0-2
  6
CONTINUOUS
 62
    3
 10
1265.3956
 20
3883.5943
 11
1266.1485
 21
3881.9
  0
LINE
  8
0-2
  6
CONTINUOUS
 62
    3
 10
1266.1485
 20
3881.9
 11
1267.1704
 21
3880.3686
  0
LINE
  8
0-2
  6
CONTINUOUS
 62
    3
 10
1267.1704
 20
3880.3686
 11
1268.4302
 21
3879.0467
  0
LINE
  8
0-2
  6
CONTINUOUS
 62
    3
 10
1268.4302
 20
3879.0467
 11
1269.8896
 21
3877.9744
  0
LINE
  8
0-2
  6
CONTINUOUS
 62
    3
 10
1269.8896
 20
3877.9744
 11
1271.5043
 21
3877.1843
  0
LINE
  8
0-2
  6
CONTINUOUS
 62
    3
 10
1271.5043
 20
3877.1843
 11
1273.2252
 21
3876.7005
  0
LINE
  8
0-2
  6
CONTINUOUS
 62
    3
 10
1273.2252
 20
3876.7005
 11
1275
 21
3876.5375
  0
LINE
  8
0-2
  6
CONTINUOUS
 62
    3
 10
1489.9995
 20
3766.2857
 11
1488.2247
 21
3766.1228
  0
LINE
  8
0-2
  6
CONTINUOUS
 62
    3
 10
1488.2247
 20
3766.1228
 11
1486.5038
 21
3765.639
  0
LINE
  8
0-2
  6
CONTINUOUS
 62
    3
 10
1486.5038
 20
3765.639
 11
1484.8891
 21
3764.8489
  0
LINE
  8
0-2
  6
CONTINUOUS
 62
    3
 10
1484.8891
 20
3764.8489
 11
1483.4297
 21
3763.7766
  0
LINE
  8
0-2
  6
CONTINUOUS
 62
    3
 10
1483.4297
 20
3763.7766
 11
1482.1699
 21
3762.4547
  0
LINE
  8
0-2
  6
CONTINUOUS
 62
    3
 10
1482.1699
 20
3762.4547
 11
1481.148
 21
3760.9233
  0
LINE
  8
0-2
  6
CONTINUOUS
 62
    3
 10
1481.148
 20
3760.9233
 11
1480.3951
 21
3759.229
  0
LINE
  8
0-2
  6
CONTINUOUS
 62
    3
 10
1480.3951
 20
3759.229
 11
1479.934
 21
3757.4232
  0
LINE
  8
0-2
  6
CONTINUOUS
 62
    3
 10
1479.934
 20
3757.4232
 11
1479.7787
 21
3755.5609
  0
LINE
  8
0-2
  6
CONTINUOUS
 62
    3
 10
1479.7787
 20
3755.5609
 11
1479.934
 21
3753.6985
  0
LINE
  8
0-2
  6
CONTINUOUS
 62
    3
 10
1479.934
 20
3753.6985
 11
1480.3951
 21
3751.8927
  0
LINE
  8
0-2
  6
CONTINUOUS
 62
    3
 10
1480.3951
 20
3751.8927
 11
1481.148
 21
3750.1984
  0
LINE
  8
0-2
  6
CONTINUOUS
 62
    3
 10
1481.148
 20
3750.1984
 11
1482.1699
 21
3748.667
  0
LINE
  8
0-2
  6
CONTINUOUS
 62
    3
 10
1482.1699
 20
3748.667
 11
1483.4297
 21
3747.3451
  0
LINE
  8
0-2
  6
CONTINUOUS
 62
    3
 10
1483.4297
 20
3747.3451
 11
1484.8891
 21
3746.2728
  0
LINE
  8
0-2
  6
CONTINUOUS
 62
    3
 10
1484.8891
 20
3746.2728
 11
1486.5038
 21
3745.4828
  0
LINE
  8
0-2
  6
CONTINUOUS
 62
    3
 10
1486.5038
 20
3745.4828
 11
1488.2247
 21
3744.9989
  0
LINE
  8
0-2
  6
CONTINUOUS
 62
    3
 10
1488.2247
 20
3744.9989
 11
1489.9995
 21
3744.836
  0
LINE
  8
0-2
  6
CONTINUOUS
 62
    3
 10
1489.9995
 20
3690.9364
 11
1488.2247
 21
3690.7734
  0
LINE
  8
0-2
  6
CONTINUOUS
 62
    3
 10
1488.2247
 20
3690.7734
 11
1486.5038
 21
3690.2896
  0
LINE
  8
0-2
  6
CONTINUOUS
 62
    3
 10
1486.5038
 20
3690.2896
 11
1484.8891
 21
3689.4995
  0
LINE
  8
0-2
  6
CONTINUOUS
 62
    3
 10
1484.8891
 20
3689.4995
 11
1483.4297
 21
3688.4272
  0
LINE
  8
0-2
  6
CONTINUOUS
 62
    3
 10
1483.4297
 20
3688.4272
 11
1482.1699
 21
3687.1053
  0
LINE
  8
0-2
  6
CONTINUOUS
 62
    3
 10
1482.1699
 20
3687.1053
 11
1481.148
 21
3685.5739
  0
LINE
  8
0-2
  6
CONTINUOUS
 62
    3
 10
1481.148
 20
3685.5739
 11
1480.3951
 21
3683.8796
  0
LINE
  8
0-2
  6
CONTINUOUS
 62
    3
 10
1480.3951
 20
3683.8796
 11
1479.934
 21
3682.0738
  0
LINE
  8
0-2
  6
CONTINUOUS
 62
    3
 10
1479.934
 20
3682.0738
 11
1479.7787
 21
3680.2115
  0
LINE
  8
0-2
  6
CONTINUOUS
 62
    3
 10
1479.7787
 20
3680.2115
 11
1479.934
 21
3678.3491
  0
LINE
  8
0-2
  6
CONTINUOUS
 62
    3
 10
1479.934
 20
3678.3491
 11
1480.3951
 21
3676.5433
  0
LINE
  8
0-2
  6
CONTINUOUS
 62
    3
 10
1480.3951
 20
3676.5433
 11
1481.148
 21
3674.849
  0
LINE
  8
0-2
  6
CONTINUOUS
 62
    3
 10
1481.148
 20
3674.849
 11
1482.1699
 21
3673.3176
  0
LINE
  8
0-2
  6
CONTINUOUS
 62
    3
 10
1482.1699
 20
3673.3176
 11
1483.4297
 21
3671.9957
  0
LINE
  8
0-2
  6
CONTINUOUS
 62
    3
 10
1483.4297
 20
3671.9957
 11
1484.8891
 21
3670.9234
  0
LINE
  8
0-2
  6
CONTINUOUS
 62
    3
 10
1484.8891
 20
3670.9234
 11
1486.5038
 21
3670.1334
  0
LINE
  8
0-2
  6
CONTINUOUS
 62
    3
 10
1486.5038
 20
3670.1334
 11
1488.2247
 21
3669.6495
  0
LINE
  8
0-2
  6
CONTINUOUS
 62
    3
 10
1488.2247
 20
3669.6495
 11
1489.9995
 21
3669.4866
  0
LINE
  8
0-2
  6
CONTINUOUS
 62
    3
 10
2925.0006
 20
3962.3378
 11
2926.7754
 21
3962.5007
  0
LINE
  8
0-2
  6
CONTINUOUS
 62
    3
 10
2926.7754
 20
3962.5007
 11
2928.4963
 21
3962.9846
  0
LINE
  8
0-2
  6
CONTINUOUS
 62
    3
 10
2928.4963
 20
3962.9846
 11
2930.111
 21
3963.7747
  0
LINE
  8
0-2
  6
CONTINUOUS
 62
    3
 10
2930.111
 20
3963.7747
 11
2931.5704
 21
3964.847
  0
LINE
  8
0-2
  6
CONTINUOUS
 62
    3
 10
2931.5704
 20
3964.847
 11
2932.8302
 21
3966.1689
  0
LINE
  8
0-2
  6
CONTINUOUS
 62
    3
 10
2932.8302
 20
3966.1689
 11
2933.8521
 21
3967.7003
  0
LINE
  8
0-2
  6
CONTINUOUS
 62
    3
 10
2933.8521
 20
3967.7003
 11
2934.605
 21
3969.3946
  0
LINE
  8
0-2
  6
CONTINUOUS
 62
    3
 10
2934.605
 20
3969.3946
 11
2935.0661
 21
3971.2003
  0
LINE
  8
0-2
  6
CONTINUOUS
 62
    3
 10
2935.0661
 20
3971.2003
 11
2935.2214
 21
3973.0627
  0
LINE
  8
0-2
  6
CONTINUOUS
 62
    3
 10
2935.2214
 20
3973.0627
 11
2935.0661
 21
3974.9251
  0
LINE
  8
0-2
  6
CONTINUOUS
 62
    3
 10
2935.0661
 20
3974.9251
 11
2934.605
 21
3976.7308
  0
LINE
  8
0-2
  6
CONTINUOUS
 62
    3
 10
2934.605
 20
3976.7308
 11
2933.8521
 21
3978.4251
  0
LINE
  8
0-2
  6
CONTINUOUS
 62
    3
 10
2933.8521
 20
3978.4251
 11
2932.8302
 21
3979.9565
  0
LINE
  8
0-2
  6
CONTINUOUS
 62
    3
 10
2932.8302
 20
3979.9565
 11
2931.5704
 21
3981.2784
  0
LINE
  8
0-2
  6
CONTINUOUS
 62
    3
 10
2931.5704
 20
3981.2784
 11
2930.111
 21
3982.3507
  0
LINE
  8
0-2
  6
CONTINUOUS
 62
    3
 10
2930.111
 20
3982.3507
 11
2928.4963
 21
3983.1408
  0
LINE
  8
0-2
  6
CONTINUOUS
 62
    3
 10
2928.4963
 20
3983.1408
 11
2926.7754
 21
3983.6247
  0
LINE
  8
0-2
  6
CONTINUOUS
 62
    3
 10
2926.7754
 20
3983.6247
 11
2925.0006
 21
3983.7876
  0
LINE
  8
0-2
  6
CONTINUOUS
 62
    3
 10
2925.0006
 20
3876.5375
 11
2926.7754
 21
3876.7005
  0
LINE
  8
0-2
  6
CONTINUOUS
 62
    3
 10
2926.7754
 20
3876.7005
 11
2928.4963
 21
3877.1843
  0
LINE
  8
0-2
  6
CONTINUOUS
 62
    3
 10
2928.4963
 20
3877.1843
 11
2930.111
 21
3877.9744
  0
LINE
  8
0-2
  6
CONTINUOUS
 62
    3
 10
2930.111
 20
3877.9744
 11
2931.5704
 21
3879.0467
  0
LINE
  8
0-2
  6
CONTINUOUS
 62
    3
 10
2931.5704
 20
3879.0467
 11
2932.8302
 21
3880.3686
  0
LINE
  8
0-2
  6
CONTINUOUS
 62
    3
 10
2932.8302
 20
3880.3686
 11
2933.8521
 21
3881.9
  0
LINE
  8
0-2
  6
CONTINUOUS
 62
    3
 10
2933.8521
 20
3881.9
 11
2934.605
 21
3883.5943
  0
LINE
  8
0-2
  6
CONTINUOUS
 62
    3
 10
2934.605
 20
3883.5943
 11
2935.0661
 21
3885.4001
  0
LINE
  8
0-2
  6
CONTINUOUS
 62
    3
 10
2935.0661
 20
3885.4001
 11
2935.2214
 21
3887.2624
  0
LINE
  8
0-2
  6
CONTINUOUS
 62
    3
 10
2935.2214
 20
3887.2624
 11
2935.0661
 21
3889.1248
  0
LINE
  8
0-2
  6
CONTINUOUS
 62
    3
 10
2935.0661
 20
3889.1248
 11
2934.605
 21
3890.9306
  0
LINE
  8
0-2
  6
CONTINUOUS
 62
    3
 10
2934.605
 20
3890.9306
 11
2933.8521
 21
3892.6249
  0
LINE
  8
0-2
  6
CONTINUOUS
 62
    3
 10
2933.8521
 20
3892.6249
 11
2932.8302
 21
3894.1563
  0
LINE
  8
0-2
  6
CONTINUOUS
 62
    3
 10
2932.8302
 20
3894.1563
 11
2931.5704
 21
3895.4782
  0
LINE
  8
0-2
  6
CONTINUOUS
 62
    3
 10
2931.5704
 20
3895.4782
 11
2930.111
 21
3896.5505
  0
LINE
  8
0-2
  6
CONTINUOUS
 62
    3
 10
2930.111
 20
3896.5505
 11
2928.4963
 21
3897.3405
  0
LINE
  8
0-2
  6
CONTINUOUS
 62
    3
 10
2928.4963
 20
3897.3405
 11
2926.7754
 21
3897.8244
  0
LINE
  8
0-2
  6
CONTINUOUS
 62
    3
 10
2926.7754
 20
3897.8244
 11
2925.0006
 21
3897.9873
  0
LINE
  8
0-2
  6
CONTINUOUS
 62
    3
 10
2709.9996
 20
3744.8365
 11
2711.7745
 21
3744.9994
  0
LINE
  8
0-2
  6
CONTINUOUS
 62
    3
 10
2711.7745
 20
3744.9994
 11
2713.4954
 21
3745.4833
  0
LINE
  8
0-2
  6
CONTINUOUS
 62
    3
 10
2713.4954
 20
3745.4833
 11
2715.11
 21
3746.2733
  0
LINE
  8
0-2
  6
CONTINUOUS
 62
    3
 10
2715.11
 20
3746.2733
 11
2716.5694
 21
3747.3456
  0
LINE
  8
0-2
  6
CONTINUOUS
 62
    3
 10
2716.5694
 20
3747.3456
 11
2717.8292
 21
3748.6675
  0
LINE
  8
0-2
  6
CONTINUOUS
 62
    3
 10
2717.8292
 20
3748.6675
 11
2718.8511
 21
3750.1989
  0
LINE
  8
0-2
  6
CONTINUOUS
 62
    3
 10
2718.8511
 20
3750.1989
 11
2719.6041
 21
3751.8932
  0
LINE
  8
0-2
  6
CONTINUOUS
 62
    3
 10
2719.6041
 20
3751.8932
 11
2720.0652
 21
3753.699
  0
LINE
  8
0-2
  6
CONTINUOUS
 62
    3
 10
2720.0652
 20
3753.699
 11
2720.2204
 21
3755.5614
  0
LINE
  8
0-2
  6
CONTINUOUS
 62
    3
 10
2720.2204
 20
3755.5614
 11
2720.0652
 21
3757.4237
  0
LINE
  8
0-2
  6
CONTINUOUS
 62
    3
 10
2720.0652
 20
3757.4237
 11
2719.6041
 21
3759.2295
  0
LINE
  8
0-2
  6
CONTINUOUS
 62
    3
 10
2719.6041
 20
3759.2295
 11
2718.8511
 21
3760.9238
  0
LINE
  8
0-2
  6
CONTINUOUS
 62
    3
 10
2718.8511
 20
3760.9238
 11
2717.8292
 21
3762.4552
  0
LINE
  8
0-2
  6
CONTINUOUS
 62
    3
 10
2717.8292
 20
3762.4552
 11
2716.5694
 21
3763.7771
  0
LINE
  8
0-2
  6
CONTINUOUS
 62
    3
 10
2716.5694
 20
3763.7771
 11
2715.11
 21
3764.8494
  0
LINE
  8
0-2
  6
CONTINUOUS
 62
    3
 10
2715.11
 20
3764.8494
 11
2713.4954
 21
3765.6395
  0
LINE
  8
0-2
  6
CONTINUOUS
 62
    3
 10
2713.4954
 20
3765.6395
 11
2711.7745
 21
3766.1233
  0
LINE
  8
0-2
  6
CONTINUOUS
 62
    3
 10
2711.7745
 20
3766.1233
 11
2709.9996
 21
3766.2862
  0
LINE
  8
0-2
  6
CONTINUOUS
 62
    3
 10
2709.9996
 20
3669.4871
 11
2711.7745
 21
3669.65
  0
LINE
  8
0-2
  6
CONTINUOUS
 62
    3
 10
2711.7745
 20
3669.65
 11
2713.4954
 21
3670.1339
  0
LINE
  8
0-2
  6
CONTINUOUS
 62
    3
 10
2713.4954
 20
3670.1339
 11
2715.11
 21
3670.9239
  0
LINE
  8
0-2
  6
CONTINUOUS
 62
    3
 10
2715.11
 20
3670.9239
 11
2716.5694
 21
3671.9962
  0
LINE
  8
0-2
  6
CONTINUOUS
 62
    3
 10
2716.5694
 20
3671.9962
 11
2717.8292
 21
3673.3181
  0
LINE
  8
0-2
  6
CONTINUOUS
 62
    3
 10
2717.8292
 20
3673.3181
 11
2718.8511
 21
3674.8495
  0
LINE
  8
0-2
  6
CONTINUOUS
 62
    3
 10
2718.8511
 20
3674.8495
 11
2719.6041
 21
3676.5438
  0
LINE
  8
0-2
  6
CONTINUOUS
 62
    3
 10
2719.6041
 20
3676.5438
 11
2720.0652
 21
3678.3496
  0
LINE
  8
0-2
  6
CONTINUOUS
 62
    3
 10
2720.0652
 20
3678.3496
 11
2720.2204
 21
3680.212
  0
LINE
  8
0-2
  6
CONTINUOUS
 62
    3
 10
2720.2204
 20
3680.212
 11
2720.0652
 21
3682.0743
  0
LINE
  8
0-2
  6
CONTINUOUS
 62
    3
 10
2720.0652
 20
3682.0743
 11
2719.6041
 21
3683.8801
  0
LINE
  8
0-2
  6
CONTINUOUS
 62
    3
 10
2719.6041
 20
3683.8801
 11
2718.8511
 21
3685.5744
  0
LINE
  8
0-2
  6
CONTINUOUS
 62
    3
 10
2718.8511
 20
3685.5744
 11
2717.8292
 21
3687.1058
  0
LINE
  8
0-2
  6
CONTINUOUS
 62
    3
 10
2717.8292
 20
3687.1058
 11
2716.5694
 21
3688.4277
  0
LINE
  8
0-2
  6
CONTINUOUS
 62
    3
 10
2716.5694
 20
3688.4277
 11
2715.11
 21
3689.5
  0
LINE
  8
0-2
  6
CONTINUOUS
 62
    3
 10
2715.11
 20
3689.5
 11
2713.4954
 21
3690.2901
  0
LINE
  8
0-2
  6
CONTINUOUS
 62
    3
 10
2713.4954
 20
3690.2901
 11
2711.7745
 21
3690.7739
  0
LINE
  8
0-2
  6
CONTINUOUS
 62
    3
 10
2711.7745
 20
3690.7739
 11
2709.9996
 21
3690.9369
  0
LINE
  8
0-2
  6
CONTINUOUS
 62
    3
 10
1275
 20
4620.6373
 11
1273.2252
 21
4620.4744
  0
LINE
  8
0-2
  6
CONTINUOUS
 62
    3
 10
1273.2252
 20
4620.4744
 11
1271.5043
 21
4619.9906
  0
LINE
  8
0-2
  6
CONTINUOUS
 62
    3
 10
1271.5043
 20
4619.9906
 11
1269.8896
 21
4619.2005
  0
LINE
  8
0-2
  6
CONTINUOUS
 62
    3
 10
1269.8896
 20
4619.2005
 11
1268.4302
 21
4618.1282
  0
LINE
  8
0-2
  6
CONTINUOUS
 62
    3
 10
1268.4302
 20
4618.1282
 11
1267.1704
 21
4616.8063
  0
LINE
  8
0-2
  6
CONTINUOUS
 62
    3
 10
1267.1704
 20
4616.8063
 11
1266.1485
 21
4615.2749
  0
LINE
  8
0-2
  6
CONTINUOUS
 62
    3
 10
1266.1485
 20
4615.2749
 11
1265.3956
 21
4613.5806
  0
LINE
  8
0-2
  6
CONTINUOUS
 62
    3
 10
1265.3956
 20
4613.5806
 11
1264.9345
 21
4611.7748
  0
LINE
  8
0-2
  6
CONTINUOUS
 62
    3
 10
1264.9345
 20
4611.7748
 11
1264.7792
 21
4609.9125
  0
LINE
  8
0-2
  6
CONTINUOUS
 62
    3
 10
1264.7792
 20
4609.9125
 11
1264.9345
 21
4608.0501
  0
LINE
  8
0-2
  6
CONTINUOUS
 62
    3
 10
1264.9345
 20
4608.0501
 11
1265.3956
 21
4606.2443
  0
LINE
  8
0-2
  6
CONTINUOUS
 62
    3
 10
1265.3956
 20
4606.2443
 11
1266.1485
 21
4604.55
  0
LINE
  8
0-2
  6
CONTINUOUS
 62
    3
 10
1266.1485
 20
4604.55
 11
1267.1704
 21
4603.0186
  0
LINE
  8
0-2
  6
CONTINUOUS
 62
    3
 10
1267.1704
 20
4603.0186
 11
1268.4302
 21
4601.6967
  0
LINE
  8
0-2
  6
CONTINUOUS
 62
    3
 10
1268.4302
 20
4601.6967
 11
1269.8896
 21
4600.6244
  0
LINE
  8
0-2
  6
CONTINUOUS
 62
    3
 10
1269.8896
 20
4600.6244
 11
1271.5043
 21
4599.8344
  0
LINE
  8
0-2
  6
CONTINUOUS
 62
    3
 10
1271.5043
 20
4599.8344
 11
1273.2252
 21
4599.3505
  0
LINE
  8
0-2
  6
CONTINUOUS
 62
    3
 10
1273.2252
 20
4599.3505
 11
1275
 21
4599.1876
  0
LINE
  8
0-2
  6
CONTINUOUS
 62
    3
 10
1275
 20
4706.4366
 11
1273.2252
 21
4706.2737
  0
LINE
  8
0-2
  6
CONTINUOUS
 62
    3
 10
1273.2252
 20
4706.2737
 11
1271.5043
 21
4705.7898
  0
LINE
  8
0-2
  6
CONTINUOUS
 62
    3
 10
1271.5043
 20
4705.7898
 11
1269.8896
 21
4704.9998
  0
LINE
  8
0-2
  6
CONTINUOUS
 62
    3
 10
1269.8896
 20
4704.9998
 11
1268.4302
 21
4703.9275
  0
LINE
  8
0-2
  6
CONTINUOUS
 62
    3
 10
1268.4302
 20
4703.9275
 11
1267.1704
 21
4702.6056
  0
LINE
  8
0-2
  6
CONTINUOUS
 62
    3
 10
1267.1704
 20
4702.6056
 11
1266.1485
 21
4701.0742
  0
LINE
  8
0-2
  6
CONTINUOUS
 62
    3
 10
1266.1485
 20
4701.0742
 11
1265.3956
 21
4699.3799
  0
LINE
  8
0-2
  6
CONTINUOUS
 62
    3
 10
1265.3956
 20
4699.3799
 11
1264.9345
 21
4697.5741
  0
LINE
  8
0-2
  6
CONTINUOUS
 62
    3
 10
1264.9345
 20
4697.5741
 11
1264.7792
 21
4695.7117
  0
LINE
  8
0-2
  6
CONTINUOUS
 62
    3
 10
1264.7792
 20
4695.7117
 11
1264.9345
 21
4693.8494
  0
LINE
  8
0-2
  6
CONTINUOUS
 62
    3
 10
1264.9345
 20
4693.8494
 11
1265.3956
 21
4692.0436
  0
LINE
  8
0-2
  6
CONTINUOUS
 62
    3
 10
1265.3956
 20
4692.0436
 11
1266.1485
 21
4690.3493
  0
LINE
  8
0-2
  6
CONTINUOUS
 62
    3
 10
1266.1485
 20
4690.3493
 11
1267.1704
 21
4688.8179
  0
LINE
  8
0-2
  6
CONTINUOUS
 62
    3
 10
1267.1704
 20
4688.8179
 11
1268.4302
 21
4687.496
  0
LINE
  8
0-2
  6
CONTINUOUS
 62
    3
 10
1268.4302
 20
4687.496
 11
1269.8896
 21
4686.4237
  0
LINE
  8
0-2
  6
CONTINUOUS
 62
    3
 10
1269.8896
 20
4686.4237
 11
1271.5043
 21
4685.6336
  0
LINE
  8
0-2
  6
CONTINUOUS
 62
    3
 10
1271.5043
 20
4685.6336
 11
1273.2252
 21
4685.1498
  0
LINE
  8
0-2
  6
CONTINUOUS
 62
    3
 10
1273.2252
 20
4685.1498
 11
1275
 21
4684.9868
  0
LINE
  8
0-2
  6
CONTINUOUS
 62
    3
 10
2925.0001
 20
4599.1876
 11
2926.7749
 21
4599.3505
  0
LINE
  8
0-2
  6
CONTINUOUS
 62
    3
 10
2926.7749
 20
4599.3505
 11
2928.4958
 21
4599.8344
  0
LINE
  8
0-2
  6
CONTINUOUS
 62
    3
 10
2928.4958
 20
4599.8344
 11
2930.1105
 21
4600.6244
  0
LINE
  8
0-2
  6
CONTINUOUS
 62
    3
 10
2930.1105
 20
4600.6244
 11
2931.5699
 21
4601.6967
  0
LINE
  8
0-2
  6
CONTINUOUS
 62
    3
 10
2931.5699
 20
4601.6967
 11
2932.8297
 21
4603.0186
  0
LINE
  8
0-2
  6
CONTINUOUS
 62
    3
 10
2932.8297
 20
4603.0186
 11
2933.8516
 21
4604.55
  0
LINE
  8
0-2
  6
CONTINUOUS
 62
    3
 10
2933.8516
 20
4604.55
 11
2934.6045
 21
4606.2443
  0
LINE
  8
0-2
  6
CONTINUOUS
 62
    3
 10
2934.6045
 20
4606.2443
 11
2935.0656
 21
4608.0501
  0
LINE
  8
0-2
  6
CONTINUOUS
 62
    3
 10
2935.0656
 20
4608.0501
 11
2935.2209
 21
4609.9125
  0
LINE
  8
0-2
  6
CONTINUOUS
 62
    3
 10
2935.2209
 20
4609.9125
 11
2935.0656
 21
4611.7748
  0
LINE
  8
0-2
  6
CONTINUOUS
 62
    3
 10
2935.0656
 20
4611.7748
 11
2934.6045
 21
4613.5806
  0
LINE
  8
0-2
  6
CONTINUOUS
 62
    3
 10
2934.6045
 20
4613.5806
 11
2933.8516
 21
4615.2749
  0
LINE
  8
0-2
  6
CONTINUOUS
 62
    3
 10
2933.8516
 20
4615.2749
 11
2932.8297
 21
4616.8063
  0
LINE
  8
0-2
  6
CONTINUOUS
 62
    3
 10
2932.8297
 20
4616.8063
 11
2931.5699
 21
4618.1282
  0
LINE
  8
0-2
  6
CONTINUOUS
 62
    3
 10
2931.5699
 20
4618.1282
 11
2930.1105
 21
4619.2005
  0
LINE
  8
0-2
  6
CONTINUOUS
 62
    3
 10
2930.1105
 20
4619.2005
 11
2928.4958
 21
4619.9906
  0
LINE
  8
0-2
  6
CONTINUOUS
 62
    3
 10
2928.4958
 20
4619.9906
 11
2926.7749
 21
4620.4744
  0
LINE
  8
0-2
  6
CONTINUOUS
 62
    3
 10
2926.7749
 20
4620.4744
 11
2925.0001
 21
4620.6373
  0
LINE
  8
0-2
  6
CONTINUOUS
 62
    3
 10
2925.0001
 20
4684.9868
 11
2926.7749
 21
4685.1498
  0
LINE
  8
0-2
  6
CONTINUOUS
 62
    3
 10
2926.7749
 20
4685.1498
 11
2928.4958
 21
4685.6336
  0
LINE
  8
0-2
  6
CONTINUOUS
 62
    3
 10
2928.4958
 20
4685.6336
 11
2930.1105
 21
4686.4237
  0
LINE
  8
0-2
  6
CONTINUOUS
 62
    3
 10
2930.1105
 20
4686.4237
 11
2931.5699
 21
4687.496
  0
LINE
  8
0-2
  6
CONTINUOUS
 62
    3
 10
2931.5699
 20
4687.496
 11
2932.8297
 21
4688.8179
  0
LINE
  8
0-2
  6
CONTINUOUS
 62
    3
 10
2932.8297
 20
4688.8179
 11
2933.8516
 21
4690.3493
  0
LINE
  8
0-2
  6
CONTINUOUS
 62
    3
 10
2933.8516
 20
4690.3493
 11
2934.6045
 21
4692.0436
  0
LINE
  8
0-2
  6
CONTINUOUS
 62
    3
 10
2934.6045
 20
4692.0436
 11
2935.0656
 21
4693.8494
  0
LINE
  8
0-2
  6
CONTINUOUS
 62
    3
 10
2935.0656
 20
4693.8494
 11
2935.2209
 21
4695.7117
  0
LINE
  8
0-2
  6
CONTINUOUS
 62
    3
 10
2935.2209
 20
4695.7117
 11
2935.0656
 21
4697.5741
  0
LINE
  8
0-2
  6
CONTINUOUS
 62
    3
 10
2935.0656
 20
4697.5741
 11
2934.6045
 21
4699.3799
  0
LINE
  8
0-2
  6
CONTINUOUS
 62
    3
 10
2934.6045
 20
4699.3799
 11
2933.8516
 21
4701.0742
  0
LINE
  8
0-2
  6
CONTINUOUS
 62
    3
 10
2933.8516
 20
4701.0742
 11
2932.8297
 21
4702.6056
  0
LINE
  8
0-2
  6
CONTINUOUS
 62
    3
 10
2932.8297
 20
4702.6056
 11
2931.5699
 21
4703.9275
  0
LINE
  8
0-2
  6
CONTINUOUS
 62
    3
 10
2931.5699
 20
4703.9275
 11
2930.1105
 21
4704.9998
  0
LINE
  8
0-2
  6
CONTINUOUS
 62
    3
 10
2930.1105
 20
4704.9998
 11
2928.4958
 21
4705.7898
  0
LINE
  8
0-2
  6
CONTINUOUS
 62
    3
 10
2928.4958
 20
4705.7898
 11
2926.7749
 21
4706.2737
  0
LINE
  8
0-2
  6
CONTINUOUS
 62
    3
 10
2926.7749
 20
4706.2737
 11
2925.0001
 21
4706.4366
  0
LINE
  8
0-2
  6
CONTINUOUS
 62
    3
 10
2709.9986
 20
4275.0364
 11
2711.7735
 21
4275.1994
  0
LINE
  8
0-2
  6
CONTINUOUS
 62
    3
 10
2711.7735
 20
4275.1994
 11
2713.4944
 21
4275.6832
  0
LINE
  8
0-2
  6
CONTINUOUS
 62
    3
 10
2713.4944
 20
4275.6832
 11
2715.109
 21
4276.4733
  0
LINE
  8
0-2
  6
CONTINUOUS
 62
    3
 10
2715.109
 20
4276.4733
 11
2716.5685
 21
4277.5456
  0
LINE
  8
0-2
  6
CONTINUOUS
 62
    3
 10
2716.5685
 20
4277.5456
 11
2717.8282
 21
4278.8675
  0
LINE
  8
0-2
  6
CONTINUOUS
 62
    3
 10
2717.8282
 20
4278.8675
 11
2718.8501
 21
4280.3989
  0
LINE
  8
0-2
  6
CONTINUOUS
 62
    3
 10
2718.8501
 20
4280.3989
 11
2719.6031
 21
4282.0932
  0
LINE
  8
0-2
  6
CONTINUOUS
 62
    3
 10
2719.6031
 20
4282.0932
 11
2720.0642
 21
4283.899
  0
LINE
  8
0-2
  6
CONTINUOUS
 62
    3
 10
2720.0642
 20
4283.899
 11
2720.2195
 21
4285.7613
  0
LINE
  8
0-2
  6
CONTINUOUS
 62
    3
 10
2720.2195
 20
4285.7613
 11
2720.0642
 21
4287.6237
  0
LINE
  8
0-2
  6
CONTINUOUS
 62
    3
 10
2720.0642
 20
4287.6237
 11
2719.6031
 21
4289.4295
  0
LINE
  8
0-2
  6
CONTINUOUS
 62
    3
 10
2719.6031
 20
4289.4295
 11
2718.8501
 21
4291.1238
  0
LINE
  8
0-2
  6
CONTINUOUS
 62
    3
 10
2718.8501
 20
4291.1238
 11
2717.8282
 21
4292.6552
  0
LINE
  8
0-2
  6
CONTINUOUS
 62
    3
 10
2717.8282
 20
4292.6552
 11
2716.5685
 21
4293.9771
  0
LINE
  8
0-2
  6
CONTINUOUS
 62
    3
 10
2716.5685
 20
4293.9771
 11
2715.109
 21
4295.0494
  0
LINE
  8
0-2
  6
CONTINUOUS
 62
    3
 10
2715.109
 20
4295.0494
 11
2713.4944
 21
4295.8394
  0
LINE
  8
0-2
  6
CONTINUOUS
 62
    3
 10
2713.4944
 20
4295.8394
 11
2711.7735
 21
4296.3233
  0
LINE
  8
0-2
  6
CONTINUOUS
 62
    3
 10
2711.7735
 20
4296.3233
 11
2709.9986
 21
4296.4862
  0
TEXT
  8
0-d
 10
509.99972
 20
310.13515
 40
50
 41
1
 50
0
  1
図
  0
TEXT
  8
0-d
 10
509.99972
 20
190.13521
 40
50
 41
1
 50
0
  1
番
  0
TEXT
  8
0-d
 10
1309.9998
 20
310.13515
 40
50
 41
1
 50
0
  1
承
  0
TEXT
  8
0-d
 10
1309.9998
 20
190.13521
 40
50
 41
1
 50
0
  1
認
  0
TEXT
  8
0-d
 10
2039.9997
 20
470.13525
 40
50
 41
1
 50
0
  1
尺
  0
TEXT
  8
0-d
 10
2039.9997
 20
390.13529
 40
50
 41
1
 50
359.99986
  1
度
  0
TEXT
  8
0-d
 10
1709.9997
 20
310.13515
 40
50
 41
1
 50
0
  1
製
  0
TEXT
  8
0-d
 10
1709.9997
 20
190.13521
 40
50
 41
1
 50
0
  1
図
  0
TEXT
  8
0-d
 10
3110
 20
470.13525
 40
50
 41
1
 50
0
  1
日
  0
TEXT
  8
0-d
 10
3110
 20
390.13529
 40
50
 41
1
 50
359.99986
  1
付
  0
TEXT
  8
0-d
 10
2222.852
 20
322.09976
 40
40
 41
1
 50
0
  1
株式
  0
TEXT
  8
0-d
 10
2222.852
 20
278.83889
 40
40
 41
1
 50
0.0000152
  1
会社
  0
TEXT
  8
0-d
 10
2348.4485
 20
281.62989
 40
80
 41
1
 50
0
  1
スズキベンチレーター
  0
TEXT
  8
0-d
 10
2475.8354
 20
183.18397
 40
40
 41
1
 50
0
  1
TEL(054)296-7000  FAX(054)296-7001
  0
TEXT
  8
0-d
 10
2168.6978
 20
415.33667
 40
80
 41
1
 50
0
  1
１／２０
  0
TEXT
  8
0-8
 10
2027.5002
 20
5110.1527
 40
60
 41
1
 50
0
  1
1,650
  0
TEXT
  8
0-8
 10
884.60235
 20
4238.9878
 40
60
 41
1
 50
90
  1
1,350
  0
TEXT
  8
0-8
 10
3417.8379
 20
3688.9877
 40
60
 41
1
 50
90
  1
190
  0
TEXT
  8
0-8
 10
3417.8379
 20
4248.9873
 40
60
 41
1
 50
90
  1
930
  0
TEXT
  8
0-8
 10
3417.8379
 20
4828.9873
 40
60
 41
1
 50
90
  1
230
  0
TEXT
  8
0-8
 10
2811.1369
 20
4098.1171
 40
60
 41
1
 50
90
  1
690
  0
TEXT
  8
0-8
 10
2027.4992
 20
3497.4883
 40
60
 41
1
 50
0
  1
1,220φ
  0
TEXT
  8
0-d
 10
596.6753
 20
287.90676
 40
60
 41
1
 50
0
  1
120-H05a
  0
TEXT
  8
0-d
 10
510.00006
 20
5545.4028
 40
100
 41
1
 50
0
  1
ＤＳ－１２００  自然換気  直付型断面
  0
TEXT
  8
0-d
 10
562.32181
 20
415.28022
 40
60
 41
1
 50
0
  1
ＤＳ－１２００  自然換気  直付型断面
  0
TEXT
  8
0-d
 10
2471.3583
 20
232.42738
 40
40
 41
1
 50
0
  1
〒421-2114　静岡市葵区安倍口新田１５２番地
  0
POINT
  8
0-8
 62
    2
 10
904.60217
 20
3636.4876
  0
POINT
  8
0-8
 62
    2
 10
904.60242
 20
4986.4877
  0
POINT
  8
0-8
 62
    2
 10
1275
 20
5090.1526
  0
POINT
  8
0-8
 62
    2
 10
2925.0001
 20
5090.1526
  0
POINT
  8
0-8
 62
    2
 10
1489.9995
 20
3477.4877
  0
POINT
  8
0-8
 62
    2
 10
2709.9991
 20
3477.4885
  0
POINT
  8
0-8
 62
    2
 10
3437.838
 20
3636.4876
  0
POINT
  8
0-8
 62
    2
 10
3437.838
 20
3826.4875
  0
POINT
  8
0-8
 62
    2
 10
3437.838
 20
4756.4874
  0
POINT
  8
0-8
 62
    2
 10
3437.838
 20
4986.4867
  0
POINT
  8
0-8
 62
    2
 10
2825.0146
 20
3636.4876
  0
POINT
  8
0-8
 62
    2
 10
2825.0146
 20
4326.4874
  0
ENDSEC
  0
EOF
