  0
SECTION
  2
HEADER
  9
$EXTMIN
 10
0
 20
0
  9
$EXTMAX
 10
8400
 20
5940
  0
ENDSEC
  0
SECTION
  2
TABLES
  0
TABLE
  2
LTYPE
 70
     9
  0
LTYPE
  2
CONTINUOUS
 70
    64
  3
実線
 72
    65
 73
     0
 40
0.0
  0
LTYPE
  2
DASHED1
 70
    64
  3
--  --  --  --  --  --  --  --  
 72
    65
 73
     2
 40
2.5
 49
1.25
 49
-1.25
  0
LTYPE
  2
DASHED2
 70
    64
  3
----    ----    ----    ----    
 72
    65
 73
     2
 40
5.0
 49
2.5
 49
-2.5
  0
LTYPE
  2
DASHED3
 70
    64
  3
------  ------  ------  ------  
 72
    65
 73
     2
 40
5.0
 49
3.75
 49
-1.25
  0
LTYPE
  2
CENTER1
 70
    64
  3
----- - ----- - ----- - ----- - 
 72
    65
 73
     4
 40
10.0
 49
6.25
 49
-1.25
 49
1.25
 49
-1.25
  0
LTYPE
  2
CENTER2
 70
    64
  3
----------  --  ----------  --  
 72
    65
 73
     4
 40
20.0
 49
12.5
 49
-2.5
 49
2.5
 49
-2.5
  0
LTYPE
  2
PHANTOM1
 70
    64
  3
--- - - --- - - --- - - --- - - 
 72
    65
 73
     6
 40
10.0
 49
3.25
 49
-1.25
 49
1.25
 49
-1.25
 49
1.25
 49
-1.25
  0
LTYPE
  2
PHANTOM2
 70
    64
  3
--------  -  -  --------  -  -  
 72
    65
 73
     6
 40
20.0
 49
10.0
 49
-2.5
 49
1.25
 49
-2.5
 49
1.25
 49
-2.5
  0
LTYPE
  2
DOT
 70
    64
  3
-   -   -   -   -   -   -   -   
 72
    65
 73
     2
 40
2.5
 49
0.625
 49
-1.875
  0
ENDTAB
  0
TABLE
  2
STYLE
 70
    1
  0
STYLE
  2
STANDARD
 70
    64
 40
0.0
 41
1.0
 42
0.0
 50
0.0
 71
     0
  3
TXT
  4
BIGFONT
  0
ENDTAB
  0
TABLE
  2
LAYER
 70
    5
  0
LAYER
  2
0-1
 70
   64
 62
    7
  6
CONTINUOUS
  0
LAYER
  2
0-2
 70
   64
 62
    7
  6
CONTINUOUS
  0
LAYER
  2
0-8
 70
   64
 62
    7
  6
CONTINUOUS
  0
LAYER
  2
0-d
 70
   64
 62
    7
  6
CONTINUOUS
  0
LAYER
  2
ADD_LINE
 70
   64
 62
    7
  6
CONTINUOUS
  0
ENDTAB
  0
ENDSEC
  0
SECTION
  2
ENTITIES
  0
LINE
  8
0-d
  6
CONTINUOUS
 62
    7
 10
500.00006
 20
5515.4027
 11
3700.0002
 21
5515.4027
  0
LINE
  8
0-d
  6
CONTINUOUS
 62
    7
 10
500.00006
 20
5535.4028
 11
3700.0002
 21
5535.4028
  0
LINE
  8
0-d
  6
CONTINUOUS
 62
    7
 10
499.99981
 20
375.13524
 11
3700
 21
375.13524
  0
LINE
  8
0-d
  6
CONTINUOUS
 62
    7
 10
499.99981
 20
175.13519
 11
499.99981
 21
535.13516
  0
LINE
  8
0-d
  6
CONTINUOUS
 62
    7
 10
499.99981
 20
175.13519
 11
3700
 21
175.13519
  0
LINE
  8
0-d
  6
CONTINUOUS
 62
    7
 10
2100.0001
 20
535.13516
 11
2100.0001
 21
175.13519
  0
LINE
  8
0-d
  6
CONTINUOUS
 62
    7
 10
1300
 20
175.13519
 11
1300
 21
375.13524
  0
LINE
  8
0-d
  6
CONTINUOUS
 62
    7
 10
2100.0001
 20
375.13524
 11
2100.0001
 21
535.13516
  0
LINE
  8
0-d
  6
CONTINUOUS
 62
    7
 10
1700
 20
175.13519
 11
1700
 21
375.13524
  0
LINE
  8
0-d
  6
CONTINUOUS
 62
    7
 10
569.99968
 20
175.13519
 11
569.99968
 21
375.13524
  0
LINE
  8
0-d
  6
CONTINUOUS
 62
    7
 10
1369.9996
 20
175.13519
 11
1369.9996
 21
375.13524
  0
LINE
  8
0-d
  6
CONTINUOUS
 62
    7
 10
1769.9996
 20
175.13519
 11
1769.9996
 21
375.13524
  0
LINE
  8
0-d
  6
CONTINUOUS
 62
    7
 10
2029.9999
 20
375.13524
 11
2029.9999
 21
535.13516
  0
LINE
  8
0-d
  6
CONTINUOUS
 62
    7
 10
3099.9999
 20
375.13524
 11
3099.9999
 21
535.13516
  0
LINE
  8
0-d
  6
CONTINUOUS
 62
    7
 10
3169.9997
 20
375.13524
 11
3169.9997
 21
535.13516
  0
LINE
  8
0-d
  6
CONTINUOUS
 62
    7
 10
499.99981
 20
535.13516
 11
3700
 21
535.13516
  0
LINE
  8
0-d
  6
CONTINUOUS
 62
    7
 10
3700
 20
535.13516
 11
3700
 21
175.13519
  0
LINE
  8
0-8
  6
CONTINUOUS
 62
    7
 10
1275
 20
5390.1526
 11
2925.0001
 21
5390.1526
  0
LINE
  8
0-8
  6
CONTINUOUS
 62
    7
 10
1489.9995
 20
3904.4927
 11
1489.9995
 21
3817.4876
  0
LINE
  8
0-8
  6
CONTINUOUS
 62
    7
 10
2709.9991
 20
3904.4932
 11
2709.9991
 21
3817.4884
  0
LINE
  8
0-8
  6
CONTINUOUS
 62
    7
 10
1275
 20
5122.0911
 11
1275
 21
5390.1526
  0
LINE
  8
0-8
  6
CONTINUOUS
 62
    7
 10
1555.0094
 20
5286.4877
 11
904.60242
 21
5286.4877
  0
LINE
  8
0-8
  6
CONTINUOUS
 62
    7
 10
2925.0001
 20
5122.0911
 11
2925.0001
 21
5390.1526
  0
LINE
  8
0-2
  6
CONTINUOUS
 62
    3
 10
1275
 20
4262.3382
 11
1275
 21
4197.988
  0
LINE
  8
0-2
  6
CONTINUOUS
 62
    3
 10
1275
 20
4176.5379
 11
1275
 21
4126.4875
  0
LINE
  8
0-2
  6
CONTINUOUS
 62
    3
 10
1275
 20
4126.4875
 11
2100.0001
 21
4126.4875
  0
LINE
  8
0-2
  6
CONTINUOUS
 62
    3
 10
1275
 20
4176.5379
 11
2100.0001
 21
4176.5379
  0
LINE
  8
0-2
  6
CONTINUOUS
 62
    3
 10
1275
 20
4197.988
 11
2100.0001
 21
4197.988
  0
LINE
  8
0-2
  6
CONTINUOUS
 62
    3
 10
1275
 20
4262.3382
 11
2100.0001
 21
4262.3382
  0
LINE
  8
0-2
  6
CONTINUOUS
 62
    3
 10
1275
 20
4283.7873
 11
2100.0001
 21
4283.7873
  0
LINE
  8
0-8
  6
CONTINUOUS
 62
    7
 10
1489.9995
 20
3817.4876
 11
2709.9991
 21
3817.4884
  0
LINE
  8
0-8
  6
CONTINUOUS
 62
    7
 10
1235.2864
 20
3936.4876
 11
904.60217
 21
3936.4876
  0
LINE
  8
0-2
  6
CONTINUOUS
 62
    3
 10
1489.9995
 20
3936.4871
 11
2709.9991
 21
3936.4876
  0
LINE
  8
0-2
  6
CONTINUOUS
 62
    3
 10
1489.9995
 20
4066.2869
 11
2100.0001
 21
4066.2874
  0
LINE
  8
0-2
  6
CONTINUOUS
 62
    3
 10
1489.9995
 20
4044.8358
 11
2100.0001
 21
4044.8363
  0
LINE
  8
0-2
  6
CONTINUOUS
 62
    3
 10
1489.9995
 20
3969.4865
 11
2709.9991
 21
3969.4869
  0
LINE
  8
0-2
  6
CONTINUOUS
 62
    3
 10
1489.9995
 20
3969.4865
 11
2100.0001
 21
3969.4869
  0
LINE
  8
0-2
  6
CONTINUOUS
 62
    3
 10
1489.9995
 20
3990.9365
 11
2709.9991
 21
3990.937
  0
LINE
  8
0-2
  6
CONTINUOUS
 62
    3
 10
1490
 20
4126.4875
 11
1489.9995
 21
4066.2869
  0
LINE
  8
0-2
  6
CONTINUOUS
 62
    3
 10
1489.9995
 20
4044.8358
 11
1489.9995
 21
3990.9365
  0
LINE
  8
0-2
  6
CONTINUOUS
 62
    3
 10
1489.9995
 20
3969.4865
 11
1489.9995
 21
3936.4871
  0
LINE
  8
0-2
  6
CONTINUOUS
 62
    3
 10
1275
 20
4920.6365
 11
1275
 21
4984.9867
  0
LINE
  8
0-2
  6
CONTINUOUS
 62
    3
 10
1275
 20
4899.1874
 11
1275
 21
4283.7873
  0
LINE
  8
0-2
  6
CONTINUOUS
 62
    3
 10
1275
 20
5056.4874
 11
1275
 21
5006.4368
  0
LINE
  8
0-8
  6
CONTINUOUS
 62
    7
 10
904.60217
 20
3936.4876
 11
904.60242
 21
5286.4877
  0
LINE
  8
0-2
  6
CONTINUOUS
 62
    3
 10
1275
 20
5056.4874
 11
2100.0001
 21
5056.4874
  0
LINE
  8
0-2
  6
CONTINUOUS
 62
    3
 10
1275
 20
5006.4368
 11
2100.0001
 21
5006.4368
  0
LINE
  8
0-2
  6
CONTINUOUS
 62
    3
 10
1275
 20
4984.9867
 11
2100.0001
 21
4984.9867
  0
LINE
  8
0-2
  6
CONTINUOUS
 62
    3
 10
1275
 20
4920.6365
 11
2100.0001
 21
4920.6365
  0
LINE
  8
0-2
  6
CONTINUOUS
 62
    3
 10
1275
 20
4899.1874
 11
2100.0001
 21
4899.1874
  0
LINE
  8
0-2
  6
CONTINUOUS
 62
    3
 10
2100.0001
 20
5286.4867
 11
1721.088
 21
5056.4874
  0
LINE
  8
0-8
  6
CONTINUOUS
 62
    7
 10
3437.838
 20
3936.4876
 11
3437.838
 21
4126.4875
  0
LINE
  8
0-8
  6
CONTINUOUS
 62
    7
 10
2983.7839
 20
3936.4876
 11
3437.838
 21
3936.4876
  0
LINE
  8
0-8
  6
CONTINUOUS
 62
    7
 10
2983.7839
 20
4126.4875
 11
3437.838
 21
4126.4875
  0
LINE
  8
0-8
  6
CONTINUOUS
 62
    7
 10
3437.838
 20
4126.4875
 11
3437.838
 21
5056.4874
  0
LINE
  8
0-8
  6
CONTINUOUS
 62
    7
 10
2983.7839
 20
5056.4874
 11
3437.838
 21
5056.4874
  0
LINE
  8
0-8
  6
CONTINUOUS
 62
    7
 10
3437.838
 20
5056.4874
 11
3437.838
 21
5286.4867
  0
LINE
  8
0-8
  6
CONTINUOUS
 62
    7
 10
2983.7839
 20
5286.4867
 11
3437.838
 21
5286.4867
  0
LINE
  8
0-2
  6
CONTINUOUS
 62
    3
 10
2925.0001
 20
4262.3382
 11
2925.0001
 21
4197.988
  0
LINE
  8
0-2
  6
CONTINUOUS
 62
    3
 10
2925.0001
 20
4176.5379
 11
2925.0001
 21
4126.4875
  0
LINE
  8
0-2
  6
CONTINUOUS
 62
    3
 10
2925.0001
 20
4126.4875
 11
2100.0001
 21
4126.4875
  0
LINE
  8
0-2
  6
CONTINUOUS
 62
    3
 10
2925.0001
 20
4176.5379
 11
2100.0001
 21
4176.5379
  0
LINE
  8
0-2
  6
CONTINUOUS
 62
    3
 10
2925.0001
 20
4197.988
 11
2100.0001
 21
4197.988
  0
LINE
  8
0-2
  6
CONTINUOUS
 62
    3
 10
2925.0001
 20
4262.3382
 11
2100.0001
 21
4262.3382
  0
LINE
  8
0-2
  6
CONTINUOUS
 62
    3
 10
2925.0001
 20
4283.7873
 11
2100.0001
 21
4283.7873
  0
LINE
  8
0-2
  6
CONTINUOUS
 62
    3
 10
2710.0006
 20
4066.2869
 11
2100.0001
 21
4066.2874
  0
LINE
  8
0-2
  6
CONTINUOUS
 62
    3
 10
2710.0006
 20
4044.8358
 11
2100.0001
 21
4044.8363
  0
LINE
  8
0-2
  6
CONTINUOUS
 62
    3
 10
2710.0006
 20
3969.4865
 11
2100.0001
 21
3969.4869
  0
LINE
  8
0-2
  6
CONTINUOUS
 62
    3
 10
2710.0001
 20
4126.4875
 11
2710.0006
 21
4066.2869
  0
LINE
  8
0-2
  6
CONTINUOUS
 62
    3
 10
2710.0006
 20
4044.8358
 11
2710.0006
 21
3990.9365
  0
LINE
  8
0-2
  6
CONTINUOUS
 62
    3
 10
2710.0006
 20
3969.4865
 11
2710.0006
 21
3936.4871
  0
LINE
  8
0-2
  6
CONTINUOUS
 62
    3
 10
2925.0001
 20
4920.6365
 11
2925.0001
 21
4984.9867
  0
LINE
  8
0-2
  6
CONTINUOUS
 62
    3
 10
2925.0001
 20
4899.1874
 11
2925.0001
 21
4283.7873
  0
LINE
  8
0-2
  6
CONTINUOUS
 62
    3
 10
2925.0001
 20
5056.4874
 11
2925.0001
 21
5006.4368
  0
LINE
  8
0-2
  6
CONTINUOUS
 62
    3
 10
2925.0001
 20
5056.4874
 11
2100.0001
 21
5056.4874
  0
LINE
  8
0-2
  6
CONTINUOUS
 62
    3
 10
2925.0001
 20
5006.4368
 11
2100.0001
 21
5006.4368
  0
LINE
  8
0-2
  6
CONTINUOUS
 62
    3
 10
2925.0001
 20
4984.9867
 11
2100.0001
 21
4984.9867
  0
LINE
  8
0-2
  6
CONTINUOUS
 62
    3
 10
2925.0001
 20
4920.6365
 11
2100.0001
 21
4920.6365
  0
LINE
  8
0-2
  6
CONTINUOUS
 62
    3
 10
2925.0001
 20
4899.1874
 11
2100.0001
 21
4899.1874
  0
LINE
  8
0-2
  6
CONTINUOUS
 62
    3
 10
2100.0001
 20
5286.4867
 11
2478.9121
 21
5056.4874
  0
LINE
  8
0-8
  6
CONTINUOUS
 62
    7
 10
3434.5287
 20
2919.9875
 11
3434.5287
 21
3569.9882
  0
LINE
  8
0-8
  6
CONTINUOUS
 62
    7
 10
2996.3934
 20
2919.9875
 11
3434.5287
 21
2919.9875
  0
LINE
  8
0-8
  6
CONTINUOUS
 62
    7
 10
3006.1297
 20
3449.9878
 11
3434.5287
 21
3449.9878
  0
LINE
  8
0-8
  6
CONTINUOUS
 62
    7
 10
3006.1297
 20
3569.9882
 11
3434.5287
 21
3569.9882
  0
LINE
  8
0-8
  6
CONTINUOUS
 62
    7
 10
1400.0002
 20
2793.713
 11
2800.0004
 21
2793.713
  0
LINE
  8
0-2
  6
CONTINUOUS
 62
    3
 10
1497.5004
 20
3449.9878
 11
2702.5002
 21
3449.9878
  0
LINE
  8
0-2
  6
CONTINUOUS
 62
    3
 10
1497.5004
 20
3569.9882
 11
2702.5002
 21
3569.9882
  0
LINE
  8
0-2
  6
CONTINUOUS
 62
    3
 10
1497.5004
 20
3449.9878
 11
1400.0002
 21
2919.9875
  0
LINE
  8
0-8
  6
CONTINUOUS
 62
    7
 10
1497.5004
 20
3679.3113
 11
2702.5002
 21
3679.3113
  0
LINE
  8
0-8
  6
CONTINUOUS
 62
    7
 10
972.28513
 20
2680.2715
 11
765.47047
 21
2680.2715
  0
LINE
  8
0-8
  6
CONTINUOUS
 62
    7
 10
972.28513
 20
680.27161
 11
765.47047
 21
680.27161
  0
LINE
  8
0-8
  6
CONTINUOUS
 62
    7
 10
3223.7416
 20
2380.2714
 11
3572.0117
 21
2380.2714
  0
LINE
  8
0-8
  6
CONTINUOUS
 62
    7
 10
3223.7416
 20
980.27163
 11
3572.0117
 21
980.27163
  0
LINE
  8
0-8
  6
CONTINUOUS
 62
    7
 10
1497.5004
 20
3599.9952
 11
1497.5004
 21
3679.3113
  0
LINE
  8
0-8
  6
CONTINUOUS
 62
    7
 10
2702.5002
 20
3599.9952
 11
2702.5002
 21
3679.3113
  0
LINE
  8
0-d
  6
CONTINUOUS
 62
    7
 10
1087.5762
 20
3012.0321
 11
1251.858
 21
3012.0321
  0
LINE
  8
0-d
  6
CONTINUOUS
 62
    7
 10
1087.5762
 20
3012.0321
 11
1251.858
 21
3061.3142
  0
LINE
  8
0-d
  6
CONTINUOUS
 62
    7
 10
1251.858
 20
3012.0321
 11
1251.858
 21
3061.3142
  0
LINE
  8
0-2
  6
CONTINUOUS
 62
    3
 10
1497.5004
 20
3569.9882
 11
1497.5004
 21
3545.9311
  0
LINE
  8
0-2
  6
CONTINUOUS
 62
    3
 10
1497.5004
 20
3521.875
 11
1497.5004
 21
3449.9878
  0
LINE
  8
0-2
  6
CONTINUOUS
 62
    3
 10
1497.5004
 20
3521.875
 11
2702.5002
 21
3521.875
  0
LINE
  8
0-2
  6
CONTINUOUS
 62
    3
 10
2702.5002
 20
3521.875
 11
2702.5002
 21
3449.9878
  0
LINE
  8
0-2
  6
CONTINUOUS
 62
    3
 10
1497.5004
 20
3545.9311
 11
2702.5017
 21
3545.9311
  0
LINE
  8
0-2
  6
CONTINUOUS
 62
    3
 10
2702.5017
 20
3569.9882
 11
2702.5017
 21
3545.9311
  0
LINE
  8
0-2
  6
CONTINUOUS
 62
    3
 10
1099.9997
 20
2680.2715
 11
3099.9994
 21
2680.2715
  0
LINE
  8
0-2
  6
CONTINUOUS
 62
    3
 10
1099.9997
 20
2680.2715
 11
1099.9997
 21
680.27161
  0
LINE
  8
0-2
  6
CONTINUOUS
 62
    3
 10
1099.9997
 20
680.27161
 11
3099.9994
 21
680.27161
  0
LINE
  8
0-2
  6
CONTINUOUS
 62
    3
 10
3099.9994
 20
2680.2715
 11
3099.9994
 21
680.27161
  0
LINE
  8
0-2
  6
CONTINUOUS
 62
    3
 10
2800.0004
 20
2380.2714
 11
2800.0004
 21
980.27163
  0
LINE
  8
0-2
  6
CONTINUOUS
 62
    3
 10
1400.0007
 20
2380.2714
 11
1400.0007
 21
980.27163
  0
LINE
  8
0-2
  6
CONTINUOUS
 62
    3
 10
1400.0007
 20
2380.2714
 11
1560.3694
 21
2219.902
  0
LINE
  8
0-2
  6
CONTINUOUS
 62
    3
 10
2800.0004
 20
2380.2714
 11
1400.0007
 21
2380.2714
  0
LINE
  8
0-2
  6
CONTINUOUS
 62
    3
 10
2800.0004
 20
2380.2714
 11
2639.6312
 21
2219.902
  0
LINE
  8
0-2
  6
CONTINUOUS
 62
    3
 10
2800.0004
 20
980.27163
 11
2639.6312
 21
1140.6398
  0
LINE
  8
0-2
  6
CONTINUOUS
 62
    3
 10
2800.0004
 20
980.27163
 11
1400.0007
 21
980.27163
  0
LINE
  8
0-2
  6
CONTINUOUS
 62
    3
 10
1400.0007
 20
980.27163
 11
1560.3694
 21
1140.6398
  0
LINE
  8
0-1
  6
CENTER2
 62
    7
 10
1099.9997
 20
1680.2717
 11
3099.9994
 21
1680.2717
  0
LINE
  8
0-8
  6
CONTINUOUS
 62
    7
 10
765.47047
 20
680.27161
 11
765.47047
 21
2680.2715
  0
LINE
  8
0-8
  6
CONTINUOUS
 62
    7
 10
1532.7601
 20
1477.1904
 11
2667.246
 21
1883.3525
  0
LINE
  8
0-8
  6
CONTINUOUS
 62
    7
 10
3572.0117
 20
980.27163
 11
3572.0117
 21
2380.2714
  0
LINE
  8
0-8
  6
CONTINUOUS
 62
    7
 10
3572.0117
 20
680.27161
 11
3572.0117
 21
980.27163
  0
LINE
  8
0-8
  6
CONTINUOUS
 62
    7
 10
3223.7416
 20
680.27161
 11
3572.0117
 21
680.27161
  0
LINE
  8
0-8
  6
CONTINUOUS
 62
    7
 10
3572.0117
 20
2380.2714
 11
3572.0117
 21
2680.2715
  0
LINE
  8
0-8
  6
CONTINUOUS
 62
    7
 10
3223.7416
 20
2680.2715
 11
3572.0117
 21
2680.2715
  0
LINE
  8
0-2
  6
CONTINUOUS
 62
    3
 10
1099.9997
 20
2829.1921
 11
2101.2954
 21
3132.2347
  0
LINE
  8
0-2
  6
CONTINUOUS
 62
    3
 10
3100.0004
 20
2829.1921
 11
2098.7047
 21
3132.2347
  0
LINE
  8
0-8
  6
CONTINUOUS
 62
    7
 10
2799.9999
 20
2920.0318
 11
2799.9999
 21
2793.713
  0
LINE
  8
0-8
  6
CONTINUOUS
 62
    7
 10
1400.0002
 20
2919.9875
 11
1400.0002
 21
2793.713
  0
LINE
  8
0-2
  6
CONTINUOUS
 62
    3
 10
2702.4997
 20
3449.9878
 11
2799.9999
 21
2919.9875
  0
LINE
  8
0-d
  6
CENTER2
 62
    7
 10
2100.0001
 20
680.27161
 11
2100.0001
 21
5286.4867
  0
LINE
  8
0-2
  6
CONTINUOUS
 62
    3
 10
2799.9999
 20
1686.4865
 11
2799.9999
 21
1680.2717
  0
LINE
  8
0-2
  6
CONTINUOUS
 62
    3
 10
1400.0001
 20
1686.4865
 11
1400.0001
 21
1680.2717
  0
LINE
  8
0-2
  6
CONTINUOUS
 62
    3
 10
1275
 20
4283.7876
 11
1273.2252
 21
4283.6247
  0
LINE
  8
0-2
  6
CONTINUOUS
 62
    3
 10
1273.2252
 20
4283.6247
 11
1271.5043
 21
4283.1408
  0
LINE
  8
0-2
  6
CONTINUOUS
 62
    3
 10
1271.5043
 20
4283.1408
 11
1269.8896
 21
4282.3507
  0
LINE
  8
0-2
  6
CONTINUOUS
 62
    3
 10
1269.8896
 20
4282.3507
 11
1268.4302
 21
4281.2785
  0
LINE
  8
0-2
  6
CONTINUOUS
 62
    3
 10
1268.4302
 20
4281.2785
 11
1267.1704
 21
4279.9565
  0
LINE
  8
0-2
  6
CONTINUOUS
 62
    3
 10
1267.1704
 20
4279.9565
 11
1266.1485
 21
4278.4252
  0
LINE
  8
0-2
  6
CONTINUOUS
 62
    3
 10
1266.1485
 20
4278.4252
 11
1265.3956
 21
4276.7308
  0
LINE
  8
0-2
  6
CONTINUOUS
 62
    3
 10
1265.3956
 20
4276.7308
 11
1264.9345
 21
4274.9251
  0
LINE
  8
0-2
  6
CONTINUOUS
 62
    3
 10
1264.9345
 20
4274.9251
 11
1264.7792
 21
4273.0627
  0
LINE
  8
0-2
  6
CONTINUOUS
 62
    3
 10
1264.7792
 20
4273.0627
 11
1264.9345
 21
4271.2004
  0
LINE
  8
0-2
  6
CONTINUOUS
 62
    3
 10
1264.9345
 20
4271.2004
 11
1265.3956
 21
4269.3946
  0
LINE
  8
0-2
  6
CONTINUOUS
 62
    3
 10
1265.3956
 20
4269.3946
 11
1266.1485
 21
4267.7003
  0
LINE
  8
0-2
  6
CONTINUOUS
 62
    3
 10
1266.1485
 20
4267.7003
 11
1267.1704
 21
4266.1689
  0
LINE
  8
0-2
  6
CONTINUOUS
 62
    3
 10
1267.1704
 20
4266.1689
 11
1268.4302
 21
4264.847
  0
LINE
  8
0-2
  6
CONTINUOUS
 62
    3
 10
1268.4302
 20
4264.847
 11
1269.8896
 21
4263.7747
  0
LINE
  8
0-2
  6
CONTINUOUS
 62
    3
 10
1269.8896
 20
4263.7747
 11
1271.5043
 21
4262.9846
  0
LINE
  8
0-2
  6
CONTINUOUS
 62
    3
 10
1271.5043
 20
4262.9846
 11
1273.2252
 21
4262.5008
  0
LINE
  8
0-2
  6
CONTINUOUS
 62
    3
 10
1273.2252
 20
4262.5008
 11
1275
 21
4262.3378
  0
LINE
  8
0-2
  6
CONTINUOUS
 62
    3
 10
1275
 20
4197.9873
 11
1273.2252
 21
4197.8244
  0
LINE
  8
0-2
  6
CONTINUOUS
 62
    3
 10
1273.2252
 20
4197.8244
 11
1271.5043
 21
4197.3406
  0
LINE
  8
0-2
  6
CONTINUOUS
 62
    3
 10
1271.5043
 20
4197.3406
 11
1269.8896
 21
4196.5505
  0
LINE
  8
0-2
  6
CONTINUOUS
 62
    3
 10
1269.8896
 20
4196.5505
 11
1268.4302
 21
4195.4782
  0
LINE
  8
0-2
  6
CONTINUOUS
 62
    3
 10
1268.4302
 20
4195.4782
 11
1267.1704
 21
4194.1563
  0
LINE
  8
0-2
  6
CONTINUOUS
 62
    3
 10
1267.1704
 20
4194.1563
 11
1266.1485
 21
4192.6249
  0
LINE
  8
0-2
  6
CONTINUOUS
 62
    3
 10
1266.1485
 20
4192.6249
 11
1265.3956
 21
4190.9306
  0
LINE
  8
0-2
  6
CONTINUOUS
 62
    3
 10
1265.3956
 20
4190.9306
 11
1264.9345
 21
4189.1248
  0
LINE
  8
0-2
  6
CONTINUOUS
 62
    3
 10
1264.9345
 20
4189.1248
 11
1264.7792
 21
4187.2625
  0
LINE
  8
0-2
  6
CONTINUOUS
 62
    3
 10
1264.7792
 20
4187.2625
 11
1264.9345
 21
4185.4001
  0
LINE
  8
0-2
  6
CONTINUOUS
 62
    3
 10
1264.9345
 20
4185.4001
 11
1265.3956
 21
4183.5943
  0
LINE
  8
0-2
  6
CONTINUOUS
 62
    3
 10
1265.3956
 20
4183.5943
 11
1266.1485
 21
4181.9
  0
LINE
  8
0-2
  6
CONTINUOUS
 62
    3
 10
1266.1485
 20
4181.9
 11
1267.1704
 21
4180.3686
  0
LINE
  8
0-2
  6
CONTINUOUS
 62
    3
 10
1267.1704
 20
4180.3686
 11
1268.4302
 21
4179.0467
  0
LINE
  8
0-2
  6
CONTINUOUS
 62
    3
 10
1268.4302
 20
4179.0467
 11
1269.8896
 21
4177.9744
  0
LINE
  8
0-2
  6
CONTINUOUS
 62
    3
 10
1269.8896
 20
4177.9744
 11
1271.5043
 21
4177.1844
  0
LINE
  8
0-2
  6
CONTINUOUS
 62
    3
 10
1271.5043
 20
4177.1844
 11
1273.2252
 21
4176.7005
  0
LINE
  8
0-2
  6
CONTINUOUS
 62
    3
 10
1273.2252
 20
4176.7005
 11
1275
 21
4176.5376
  0
LINE
  8
0-2
  6
CONTINUOUS
 62
    3
 10
1489.9995
 20
4066.2858
 11
1488.2247
 21
4066.1228
  0
LINE
  8
0-2
  6
CONTINUOUS
 62
    3
 10
1488.2247
 20
4066.1228
 11
1486.5038
 21
4065.639
  0
LINE
  8
0-2
  6
CONTINUOUS
 62
    3
 10
1486.5038
 20
4065.639
 11
1484.8891
 21
4064.8489
  0
LINE
  8
0-2
  6
CONTINUOUS
 62
    3
 10
1484.8891
 20
4064.8489
 11
1483.4297
 21
4063.7766
  0
LINE
  8
0-2
  6
CONTINUOUS
 62
    3
 10
1483.4297
 20
4063.7766
 11
1482.1699
 21
4062.4547
  0
LINE
  8
0-2
  6
CONTINUOUS
 62
    3
 10
1482.1699
 20
4062.4547
 11
1481.148
 21
4060.9233
  0
LINE
  8
0-2
  6
CONTINUOUS
 62
    3
 10
1481.148
 20
4060.9233
 11
1480.3951
 21
4059.229
  0
LINE
  8
0-2
  6
CONTINUOUS
 62
    3
 10
1480.3951
 20
4059.229
 11
1479.934
 21
4057.4232
  0
LINE
  8
0-2
  6
CONTINUOUS
 62
    3
 10
1479.934
 20
4057.4232
 11
1479.7787
 21
4055.5609
  0
LINE
  8
0-2
  6
CONTINUOUS
 62
    3
 10
1479.7787
 20
4055.5609
 11
1479.934
 21
4053.6985
  0
LINE
  8
0-2
  6
CONTINUOUS
 62
    3
 10
1479.934
 20
4053.6985
 11
1480.3951
 21
4051.8927
  0
LINE
  8
0-2
  6
CONTINUOUS
 62
    3
 10
1480.3951
 20
4051.8927
 11
1481.148
 21
4050.1984
  0
LINE
  8
0-2
  6
CONTINUOUS
 62
    3
 10
1481.148
 20
4050.1984
 11
1482.1699
 21
4048.667
  0
LINE
  8
0-2
  6
CONTINUOUS
 62
    3
 10
1482.1699
 20
4048.667
 11
1483.4297
 21
4047.3451
  0
LINE
  8
0-2
  6
CONTINUOUS
 62
    3
 10
1483.4297
 20
4047.3451
 11
1484.8891
 21
4046.2728
  0
LINE
  8
0-2
  6
CONTINUOUS
 62
    3
 10
1484.8891
 20
4046.2728
 11
1486.5038
 21
4045.4828
  0
LINE
  8
0-2
  6
CONTINUOUS
 62
    3
 10
1486.5038
 20
4045.4828
 11
1488.2247
 21
4044.9989
  0
LINE
  8
0-2
  6
CONTINUOUS
 62
    3
 10
1488.2247
 20
4044.9989
 11
1489.9995
 21
4044.836
  0
LINE
  8
0-2
  6
CONTINUOUS
 62
    3
 10
1489.9995
 20
3990.9364
 11
1488.2247
 21
3990.7734
  0
LINE
  8
0-2
  6
CONTINUOUS
 62
    3
 10
1488.2247
 20
3990.7734
 11
1486.5038
 21
3990.2896
  0
LINE
  8
0-2
  6
CONTINUOUS
 62
    3
 10
1486.5038
 20
3990.2896
 11
1484.8891
 21
3989.4995
  0
LINE
  8
0-2
  6
CONTINUOUS
 62
    3
 10
1484.8891
 20
3989.4995
 11
1483.4297
 21
3988.4272
  0
LINE
  8
0-2
  6
CONTINUOUS
 62
    3
 10
1483.4297
 20
3988.4272
 11
1482.1699
 21
3987.1053
  0
LINE
  8
0-2
  6
CONTINUOUS
 62
    3
 10
1482.1699
 20
3987.1053
 11
1481.148
 21
3985.5739
  0
LINE
  8
0-2
  6
CONTINUOUS
 62
    3
 10
1481.148
 20
3985.5739
 11
1480.3951
 21
3983.8796
  0
LINE
  8
0-2
  6
CONTINUOUS
 62
    3
 10
1480.3951
 20
3983.8796
 11
1479.934
 21
3982.0738
  0
LINE
  8
0-2
  6
CONTINUOUS
 62
    3
 10
1479.934
 20
3982.0738
 11
1479.7787
 21
3980.2115
  0
LINE
  8
0-2
  6
CONTINUOUS
 62
    3
 10
1479.7787
 20
3980.2115
 11
1479.934
 21
3978.3491
  0
LINE
  8
0-2
  6
CONTINUOUS
 62
    3
 10
1479.934
 20
3978.3491
 11
1480.3951
 21
3976.5434
  0
LINE
  8
0-2
  6
CONTINUOUS
 62
    3
 10
1480.3951
 20
3976.5434
 11
1481.148
 21
3974.849
  0
LINE
  8
0-2
  6
CONTINUOUS
 62
    3
 10
1481.148
 20
3974.849
 11
1482.1699
 21
3973.3177
  0
LINE
  8
0-2
  6
CONTINUOUS
 62
    3
 10
1482.1699
 20
3973.3177
 11
1483.4297
 21
3971.9957
  0
LINE
  8
0-2
  6
CONTINUOUS
 62
    3
 10
1483.4297
 20
3971.9957
 11
1484.8891
 21
3970.9235
  0
LINE
  8
0-2
  6
CONTINUOUS
 62
    3
 10
1484.8891
 20
3970.9235
 11
1486.5038
 21
3970.1334
  0
LINE
  8
0-2
  6
CONTINUOUS
 62
    3
 10
1486.5038
 20
3970.1334
 11
1488.2247
 21
3969.6495
  0
LINE
  8
0-2
  6
CONTINUOUS
 62
    3
 10
1488.2247
 20
3969.6495
 11
1489.9995
 21
3969.4866
  0
LINE
  8
0-2
  6
CONTINUOUS
 62
    3
 10
1275
 20
4920.6374
 11
1273.2252
 21
4920.4744
  0
LINE
  8
0-2
  6
CONTINUOUS
 62
    3
 10
1273.2252
 20
4920.4744
 11
1271.5043
 21
4919.9906
  0
LINE
  8
0-2
  6
CONTINUOUS
 62
    3
 10
1271.5043
 20
4919.9906
 11
1269.8896
 21
4919.2005
  0
LINE
  8
0-2
  6
CONTINUOUS
 62
    3
 10
1269.8896
 20
4919.2005
 11
1268.4302
 21
4918.1282
  0
LINE
  8
0-2
  6
CONTINUOUS
 62
    3
 10
1268.4302
 20
4918.1282
 11
1267.1704
 21
4916.8063
  0
LINE
  8
0-2
  6
CONTINUOUS
 62
    3
 10
1267.1704
 20
4916.8063
 11
1266.1485
 21
4915.2749
  0
LINE
  8
0-2
  6
CONTINUOUS
 62
    3
 10
1266.1485
 20
4915.2749
 11
1265.3956
 21
4913.5806
  0
LINE
  8
0-2
  6
CONTINUOUS
 62
    3
 10
1265.3956
 20
4913.5806
 11
1264.9345
 21
4911.7748
  0
LINE
  8
0-2
  6
CONTINUOUS
 62
    3
 10
1264.9345
 20
4911.7748
 11
1264.7792
 21
4909.9125
  0
LINE
  8
0-2
  6
CONTINUOUS
 62
    3
 10
1264.7792
 20
4909.9125
 11
1264.9345
 21
4908.0501
  0
LINE
  8
0-2
  6
CONTINUOUS
 62
    3
 10
1264.9345
 20
4908.0501
 11
1265.3956
 21
4906.2443
  0
LINE
  8
0-2
  6
CONTINUOUS
 62
    3
 10
1265.3956
 20
4906.2443
 11
1266.1485
 21
4904.55
  0
LINE
  8
0-2
  6
CONTINUOUS
 62
    3
 10
1266.1485
 20
4904.55
 11
1267.1704
 21
4903.0186
  0
LINE
  8
0-2
  6
CONTINUOUS
 62
    3
 10
1267.1704
 20
4903.0186
 11
1268.4302
 21
4901.6967
  0
LINE
  8
0-2
  6
CONTINUOUS
 62
    3
 10
1268.4302
 20
4901.6967
 11
1269.8896
 21
4900.6244
  0
LINE
  8
0-2
  6
CONTINUOUS
 62
    3
 10
1269.8896
 20
4900.6244
 11
1271.5043
 21
4899.8344
  0
LINE
  8
0-2
  6
CONTINUOUS
 62
    3
 10
1271.5043
 20
4899.8344
 11
1273.2252
 21
4899.3505
  0
LINE
  8
0-2
  6
CONTINUOUS
 62
    3
 10
1273.2252
 20
4899.3505
 11
1275
 21
4899.1876
  0
LINE
  8
0-2
  6
CONTINUOUS
 62
    3
 10
1275
 20
5006.4366
 11
1273.2252
 21
5006.2737
  0
LINE
  8
0-2
  6
CONTINUOUS
 62
    3
 10
1273.2252
 20
5006.2737
 11
1271.5043
 21
5005.7898
  0
LINE
  8
0-2
  6
CONTINUOUS
 62
    3
 10
1271.5043
 20
5005.7898
 11
1269.8896
 21
5004.9998
  0
LINE
  8
0-2
  6
CONTINUOUS
 62
    3
 10
1269.8896
 20
5004.9998
 11
1268.4302
 21
5003.9275
  0
LINE
  8
0-2
  6
CONTINUOUS
 62
    3
 10
1268.4302
 20
5003.9275
 11
1267.1704
 21
5002.6056
  0
LINE
  8
0-2
  6
CONTINUOUS
 62
    3
 10
1267.1704
 20
5002.6056
 11
1266.1485
 21
5001.0742
  0
LINE
  8
0-2
  6
CONTINUOUS
 62
    3
 10
1266.1485
 20
5001.0742
 11
1265.3956
 21
4999.3799
  0
LINE
  8
0-2
  6
CONTINUOUS
 62
    3
 10
1265.3956
 20
4999.3799
 11
1264.9345
 21
4997.5741
  0
LINE
  8
0-2
  6
CONTINUOUS
 62
    3
 10
1264.9345
 20
4997.5741
 11
1264.7792
 21
4995.7117
  0
LINE
  8
0-2
  6
CONTINUOUS
 62
    3
 10
1264.7792
 20
4995.7117
 11
1264.9345
 21
4993.8494
  0
LINE
  8
0-2
  6
CONTINUOUS
 62
    3
 10
1264.9345
 20
4993.8494
 11
1265.3956
 21
4992.0436
  0
LINE
  8
0-2
  6
CONTINUOUS
 62
    3
 10
1265.3956
 20
4992.0436
 11
1266.1485
 21
4990.3493
  0
LINE
  8
0-2
  6
CONTINUOUS
 62
    3
 10
1266.1485
 20
4990.3493
 11
1267.1704
 21
4988.8179
  0
LINE
  8
0-2
  6
CONTINUOUS
 62
    3
 10
1267.1704
 20
4988.8179
 11
1268.4302
 21
4987.496
  0
LINE
  8
0-2
  6
CONTINUOUS
 62
    3
 10
1268.4302
 20
4987.496
 11
1269.8896
 21
4986.4237
  0
LINE
  8
0-2
  6
CONTINUOUS
 62
    3
 10
1269.8896
 20
4986.4237
 11
1271.5043
 21
4985.6336
  0
LINE
  8
0-2
  6
CONTINUOUS
 62
    3
 10
1271.5043
 20
4985.6336
 11
1273.2252
 21
4985.1498
  0
LINE
  8
0-2
  6
CONTINUOUS
 62
    3
 10
1273.2252
 20
4985.1498
 11
1275
 21
4984.9869
  0
LINE
  8
0-2
  6
CONTINUOUS
 62
    3
 10
2925.0001
 20
4262.3378
 11
2926.7749
 21
4262.5008
  0
LINE
  8
0-2
  6
CONTINUOUS
 62
    3
 10
2926.7749
 20
4262.5008
 11
2928.4958
 21
4262.9846
  0
LINE
  8
0-2
  6
CONTINUOUS
 62
    3
 10
2928.4958
 20
4262.9846
 11
2930.1105
 21
4263.7747
  0
LINE
  8
0-2
  6
CONTINUOUS
 62
    3
 10
2930.1105
 20
4263.7747
 11
2931.5699
 21
4264.847
  0
LINE
  8
0-2
  6
CONTINUOUS
 62
    3
 10
2931.5699
 20
4264.847
 11
2932.8297
 21
4266.1689
  0
LINE
  8
0-2
  6
CONTINUOUS
 62
    3
 10
2932.8297
 20
4266.1689
 11
2933.8516
 21
4267.7003
  0
LINE
  8
0-2
  6
CONTINUOUS
 62
    3
 10
2933.8516
 20
4267.7003
 11
2934.6045
 21
4269.3946
  0
LINE
  8
0-2
  6
CONTINUOUS
 62
    3
 10
2934.6045
 20
4269.3946
 11
2935.0656
 21
4271.2004
  0
LINE
  8
0-2
  6
CONTINUOUS
 62
    3
 10
2935.0656
 20
4271.2004
 11
2935.2209
 21
4273.0627
  0
LINE
  8
0-2
  6
CONTINUOUS
 62
    3
 10
2935.2209
 20
4273.0627
 11
2935.0656
 21
4274.9251
  0
LINE
  8
0-2
  6
CONTINUOUS
 62
    3
 10
2935.0656
 20
4274.9251
 11
2934.6045
 21
4276.7308
  0
LINE
  8
0-2
  6
CONTINUOUS
 62
    3
 10
2934.6045
 20
4276.7308
 11
2933.8516
 21
4278.4252
  0
LINE
  8
0-2
  6
CONTINUOUS
 62
    3
 10
2933.8516
 20
4278.4252
 11
2932.8297
 21
4279.9565
  0
LINE
  8
0-2
  6
CONTINUOUS
 62
    3
 10
2932.8297
 20
4279.9565
 11
2931.5699
 21
4281.2785
  0
LINE
  8
0-2
  6
CONTINUOUS
 62
    3
 10
2931.5699
 20
4281.2785
 11
2930.1105
 21
4282.3507
  0
LINE
  8
0-2
  6
CONTINUOUS
 62
    3
 10
2930.1105
 20
4282.3507
 11
2928.4958
 21
4283.1408
  0
LINE
  8
0-2
  6
CONTINUOUS
 62
    3
 10
2928.4958
 20
4283.1408
 11
2926.7749
 21
4283.6247
  0
LINE
  8
0-2
  6
CONTINUOUS
 62
    3
 10
2926.7749
 20
4283.6247
 11
2925.0001
 21
4283.7876
  0
LINE
  8
0-2
  6
CONTINUOUS
 62
    3
 10
2925.0001
 20
4176.5376
 11
2926.7749
 21
4176.7005
  0
LINE
  8
0-2
  6
CONTINUOUS
 62
    3
 10
2926.7749
 20
4176.7005
 11
2928.4958
 21
4177.1844
  0
LINE
  8
0-2
  6
CONTINUOUS
 62
    3
 10
2928.4958
 20
4177.1844
 11
2930.1105
 21
4177.9744
  0
LINE
  8
0-2
  6
CONTINUOUS
 62
    3
 10
2930.1105
 20
4177.9744
 11
2931.5699
 21
4179.0467
  0
LINE
  8
0-2
  6
CONTINUOUS
 62
    3
 10
2931.5699
 20
4179.0467
 11
2932.8297
 21
4180.3686
  0
LINE
  8
0-2
  6
CONTINUOUS
 62
    3
 10
2932.8297
 20
4180.3686
 11
2933.8516
 21
4181.9
  0
LINE
  8
0-2
  6
CONTINUOUS
 62
    3
 10
2933.8516
 20
4181.9
 11
2934.6045
 21
4183.5943
  0
LINE
  8
0-2
  6
CONTINUOUS
 62
    3
 10
2934.6045
 20
4183.5943
 11
2935.0656
 21
4185.4001
  0
LINE
  8
0-2
  6
CONTINUOUS
 62
    3
 10
2935.0656
 20
4185.4001
 11
2935.2209
 21
4187.2625
  0
LINE
  8
0-2
  6
CONTINUOUS
 62
    3
 10
2935.2209
 20
4187.2625
 11
2935.0656
 21
4189.1248
  0
LINE
  8
0-2
  6
CONTINUOUS
 62
    3
 10
2935.0656
 20
4189.1248
 11
2934.6045
 21
4190.9306
  0
LINE
  8
0-2
  6
CONTINUOUS
 62
    3
 10
2934.6045
 20
4190.9306
 11
2933.8516
 21
4192.6249
  0
LINE
  8
0-2
  6
CONTINUOUS
 62
    3
 10
2933.8516
 20
4192.6249
 11
2932.8297
 21
4194.1563
  0
LINE
  8
0-2
  6
CONTINUOUS
 62
    3
 10
2932.8297
 20
4194.1563
 11
2931.5699
 21
4195.4782
  0
LINE
  8
0-2
  6
CONTINUOUS
 62
    3
 10
2931.5699
 20
4195.4782
 11
2930.1105
 21
4196.5505
  0
LINE
  8
0-2
  6
CONTINUOUS
 62
    3
 10
2930.1105
 20
4196.5505
 11
2928.4958
 21
4197.3406
  0
LINE
  8
0-2
  6
CONTINUOUS
 62
    3
 10
2928.4958
 20
4197.3406
 11
2926.7749
 21
4197.8244
  0
LINE
  8
0-2
  6
CONTINUOUS
 62
    3
 10
2926.7749
 20
4197.8244
 11
2925.0001
 21
4197.9873
  0
LINE
  8
0-2
  6
CONTINUOUS
 62
    3
 10
2710.0006
 20
4044.836
 11
2711.7754
 21
4044.9989
  0
LINE
  8
0-2
  6
CONTINUOUS
 62
    3
 10
2711.7754
 20
4044.9989
 11
2713.4963
 21
4045.4828
  0
LINE
  8
0-2
  6
CONTINUOUS
 62
    3
 10
2713.4963
 20
4045.4828
 11
2715.111
 21
4046.2728
  0
LINE
  8
0-2
  6
CONTINUOUS
 62
    3
 10
2715.111
 20
4046.2728
 11
2716.5704
 21
4047.3451
  0
LINE
  8
0-2
  6
CONTINUOUS
 62
    3
 10
2716.5704
 20
4047.3451
 11
2717.8302
 21
4048.667
  0
LINE
  8
0-2
  6
CONTINUOUS
 62
    3
 10
2717.8302
 20
4048.667
 11
2718.8521
 21
4050.1984
  0
LINE
  8
0-2
  6
CONTINUOUS
 62
    3
 10
2718.8521
 20
4050.1984
 11
2719.605
 21
4051.8927
  0
LINE
  8
0-2
  6
CONTINUOUS
 62
    3
 10
2719.605
 20
4051.8927
 11
2720.0662
 21
4053.6985
  0
LINE
  8
0-2
  6
CONTINUOUS
 62
    3
 10
2720.0662
 20
4053.6985
 11
2720.2214
 21
4055.5609
  0
LINE
  8
0-2
  6
CONTINUOUS
 62
    3
 10
2720.2214
 20
4055.5609
 11
2720.0662
 21
4057.4232
  0
LINE
  8
0-2
  6
CONTINUOUS
 62
    3
 10
2720.0662
 20
4057.4232
 11
2719.605
 21
4059.229
  0
LINE
  8
0-2
  6
CONTINUOUS
 62
    3
 10
2719.605
 20
4059.229
 11
2718.8521
 21
4060.9233
  0
LINE
  8
0-2
  6
CONTINUOUS
 62
    3
 10
2718.8521
 20
4060.9233
 11
2717.8302
 21
4062.4547
  0
LINE
  8
0-2
  6
CONTINUOUS
 62
    3
 10
2717.8302
 20
4062.4547
 11
2716.5704
 21
4063.7766
  0
LINE
  8
0-2
  6
CONTINUOUS
 62
    3
 10
2716.5704
 20
4063.7766
 11
2715.111
 21
4064.8489
  0
LINE
  8
0-2
  6
CONTINUOUS
 62
    3
 10
2715.111
 20
4064.8489
 11
2713.4963
 21
4065.639
  0
LINE
  8
0-2
  6
CONTINUOUS
 62
    3
 10
2713.4963
 20
4065.639
 11
2711.7754
 21
4066.1228
  0
LINE
  8
0-2
  6
CONTINUOUS
 62
    3
 10
2711.7754
 20
4066.1228
 11
2710.0006
 21
4066.2858
  0
LINE
  8
0-2
  6
CONTINUOUS
 62
    3
 10
2710.0006
 20
3969.4866
 11
2711.7754
 21
3969.6495
  0
LINE
  8
0-2
  6
CONTINUOUS
 62
    3
 10
2711.7754
 20
3969.6495
 11
2713.4963
 21
3970.1334
  0
LINE
  8
0-2
  6
CONTINUOUS
 62
    3
 10
2713.4963
 20
3970.1334
 11
2715.111
 21
3970.9235
  0
LINE
  8
0-2
  6
CONTINUOUS
 62
    3
 10
2715.111
 20
3970.9235
 11
2716.5704
 21
3971.9957
  0
LINE
  8
0-2
  6
CONTINUOUS
 62
    3
 10
2716.5704
 20
3971.9957
 11
2717.8302
 21
3973.3177
  0
LINE
  8
0-2
  6
CONTINUOUS
 62
    3
 10
2717.8302
 20
3973.3177
 11
2718.8521
 21
3974.849
  0
LINE
  8
0-2
  6
CONTINUOUS
 62
    3
 10
2718.8521
 20
3974.849
 11
2719.605
 21
3976.5434
  0
LINE
  8
0-2
  6
CONTINUOUS
 62
    3
 10
2719.605
 20
3976.5434
 11
2720.0662
 21
3978.3491
  0
LINE
  8
0-2
  6
CONTINUOUS
 62
    3
 10
2720.0662
 20
3978.3491
 11
2720.2214
 21
3980.2115
  0
LINE
  8
0-2
  6
CONTINUOUS
 62
    3
 10
2720.2214
 20
3980.2115
 11
2720.0662
 21
3982.0738
  0
LINE
  8
0-2
  6
CONTINUOUS
 62
    3
 10
2720.0662
 20
3982.0738
 11
2719.605
 21
3983.8796
  0
LINE
  8
0-2
  6
CONTINUOUS
 62
    3
 10
2719.605
 20
3983.8796
 11
2718.8521
 21
3985.5739
  0
LINE
  8
0-2
  6
CONTINUOUS
 62
    3
 10
2718.8521
 20
3985.5739
 11
2717.8302
 21
3987.1053
  0
LINE
  8
0-2
  6
CONTINUOUS
 62
    3
 10
2717.8302
 20
3987.1053
 11
2716.5704
 21
3988.4272
  0
LINE
  8
0-2
  6
CONTINUOUS
 62
    3
 10
2716.5704
 20
3988.4272
 11
2715.111
 21
3989.4995
  0
LINE
  8
0-2
  6
CONTINUOUS
 62
    3
 10
2715.111
 20
3989.4995
 11
2713.4963
 21
3990.2896
  0
LINE
  8
0-2
  6
CONTINUOUS
 62
    3
 10
2713.4963
 20
3990.2896
 11
2711.7754
 21
3990.7734
  0
LINE
  8
0-2
  6
CONTINUOUS
 62
    3
 10
2711.7754
 20
3990.7734
 11
2710.0006
 21
3990.9364
  0
LINE
  8
0-2
  6
CONTINUOUS
 62
    3
 10
2925.0001
 20
4899.1876
 11
2926.7749
 21
4899.3505
  0
LINE
  8
0-2
  6
CONTINUOUS
 62
    3
 10
2926.7749
 20
4899.3505
 11
2928.4958
 21
4899.8344
  0
LINE
  8
0-2
  6
CONTINUOUS
 62
    3
 10
2928.4958
 20
4899.8344
 11
2930.1105
 21
4900.6244
  0
LINE
  8
0-2
  6
CONTINUOUS
 62
    3
 10
2930.1105
 20
4900.6244
 11
2931.5699
 21
4901.6967
  0
LINE
  8
0-2
  6
CONTINUOUS
 62
    3
 10
2931.5699
 20
4901.6967
 11
2932.8297
 21
4903.0186
  0
LINE
  8
0-2
  6
CONTINUOUS
 62
    3
 10
2932.8297
 20
4903.0186
 11
2933.8516
 21
4904.55
  0
LINE
  8
0-2
  6
CONTINUOUS
 62
    3
 10
2933.8516
 20
4904.55
 11
2934.6045
 21
4906.2443
  0
LINE
  8
0-2
  6
CONTINUOUS
 62
    3
 10
2934.6045
 20
4906.2443
 11
2935.0656
 21
4908.0501
  0
LINE
  8
0-2
  6
CONTINUOUS
 62
    3
 10
2935.0656
 20
4908.0501
 11
2935.2209
 21
4909.9125
  0
LINE
  8
0-2
  6
CONTINUOUS
 62
    3
 10
2935.2209
 20
4909.9125
 11
2935.0656
 21
4911.7748
  0
LINE
  8
0-2
  6
CONTINUOUS
 62
    3
 10
2935.0656
 20
4911.7748
 11
2934.6045
 21
4913.5806
  0
LINE
  8
0-2
  6
CONTINUOUS
 62
    3
 10
2934.6045
 20
4913.5806
 11
2933.8516
 21
4915.2749
  0
LINE
  8
0-2
  6
CONTINUOUS
 62
    3
 10
2933.8516
 20
4915.2749
 11
2932.8297
 21
4916.8063
  0
LINE
  8
0-2
  6
CONTINUOUS
 62
    3
 10
2932.8297
 20
4916.8063
 11
2931.5699
 21
4918.1282
  0
LINE
  8
0-2
  6
CONTINUOUS
 62
    3
 10
2931.5699
 20
4918.1282
 11
2930.1105
 21
4919.2005
  0
LINE
  8
0-2
  6
CONTINUOUS
 62
    3
 10
2930.1105
 20
4919.2005
 11
2928.4958
 21
4919.9906
  0
LINE
  8
0-2
  6
CONTINUOUS
 62
    3
 10
2928.4958
 20
4919.9906
 11
2926.7749
 21
4920.4744
  0
LINE
  8
0-2
  6
CONTINUOUS
 62
    3
 10
2926.7749
 20
4920.4744
 11
2925.0001
 21
4920.6374
  0
LINE
  8
0-2
  6
CONTINUOUS
 62
    3
 10
2925.0001
 20
4984.9869
 11
2926.7749
 21
4985.1498
  0
LINE
  8
0-2
  6
CONTINUOUS
 62
    3
 10
2926.7749
 20
4985.1498
 11
2928.4958
 21
4985.6336
  0
LINE
  8
0-2
  6
CONTINUOUS
 62
    3
 10
2928.4958
 20
4985.6336
 11
2930.1105
 21
4986.4237
  0
LINE
  8
0-2
  6
CONTINUOUS
 62
    3
 10
2930.1105
 20
4986.4237
 11
2931.5699
 21
4987.496
  0
LINE
  8
0-2
  6
CONTINUOUS
 62
    3
 10
2931.5699
 20
4987.496
 11
2932.8297
 21
4988.8179
  0
LINE
  8
0-2
  6
CONTINUOUS
 62
    3
 10
2932.8297
 20
4988.8179
 11
2933.8516
 21
4990.3493
  0
LINE
  8
0-2
  6
CONTINUOUS
 62
    3
 10
2933.8516
 20
4990.3493
 11
2934.6045
 21
4992.0436
  0
LINE
  8
0-2
  6
CONTINUOUS
 62
    3
 10
2934.6045
 20
4992.0436
 11
2935.0656
 21
4993.8494
  0
LINE
  8
0-2
  6
CONTINUOUS
 62
    3
 10
2935.0656
 20
4993.8494
 11
2935.2209
 21
4995.7117
  0
LINE
  8
0-2
  6
CONTINUOUS
 62
    3
 10
2935.2209
 20
4995.7117
 11
2935.0656
 21
4997.5741
  0
LINE
  8
0-2
  6
CONTINUOUS
 62
    3
 10
2935.0656
 20
4997.5741
 11
2934.6045
 21
4999.3799
  0
LINE
  8
0-2
  6
CONTINUOUS
 62
    3
 10
2934.6045
 20
4999.3799
 11
2933.8516
 21
5001.0742
  0
LINE
  8
0-2
  6
CONTINUOUS
 62
    3
 10
2933.8516
 20
5001.0742
 11
2932.8297
 21
5002.6056
  0
LINE
  8
0-2
  6
CONTINUOUS
 62
    3
 10
2932.8297
 20
5002.6056
 11
2931.5699
 21
5003.9275
  0
LINE
  8
0-2
  6
CONTINUOUS
 62
    3
 10
2931.5699
 20
5003.9275
 11
2930.1105
 21
5004.9998
  0
LINE
  8
0-2
  6
CONTINUOUS
 62
    3
 10
2930.1105
 20
5004.9998
 11
2928.4958
 21
5005.7898
  0
LINE
  8
0-2
  6
CONTINUOUS
 62
    3
 10
2928.4958
 20
5005.7898
 11
2926.7749
 21
5006.2737
  0
LINE
  8
0-2
  6
CONTINUOUS
 62
    3
 10
2926.7749
 20
5006.2737
 11
2925.0001
 21
5006.4366
  0
ARC
  8
0-2
  6
CONTINUOUS
 62
    3
 10
1497.5004
 20
3533.9035
 40
12.028151
 50
270
 51
90
  0
ARC
  8
0-2
  6
CONTINUOUS
 62
    3
 10
2702.5017
 20
3533.9035
 40
12.028151
 50
90
 51
270
  0
CIRCLE
  8
0-2
  6
CONTINUOUS
 62
    3
 10
2099.9971
 20
1680.2717
 40
602.50003
  0
TEXT
  8
0-d
 10
509.99972
 20
310.13515
 40
50
 41
1
 50
0
  1
図
  0
TEXT
  8
0-d
 10
509.99972
 20
190.13521
 40
50
 41
1
 50
0
  1
番
  0
TEXT
  8
0-d
 10
1309.9998
 20
310.13515
 40
50
 41
1
 50
0
  1
承
  0
TEXT
  8
0-d
 10
1309.9998
 20
190.13521
 40
50
 41
1
 50
0
  1
認
  0
TEXT
  8
0-d
 10
2039.9997
 20
470.13525
 40
50
 41
1
 50
0
  1
尺
  0
TEXT
  8
0-d
 10
2039.9997
 20
390.13529
 40
50
 41
1
 50
359.99986
  1
度
  0
TEXT
  8
0-d
 10
1709.9997
 20
310.13515
 40
50
 41
1
 50
0
  1
製
  0
TEXT
  8
0-d
 10
1709.9997
 20
190.13521
 40
50
 41
1
 50
0
  1
図
  0
TEXT
  8
0-d
 10
3110
 20
470.13525
 40
50
 41
1
 50
0
  1
日
  0
TEXT
  8
0-d
 10
3110
 20
390.13529
 40
50
 41
1
 50
359.99986
  1
付
  0
TEXT
  8
0-d
 10
2222.852
 20
322.09976
 40
40
 41
1
 50
0
  1
株式
  0
TEXT
  8
0-d
 10
2222.852
 20
278.83889
 40
40
 41
1
 50
0.0000152
  1
会社
  0
TEXT
  8
0-d
 10
2348.4485
 20
281.62989
 40
80
 41
1
 50
0
  1
スズキベンチレーター
  0
TEXT
  8
0-d
 10
2475.8354
 20
183.18397
 40
40
 41
1
 50
0
  1
TEL(054)296-7000  FAX(054)296-7001
  0
TEXT
  8
0-d
 10
2168.6978
 20
415.33667
 40
80
 41
1
 50
0
  1
１／２０
  0
TEXT
  8
0-8
 10
2027.5002
 20
5410.1527
 40
60
 41
1
 50
0
  1
1,650
  0
TEXT
  8
0-8
 10
884.60235
 20
4538.9878
 40
60
 41
1
 50
90
  1
1,350
  0
TEXT
  8
0-8
 10
3417.8379
 20
3988.9877
 40
60
 41
1
 50
90
  1
190
  0
TEXT
  8
0-8
 10
3417.8379
 20
4548.9873
 40
60
 41
1
 50
90
  1
930
  0
TEXT
  8
0-8
 10
3417.8379
 20
5128.9873
 40
60
 41
1
 50
90
  1
230
  0
TEXT
  8
0-8
 10
2027.4992
 20
3837.4882
 40
60
 41
1
 50
0
  1
1,220φ
  0
TEXT
  8
0-d
 10
1296.6619
 20
3041.9001
 40
60
 41
1
 50
0.000946
  1
3
  0
TEXT
  8
0-d
 10
1136.6025
 20
2936.1685
 40
60
 41
1
 50
0
  1
10
  0
TEXT
  8
0-8
 10
3517.6534
 20
1617.0276
 40
60
 41
1
 50
90
  1
1,400
  0
TEXT
  8
0-8
 10
1997.3487
 20
1664.7627
 40
60
 41
1
 50
19.698059
  1
1,205φ
  0
TEXT
  8
0-8
 10
1998.1251
 20
3699.3113
 40
60
 41
1
 50
0
  1
1,205φ
  0
TEXT
  8
0-8
 10
2006.2501
 20
2813.713
 40
60
 41
1
 50
0
  1
1,400
  0
TEXT
  8
0-8
 10
3533.8699
 20
822.43279
 40
60
 41
1
 50
90
  1
300
  0
TEXT
  8
0-8
 10
3517.6534
 20
2476.4869
 40
60
 41
1
 50
90
  1
300
  0
TEXT
  8
0-8
 10
3414.5291
 20
3450.2639
 40
60
 41
1
 50
90
  1
120
  0
TEXT
  8
0-8
 10
3414.5286
 20
3149.772
 40
60
 41
1
 50
90
  1
530
  0
TEXT
  8
0-8
 10
760.47045
 20
1586.5214
 40
60
 41
1
 50
90
  1
≒ 2,000
  0
TEXT
  8
0-d
 10
596.6753
 20
287.90676
 40
60
 41
1
 50
0
  1
120-H03
  0
TEXT
  8
0-d
 10
1358.1186
 20
390.98293
 40
60
 41
1
 50
0
  1
直付袴立面・平面
  0
TEXT
  8
0-d
 10
2471.3583
 20
232.42738
 40
40
 41
1
 50
0
  1
〒421-2114　静岡市葵区安倍口新田１５２番地
  0
TEXT
  8
0-d
 10
510.00006
 20
5545.4028
 40
100
 41
1
 50
0
  1
ＤＳ－１２００  自然換気  直付型立面、直付袴立面・平面
  0
TEXT
  8
0-2
 10
524.09792
 20
468.68726
 40
60
 41
1
 50
0
  1
ＤＳ－１２００ 自然換気 直付型立面、
  0
POINT
  8
0-8
 62
    2
 10
904.60217
 20
3936.4876
  0
POINT
  8
0-8
 62
    2
 10
904.60242
 20
5286.4877
  0
POINT
  8
0-8
 62
    2
 10
1275
 20
5390.1526
  0
POINT
  8
0-8
 62
    2
 10
2925.0001
 20
5390.1526
  0
POINT
  8
0-8
 62
    2
 10
1489.9995
 20
3817.4876
  0
POINT
  8
0-8
 62
    2
 10
2709.9991
 20
3817.4884
  0
POINT
  8
0-8
 62
    2
 10
3437.838
 20
3936.4876
  0
POINT
  8
0-8
 62
    2
 10
3437.838
 20
4126.4875
  0
POINT
  8
0-8
 62
    2
 10
3437.838
 20
5056.4874
  0
POINT
  8
0-8
 62
    2
 10
3437.838
 20
5286.4867
  0
POINT
  8
0-8
 62
    2
 10
3434.5287
 20
2919.9875
  0
POINT
  8
0-8
 62
    2
 10
3434.5287
 20
3449.9878
  0
POINT
  8
0-8
 62
    2
 10
3434.5287
 20
3569.9882
  0
POINT
  8
0-8
 62
    2
 10
765.47047
 20
680.27161
  0
POINT
  8
0-8
 62
    2
 10
765.47047
 20
2680.2715
  0
POINT
  8
0-8
 62
    2
 10
3572.0117
 20
980.27163
  0
POINT
  8
0-8
 62
    2
 10
3572.0117
 20
2380.2714
  0
POINT
  8
0-8
 62
    2
 10
1400.0002
 20
2793.713
  0
POINT
  8
0-8
 62
    2
 10
1532.7601
 20
1477.1904
  0
POINT
  8
0-8
 62
    2
 10
2667.246
 20
1883.3525
  0
POINT
  8
0-8
 62
    2
 10
1497.5004
 20
3679.3113
  0
POINT
  8
0-8
 62
    2
 10
2702.5002
 20
3679.3113
  0
POINT
  8
0-8
 62
    2
 10
3572.0117
 20
680.27161
  0
POINT
  8
0-8
 62
    2
 10
3572.0117
 20
2680.2715
  0
POINT
  8
0-8
 62
    2
 10
2799.9999
 20
2793.713
  0
ENDSEC
  0
EOF
