  0
SECTION
  2
HEADER
  9
$EXTMIN
 10
0
 20
0
  9
$EXTMAX
 10
8400
 20
5940
  0
ENDSEC
  0
SECTION
  2
TABLES
  0
TABLE
  2
LTYPE
 70
     9
  0
LTYPE
  2
CONTINUOUS
 70
    64
  3
実線
 72
    65
 73
     0
 40
0.0
  0
LTYPE
  2
DASHED1
 70
    64
  3
--  --  --  --  --  --  --  --  
 72
    65
 73
     2
 40
2.5
 49
1.25
 49
-1.25
  0
LTYPE
  2
DASHED2
 70
    64
  3
----    ----    ----    ----    
 72
    65
 73
     2
 40
5.0
 49
2.5
 49
-2.5
  0
LTYPE
  2
DASHED3
 70
    64
  3
------  ------  ------  ------  
 72
    65
 73
     2
 40
5.0
 49
3.75
 49
-1.25
  0
LTYPE
  2
CENTER1
 70
    64
  3
----- - ----- - ----- - ----- - 
 72
    65
 73
     4
 40
10.0
 49
6.25
 49
-1.25
 49
1.25
 49
-1.25
  0
LTYPE
  2
CENTER2
 70
    64
  3
----------  --  ----------  --  
 72
    65
 73
     4
 40
20.0
 49
12.5
 49
-2.5
 49
2.5
 49
-2.5
  0
LTYPE
  2
PHANTOM1
 70
    64
  3
--- - - --- - - --- - - --- - - 
 72
    65
 73
     6
 40
10.0
 49
3.25
 49
-1.25
 49
1.25
 49
-1.25
 49
1.25
 49
-1.25
  0
LTYPE
  2
PHANTOM2
 70
    64
  3
--------  -  -  --------  -  -  
 72
    65
 73
     6
 40
20.0
 49
10.0
 49
-2.5
 49
1.25
 49
-2.5
 49
1.25
 49
-2.5
  0
LTYPE
  2
DOT
 70
    64
  3
-   -   -   -   -   -   -   -   
 72
    65
 73
     2
 40
2.5
 49
0.625
 49
-1.875
  0
ENDTAB
  0
TABLE
  2
STYLE
 70
    1
  0
STYLE
  2
STANDARD
 70
    64
 40
0.0
 41
1.0
 42
0.0
 50
0.0
 71
     0
  3
TXT
  4
BIGFONT
  0
ENDTAB
  0
TABLE
  2
LAYER
 70
    6
  0
LAYER
  2
0-1
 70
   64
 62
    7
  6
CONTINUOUS
  0
LAYER
  2
0-2
 70
   64
 62
    7
  6
CONTINUOUS
  0
LAYER
  2
0-3
 70
   64
 62
    7
  6
CONTINUOUS
  0
LAYER
  2
0-8
 70
   64
 62
    7
  6
CONTINUOUS
  0
LAYER
  2
0-d
 70
   64
 62
    7
  6
CONTINUOUS
  0
LAYER
  2
ADD_LINE
 70
   64
 62
    7
  6
CONTINUOUS
  0
ENDTAB
  0
ENDSEC
  0
SECTION
  2
ENTITIES
  0
LINE
  8
0-d
  6
CONTINUOUS
 62
    7
 10
500.00006
 20
5515.4027
 11
3700.0002
 21
5515.4027
  0
LINE
  8
0-d
  6
CONTINUOUS
 62
    7
 10
500.00006
 20
5535.4028
 11
3700.0002
 21
5535.4028
  0
LINE
  8
0-d
  6
CONTINUOUS
 62
    7
 10
499.99981
 20
375.13524
 11
3700
 21
375.13524
  0
LINE
  8
0-d
  6
CONTINUOUS
 62
    7
 10
499.99981
 20
175.13519
 11
499.99981
 21
535.13516
  0
LINE
  8
0-d
  6
CONTINUOUS
 62
    7
 10
499.99981
 20
175.13519
 11
3700
 21
175.13519
  0
LINE
  8
0-d
  6
CONTINUOUS
 62
    7
 10
2100.0001
 20
535.13516
 11
2100.0001
 21
175.13519
  0
LINE
  8
0-d
  6
CONTINUOUS
 62
    7
 10
1300
 20
175.13519
 11
1300
 21
375.13524
  0
LINE
  8
0-d
  6
CONTINUOUS
 62
    7
 10
2100.0001
 20
375.13524
 11
2100.0001
 21
535.13516
  0
LINE
  8
0-d
  6
CONTINUOUS
 62
    7
 10
1700
 20
175.13519
 11
1700
 21
375.13524
  0
LINE
  8
0-d
  6
CONTINUOUS
 62
    7
 10
569.99968
 20
175.13519
 11
569.99968
 21
375.13524
  0
LINE
  8
0-d
  6
CONTINUOUS
 62
    7
 10
1369.9996
 20
175.13519
 11
1369.9996
 21
375.13524
  0
LINE
  8
0-d
  6
CONTINUOUS
 62
    7
 10
1769.9996
 20
175.13519
 11
1769.9996
 21
375.13524
  0
LINE
  8
0-d
  6
CONTINUOUS
 62
    7
 10
2029.9999
 20
375.13524
 11
2029.9999
 21
535.13516
  0
LINE
  8
0-d
  6
CONTINUOUS
 62
    7
 10
3099.9999
 20
375.13524
 11
3099.9999
 21
535.13516
  0
LINE
  8
0-d
  6
CONTINUOUS
 62
    7
 10
3169.9997
 20
375.13524
 11
3169.9997
 21
535.13516
  0
LINE
  8
0-d
  6
CONTINUOUS
 62
    7
 10
499.99981
 20
535.13516
 11
3700
 21
535.13516
  0
LINE
  8
0-d
  6
CONTINUOUS
 62
    7
 10
3700
 20
535.13516
 11
3700
 21
175.13519
  0
LINE
  8
0-8
  6
CONTINUOUS
 62
    7
 10
1300.0001
 20
5188.4773
 11
2900
 21
5188.4773
  0
LINE
  8
0-2
  6
CONTINUOUS
 62
    3
 10
1300.0001
 20
4864.2371
 11
1300.0001
 21
4627.2367
  0
LINE
  8
0-2
  6
CONTINUOUS
 62
    3
 10
2900
 20
4864.2371
 11
2900
 21
4627.2367
  0
LINE
  8
0-8
  6
CONTINUOUS
 62
    7
 10
1567.4999
 20
4107.8788
 11
1567.4999
 21
3992.4202
  0
LINE
  8
0-8
  6
CONTINUOUS
 62
    7
 10
2632.5
 20
4107.8788
 11
2632.5
 21
3992.4202
  0
LINE
  8
0-8
  6
CONTINUOUS
 62
    7
 10
1300.0001
 20
4944.7852
 11
1300.0001
 21
5188.4773
  0
LINE
  8
0-8
  6
CONTINUOUS
 62
    7
 10
1604.5541
 20
5049.2369
 11
1013.2749
 21
5049.2369
  0
LINE
  8
0-8
  6
CONTINUOUS
 62
    7
 10
2900
 20
4944.7852
 11
2900
 21
5188.4773
  0
LINE
  8
0-2
  6
CONTINUOUS
 62
    3
 10
1300.0001
 20
4607.7375
 11
1300.0001
 21
4549.2367
  0
LINE
  8
0-2
  6
CONTINUOUS
 62
    3
 10
1300.0001
 20
4529.7375
 11
1300.0001
 21
4484.2363
  0
LINE
  8
0-2
  6
CONTINUOUS
 62
    3
 10
2900
 20
4607.7375
 11
2900
 21
4549.2367
  0
LINE
  8
0-2
  6
CONTINUOUS
 62
    3
 10
2899.9978
 20
4529.7375
 11
2899.9978
 21
4484.2363
  0
LINE
  8
0-3
  6
CONTINUOUS
 62
    3
 10
2137.3402
 20
4573.4448
 11
2147.167
 21
4579.4848
  0
LINE
  8
0-3
  6
CONTINUOUS
 62
    3
 10
2147.167
 20
4579.4848
 11
2156.9471
 21
4585.6441
  0
LINE
  8
0-3
  6
CONTINUOUS
 62
    3
 10
2156.9471
 20
4585.6441
 11
2166.6351
 21
4592.0339
  0
LINE
  8
0-3
  6
CONTINUOUS
 62
    3
 10
2166.6351
 20
4592.0339
 11
2176.1222
 21
4598.7792
  0
LINE
  8
0-3
  6
CONTINUOUS
 62
    3
 10
2176.1222
 20
4598.7792
 11
2185.2362
 21
4606.0158
  0
LINE
  8
0-3
  6
CONTINUOUS
 62
    3
 10
2185.2362
 20
4606.0158
 11
2193.7854
 21
4613.8621
  0
LINE
  8
0-3
  6
CONTINUOUS
 62
    3
 10
2193.7854
 20
4613.8621
 11
2201.5838
 21
4622.4567
  0
LINE
  8
0-3
  6
CONTINUOUS
 62
    3
 10
2201.5838
 20
4622.4567
 11
2208.4425
 21
4631.9222
  0
LINE
  8
0-3
  6
CONTINUOUS
 62
    3
 10
2208.4425
 20
4631.9222
 11
2214.4251
 21
4642.1603
  0
LINE
  8
0-3
  6
CONTINUOUS
 62
    3
 10
2214.4251
 20
4642.1603
 11
2220.0777
 21
4652.6151
  0
LINE
  8
0-3
  6
CONTINUOUS
 62
    3
 10
2220.0777
 20
4652.6151
 11
2225.9754
 21
4662.6973
  0
LINE
  8
0-3
  6
CONTINUOUS
 62
    3
 10
2225.9754
 20
4662.6973
 11
2232.7218
 21
4671.815
  0
LINE
  8
0-3
  6
CONTINUOUS
 62
    3
 10
2232.7218
 20
4671.815
 11
2240.8883
 21
4679.3753
  0
LINE
  8
0-3
  6
CONTINUOUS
 62
    3
 10
2240.8883
 20
4679.3753
 11
2250.6548
 21
4685.2198
  0
LINE
  8
0-3
  6
CONTINUOUS
 62
    3
 10
2250.6548
 20
4685.2198
 11
2261.4271
 21
4689.9959
  0
LINE
  8
0-3
  6
CONTINUOUS
 62
    3
 10
2261.4271
 20
4689.9959
 11
2266.5266
 21
4692.0328
  0
LINE
  8
0-3
  6
CONTINUOUS
 62
    3
 10
2261.4271
 20
4689.9959
 11
2268.5207
 21
4691.1232
  0
LINE
  8
0-3
  6
CONTINUOUS
 62
    3
 10
2268.5207
 20
4691.1232
 11
2275.6776
 21
4692.1036
  0
LINE
  8
0-3
  6
CONTINUOUS
 62
    3
 10
2275.6776
 20
4692.1036
 11
2282.9531
 21
4692.8058
  0
LINE
  8
0-3
  6
CONTINUOUS
 62
    3
 10
2282.9531
 20
4692.8058
 11
2290.4072
 21
4693.0715
  0
LINE
  8
0-3
  6
CONTINUOUS
 62
    3
 10
2290.4072
 20
4693.0715
 11
2298.088
 21
4692.7702
  0
LINE
  8
0-3
  6
CONTINUOUS
 62
    3
 10
2298.088
 20
4692.7702
 11
2305.774
 21
4691.6502
  0
LINE
  8
0-3
  6
CONTINUOUS
 62
    3
 10
2305.774
 20
4691.6502
 11
2312.9436
 21
4689.4055
  0
LINE
  8
0-3
  6
CONTINUOUS
 62
    3
 10
2312.9436
 20
4689.4055
 11
2319.0548
 21
4685.6825
  0
LINE
  8
0-3
  6
CONTINUOUS
 62
    3
 10
2319.0548
 20
4685.6825
 11
2323.6676
 21
4680.2428
  0
LINE
  8
0-3
  6
CONTINUOUS
 62
    3
 10
2323.6676
 20
4680.2428
 11
2327.2634
 21
4673.7119
  0
LINE
  8
0-3
  6
CONTINUOUS
 62
    3
 10
2133.4824
 20
4546.4526
 11
2144.9975
 21
4548.1619
  0
LINE
  8
0-3
  6
CONTINUOUS
 62
    3
 10
2144.9975
 20
4548.1619
 11
2156.4426
 21
4550.0964
  0
LINE
  8
0-3
  6
CONTINUOUS
 62
    3
 10
2156.4426
 20
4550.0964
 11
2167.7612
 21
4552.4609
  0
LINE
  8
0-3
  6
CONTINUOUS
 62
    3
 10
2167.7612
 20
4552.4609
 11
2178.8762
 21
4555.4856
  0
LINE
  8
0-3
  6
CONTINUOUS
 62
    3
 10
2178.8762
 20
4555.4856
 11
2189.7309
 21
4559.3803
  0
LINE
  8
0-3
  6
CONTINUOUS
 62
    3
 10
2189.7309
 20
4559.3803
 11
2200.2637
 21
4564.197
  0
LINE
  8
0-3
  6
CONTINUOUS
 62
    3
 10
2200.2637
 20
4564.197
 11
2210.4297
 21
4569.843
  0
LINE
  8
0-3
  6
CONTINUOUS
 62
    3
 10
2210.4297
 20
4569.843
 11
2220.1727
 21
4576.2542
  0
LINE
  8
0-3
  6
CONTINUOUS
 62
    3
 10
2220.1727
 20
4576.2542
 11
2229.4472
 21
4583.3137
  0
LINE
  8
0-3
  6
CONTINUOUS
 62
    3
 10
2229.4472
 20
4583.3137
 11
2238.2088
 21
4590.9566
  0
LINE
  8
0-3
  6
CONTINUOUS
 62
    3
 10
2238.2088
 20
4590.9566
 11
2246.5243
 21
4599.0429
  0
LINE
  8
0-3
  6
CONTINUOUS
 62
    3
 10
2246.5243
 20
4599.0429
 11
2254.5614
 21
4607.3896
  0
LINE
  8
0-3
  6
CONTINUOUS
 62
    3
 10
2254.5614
 20
4607.3896
 11
2262.4963
 21
4615.8109
  0
LINE
  8
0-3
  6
CONTINUOUS
 62
    3
 10
2262.4963
 20
4615.8109
 11
2270.4982
 21
4624.1219
  0
LINE
  8
0-3
  6
CONTINUOUS
 62
    3
 10
2270.4982
 20
4624.1219
 11
2278.7486
 21
4632.141
  0
LINE
  8
0-3
  6
CONTINUOUS
 62
    3
 10
2278.7486
 20
4632.141
 11
2287.406
 21
4639.7077
  0
LINE
  8
0-3
  6
CONTINUOUS
 62
    3
 10
2287.406
 20
4639.7077
 11
2296.4586
 21
4646.8166
  0
LINE
  8
0-3
  6
CONTINUOUS
 62
    3
 10
2296.4586
 20
4646.8166
 11
2305.8336
 21
4653.5777
  0
LINE
  8
0-3
  6
CONTINUOUS
 62
    3
 10
2305.8336
 20
4653.5777
 11
2315.4323
 21
4660.0745
  0
LINE
  8
0-3
  6
CONTINUOUS
 62
    3
 10
2315.4323
 20
4660.0745
 11
2325.1827
 21
4666.4099
  0
LINE
  8
0-3
  6
CONTINUOUS
 62
    3
 10
2325.1827
 20
4666.4099
 11
2332.0848
 21
4670.8213
  0
LINE
  8
0-3
  6
CONTINUOUS
 62
    3
 10
2332.0848
 20
4670.8213
 11
2342.8553
 21
4675.2885
  0
LINE
  8
0-3
  6
CONTINUOUS
 62
    3
 10
2342.8553
 20
4675.2885
 11
2353.6877
 21
4679.4599
  0
LINE
  8
0-3
  6
CONTINUOUS
 62
    3
 10
2353.6877
 20
4679.4599
 11
2364.6483
 21
4683.0398
  0
LINE
  8
0-3
  6
CONTINUOUS
 62
    3
 10
2364.6483
 20
4683.0398
 11
2375.8007
 21
4685.7379
  0
LINE
  8
0-3
  6
CONTINUOUS
 62
    3
 10
2375.8007
 20
4685.7379
 11
2387.1716
 21
4687.3913
  0
LINE
  8
0-3
  6
CONTINUOUS
 62
    3
 10
2387.1716
 20
4687.3913
 11
2398.7057
 21
4688.1173
  0
LINE
  8
0-3
  6
CONTINUOUS
 62
    3
 10
2398.7057
 20
4688.1173
 11
2410.3371
 21
4688.0747
  0
LINE
  8
0-3
  6
CONTINUOUS
 62
    3
 10
2410.3371
 20
4688.0747
 11
2422.0027
 21
4687.4195
  0
LINE
  8
0-3
  6
CONTINUOUS
 62
    3
 10
2422.0027
 20
4687.4195
 11
2433.6469
 21
4686.315
  0
LINE
  8
0-3
  6
CONTINUOUS
 62
    3
 10
2433.6469
 20
4686.315
 11
2445.2031
 21
4684.8937
  0
LINE
  8
0-3
  6
CONTINUOUS
 62
    3
 10
2445.2031
 20
4684.8937
 11
2456.6564
 21
4683.1269
  0
LINE
  8
0-3
  6
CONTINUOUS
 62
    3
 10
2456.6564
 20
4683.1269
 11
2468.0124
 21
4680.9752
  0
LINE
  8
0-3
  6
CONTINUOUS
 62
    3
 10
2468.0124
 20
4680.9752
 11
2479.2541
 21
4678.3652
  0
LINE
  8
0-3
  6
CONTINUOUS
 62
    3
 10
2479.2541
 20
4678.3652
 11
2490.3876
 21
4675.2524
  0
LINE
  8
0-3
  6
CONTINUOUS
 62
    3
 10
2490.3876
 20
4675.2524
 11
2501.4093
 21
4671.5665
  0
LINE
  8
0-3
  6
CONTINUOUS
 62
    3
 10
2501.4093
 20
4671.5665
 11
2512.2739
 21
4667.2566
  0
LINE
  8
0-3
  6
CONTINUOUS
 62
    3
 10
2512.2739
 20
4667.2566
 11
2522.8809
 21
4662.2727
  0
LINE
  8
0-3
  6
CONTINUOUS
 62
    3
 10
2522.8809
 20
4662.2727
 11
2533.0745
 21
4656.586
  0
LINE
  8
0-3
  6
CONTINUOUS
 62
    3
 10
2533.0745
 20
4656.586
 11
2542.7239
 21
4650.1432
  0
LINE
  8
0-3
  6
CONTINUOUS
 62
    3
 10
2542.7239
 20
4650.1432
 11
2551.6874
 21
4642.8957
  0
LINE
  8
0-3
  6
CONTINUOUS
 62
    3
 10
2551.6874
 20
4642.8957
 11
2559.8418
 21
4634.8227
  0
LINE
  8
0-3
  6
CONTINUOUS
 62
    3
 10
2559.8418
 20
4634.8227
 11
2567.2909
 21
4626.0431
  0
LINE
  8
0-3
  6
CONTINUOUS
 62
    3
 10
2567.2909
 20
4626.0431
 11
2574.2227
 21
4616.7522
  0
LINE
  8
0-3
  6
CONTINUOUS
 62
    3
 10
2574.2227
 20
4616.7522
 11
2580.8311
 21
4607.1451
  0
LINE
  8
0-3
  6
CONTINUOUS
 62
    3
 10
2580.8311
 20
4607.1451
 11
2584.6716
 21
4601.408
  0
LINE
  8
0-3
  6
CONTINUOUS
 62
    3
 10
2580.8311
 20
4607.1451
 11
2585.9981
 21
4596.4448
  0
LINE
  8
0-3
  6
CONTINUOUS
 62
    3
 10
2585.9981
 20
4596.4448
 11
2590.8907
 21
4585.6975
  0
LINE
  8
0-3
  6
CONTINUOUS
 62
    3
 10
2590.8907
 20
4585.6975
 11
2595.2432
 21
4574.8735
  0
LINE
  8
0-3
  6
CONTINUOUS
 62
    3
 10
2595.2432
 20
4574.8735
 11
2598.7786
 21
4563.9154
  0
LINE
  8
0-3
  6
CONTINUOUS
 62
    3
 10
2598.7786
 20
4563.9154
 11
2601.2275
 21
4552.7925
  0
LINE
  8
0-3
  6
CONTINUOUS
 62
    3
 10
2601.2275
 20
4552.7925
 11
2602.3292
 21
4541.4622
  0
LINE
  8
0-3
  6
CONTINUOUS
 62
    3
 10
2602.3292
 20
4541.4622
 11
2602.0132
 21
4529.9691
  0
LINE
  8
0-3
  6
CONTINUOUS
 62
    3
 10
2602.0132
 20
4529.9691
 11
2600.4726
 21
4518.4241
  0
LINE
  8
0-3
  6
CONTINUOUS
 62
    3
 10
2600.4726
 20
4518.4241
 11
2597.9057
 21
4506.9626
  0
LINE
  8
0-3
  6
CONTINUOUS
 62
    3
 10
2597.9057
 20
4506.9626
 11
2594.4883
 21
4495.715
  0
LINE
  8
0-3
  6
CONTINUOUS
 62
    3
 10
2594.4883
 20
4495.715
 11
2590.2783
 21
4484.8371
  0
LINE
  8
0-3
  6
CONTINUOUS
 62
    3
 10
2590.2783
 20
4484.8371
 11
2585.1615
 21
4474.4822
  0
LINE
  8
0-3
  6
CONTINUOUS
 62
    3
 10
2585.1615
 20
4474.4822
 11
2579.0146
 21
4464.8098
  0
LINE
  8
0-3
  6
CONTINUOUS
 62
    3
 10
2579.0146
 20
4464.8098
 11
2571.852
 21
4455.8797
  0
LINE
  8
0-3
  6
CONTINUOUS
 62
    3
 10
2571.852
 20
4455.8797
 11
2563.8889
 21
4447.5241
  0
LINE
  8
0-3
  6
CONTINUOUS
 62
    3
 10
2563.8889
 20
4447.5241
 11
2555.3782
 21
4439.5694
  0
LINE
  8
0-3
  6
CONTINUOUS
 62
    3
 10
2555.3782
 20
4439.5694
 11
2546.5565
 21
4431.8473
  0
LINE
  8
0-3
  6
CONTINUOUS
 62
    3
 10
2546.5565
 20
4431.8473
 11
2544.1773
 21
4429.8035
  0
LINE
  8
0-3
  6
CONTINUOUS
 62
    3
 10
2546.5565
 20
4431.8473
 11
2536.4315
 21
4426.1701
  0
LINE
  8
0-3
  6
CONTINUOUS
 62
    3
 10
2536.4315
 20
4426.1701
 11
2526.2681
 21
4420.5997
  0
LINE
  8
0-3
  6
CONTINUOUS
 62
    3
 10
2526.2681
 20
4420.5997
 11
2516.0204
 21
4415.2313
  0
LINE
  8
0-3
  6
CONTINUOUS
 62
    3
 10
2516.0204
 20
4415.2313
 11
2505.6324
 21
4410.1671
  0
LINE
  8
0-3
  6
CONTINUOUS
 62
    3
 10
2505.6324
 20
4410.1671
 11
2495.0783
 21
4405.5069
  0
LINE
  8
0-3
  6
CONTINUOUS
 62
    3
 10
2495.0783
 20
4405.5069
 11
2484.2984
 21
4401.3519
  0
LINE
  8
0-3
  6
CONTINUOUS
 62
    3
 10
2484.2984
 20
4401.3519
 11
2473.291
 21
4397.761
  0
LINE
  8
0-3
  6
CONTINUOUS
 62
    3
 10
2473.291
 20
4397.761
 11
2462.102
 21
4394.7467
  0
LINE
  8
0-3
  6
CONTINUOUS
 62
    3
 10
2462.102
 20
4394.7467
 11
2450.7735
 21
4392.305
  0
LINE
  8
0-3
  6
CONTINUOUS
 62
    3
 10
2450.7735
 20
4392.305
 11
2439.3403
 21
4390.4378
  0
LINE
  8
0-3
  6
CONTINUOUS
 62
    3
 10
2439.3403
 20
4390.4378
 11
2427.8581
 21
4389.1298
  0
LINE
  8
0-3
  6
CONTINUOUS
 62
    3
 10
2427.8581
 20
4389.1298
 11
2416.3373
 21
4388.2855
  0
LINE
  8
0-3
  6
CONTINUOUS
 62
    3
 10
2416.3373
 20
4388.2855
 11
2404.7863
 21
4387.7917
  0
LINE
  8
0-3
  6
CONTINUOUS
 62
    3
 10
2404.7863
 20
4387.7917
 11
2393.2103
 21
4387.5239
  0
LINE
  8
0-3
  6
CONTINUOUS
 62
    3
 10
2393.2103
 20
4387.5239
 11
2383.1759
 21
4387.3829
  0
LINE
  8
0-3
  6
CONTINUOUS
 62
    3
 10
2253.8294
 20
4386.3199
 11
2264.6564
 21
4381.9372
  0
LINE
  8
0-3
  6
CONTINUOUS
 62
    3
 10
2264.6564
 20
4381.9372
 11
2275.546
 21
4377.6055
  0
LINE
  8
0-3
  6
CONTINUOUS
 62
    3
 10
2275.546
 20
4377.6055
 11
2286.5383
 21
4373.6138
  0
LINE
  8
0-3
  6
CONTINUOUS
 62
    3
 10
2286.5383
 20
4373.6138
 11
2297.6354
 21
4370.2853
  0
LINE
  8
0-3
  6
CONTINUOUS
 62
    3
 10
2297.6354
 20
4370.2853
 11
2308.8687
 21
4367.9376
  0
LINE
  8
0-3
  6
CONTINUOUS
 62
    3
 10
2308.8687
 20
4367.9376
 11
2320.2613
 21
4366.887
  0
LINE
  8
0-3
  6
CONTINUOUS
 62
    3
 10
2320.2613
 20
4366.887
 11
2331.7873
 21
4367.0508
  0
LINE
  8
0-3
  6
CONTINUOUS
 62
    3
 10
2331.7873
 20
4367.0508
 11
2343.397
 21
4367.9074
  0
LINE
  8
0-3
  6
CONTINUOUS
 62
    3
 10
2343.397
 20
4367.9074
 11
2345.5782
 21
4368.0999
  0
LINE
  8
0-3
  6
CONTINUOUS
 62
    3
 10
2343.397
 20
4367.9074
 11
2352.89
 21
4370.0245
  0
LINE
  8
0-3
  6
CONTINUOUS
 62
    3
 10
2352.89
 20
4370.0245
 11
2362.002
 21
4372.9537
  0
LINE
  8
0-3
  6
CONTINUOUS
 62
    3
 10
2362.002
 20
4372.9537
 11
2370.3622
 21
4377.5155
  0
LINE
  8
0-3
  6
CONTINUOUS
 62
    3
 10
2370.3622
 20
4377.5155
 11
2377.4887
 21
4384.0588
  0
LINE
  8
0-3
  6
CONTINUOUS
 62
    3
 10
2377.4887
 20
4384.0588
 11
2382.7733
 21
4392.2629
  0
LINE
  8
0-3
  6
CONTINUOUS
 62
    3
 10
2382.7733
 20
4392.2629
 11
2385.652
 21
4401.6428
  0
LINE
  8
0-3
  6
CONTINUOUS
 62
    3
 10
2385.652
 20
4401.6428
 11
2385.8638
 21
4411.3445
  0
LINE
  8
0-3
  6
CONTINUOUS
 62
    3
 10
2385.8638
 20
4411.3445
 11
2383.2966
 21
4420.4329
  0
LINE
  8
0-3
  6
CONTINUOUS
 62
    3
 10
2383.2966
 20
4420.4329
 11
2378.499
 21
4428.7014
  0
LINE
  8
0-3
  6
CONTINUOUS
 62
    3
 10
2378.499
 20
4428.7014
 11
2372.5731
 21
4436.5507
  0
LINE
  8
0-3
  6
CONTINUOUS
 62
    3
 10
2150.1408
 20
4531.4894
 11
2161.8085
 21
4529.5024
  0
LINE
  8
0-3
  6
CONTINUOUS
 62
    3
 10
2161.8085
 20
4529.5024
 11
2173.437
 21
4527.8515
  0
LINE
  8
0-3
  6
CONTINUOUS
 62
    3
 10
2173.437
 20
4527.8515
 11
2184.981
 21
4526.8717
  0
LINE
  8
0-3
  6
CONTINUOUS
 62
    3
 10
2184.981
 20
4526.8717
 11
2196.3999
 21
4526.8885
  0
LINE
  8
0-3
  6
CONTINUOUS
 62
    3
 10
2196.3999
 20
4526.8885
 11
2207.652
 21
4528.2321
  0
LINE
  8
0-3
  6
CONTINUOUS
 62
    3
 10
2207.652
 20
4528.2321
 11
2218.738
 21
4530.9608
  0
LINE
  8
0-3
  6
CONTINUOUS
 62
    3
 10
2218.738
 20
4530.9608
 11
2229.6833
 21
4534.7066
  0
LINE
  8
0-3
  6
CONTINUOUS
 62
    3
 10
2229.6833
 20
4534.7066
 11
2240.5392
 21
4539.0996
  0
LINE
  8
0-3
  6
CONTINUOUS
 62
    3
 10
2240.5392
 20
4539.0996
 11
2251.3286
 21
4543.7416
  0
LINE
  8
0-3
  6
CONTINUOUS
 62
    3
 10
2251.3286
 20
4543.7416
 11
2262.1056
 21
4548.2999
  0
LINE
  8
0-3
  6
CONTINUOUS
 62
    3
 10
2262.1056
 20
4548.2999
 11
2272.8714
 21
4552.687
  0
LINE
  8
0-3
  6
CONTINUOUS
 62
    3
 10
2272.8714
 20
4552.687
 11
2283.6365
 21
4556.943
  0
LINE
  8
0-3
  6
CONTINUOUS
 62
    3
 10
2283.6365
 20
4556.943
 11
2294.389
 21
4561.0926
  0
LINE
  8
0-3
  6
CONTINUOUS
 62
    3
 10
2294.389
 20
4561.0926
 11
2305.1423
 21
4565.1654
  0
LINE
  8
0-3
  6
CONTINUOUS
 62
    3
 10
2305.1423
 20
4565.1654
 11
2315.8985
 21
4569.2022
  0
LINE
  8
0-3
  6
CONTINUOUS
 62
    3
 10
2315.8985
 20
4569.2022
 11
2315.7485
 21
4559.2962
  0
LINE
  8
0-3
  6
CONTINUOUS
 62
    3
 10
2315.7485
 20
4559.2962
 11
2315.606
 21
4549.4015
  0
LINE
  8
0-3
  6
CONTINUOUS
 62
    3
 10
2315.606
 20
4549.4015
 11
2315.4635
 21
4539.4945
  0
LINE
  8
0-3
  6
CONTINUOUS
 62
    3
 10
2315.4635
 20
4539.4945
 11
2315.3138
 21
4529.5984
  0
LINE
  8
0-3
  6
CONTINUOUS
 62
    3
 10
2315.3138
 20
4529.5984
 11
2315.1732
 21
4519.7028
  0
LINE
  8
0-3
  6
CONTINUOUS
 62
    3
 10
2315.1732
 20
4519.7028
 11
2315.0292
 21
4509.7958
  0
LINE
  8
0-3
  6
CONTINUOUS
 62
    3
 10
2315.0292
 20
4509.7958
 11
2314.88
 21
4499.9012
  0
LINE
  8
0-3
  6
CONTINUOUS
 62
    3
 10
2314.88
 20
4499.9012
 11
2314.7382
 21
4489.9957
  0
LINE
  8
0-3
  6
CONTINUOUS
 62
    3
 10
2314.7382
 20
4489.9957
 11
2314.5905
 21
4480.0971
  0
LINE
  8
0-3
  6
CONTINUOUS
 62
    3
 10
2314.5905
 20
4480.0971
 11
2314.4465
 21
4470.1946
  0
LINE
  8
0-3
  6
CONTINUOUS
 62
    3
 10
2372.5731
 20
4436.5507
 11
2370.2066
 21
4438.6361
  0
LINE
  8
0-3
  6
CONTINUOUS
 62
    3
 10
2370.2066
 20
4438.6361
 11
2366.804
 21
4441.1605
  0
LINE
  8
0-3
  6
CONTINUOUS
 62
    3
 10
2366.804
 20
4441.1605
 11
2362.502
 21
4444.0466
  0
LINE
  8
0-3
  6
CONTINUOUS
 62
    3
 10
2362.502
 20
4444.0466
 11
2357.4162
 21
4447.2272
  0
LINE
  8
0-3
  6
CONTINUOUS
 62
    3
 10
2357.4162
 20
4447.2272
 11
2351.6174
 21
4450.6374
  0
LINE
  8
0-3
  6
CONTINUOUS
 62
    3
 10
2351.6174
 20
4450.6374
 11
2345.2097
 21
4454.2347
  0
LINE
  8
0-3
  6
CONTINUOUS
 62
    3
 10
2345.2097
 20
4454.2347
 11
2338.2557
 21
4457.9735
  0
LINE
  8
0-3
  6
CONTINUOUS
 62
    3
 10
2338.2557
 20
4457.9735
 11
2330.806
 21
4461.8128
  0
LINE
  8
0-3
  6
CONTINUOUS
 62
    3
 10
2330.806
 20
4461.8128
 11
2322.929
 21
4465.7238
  0
LINE
  8
0-3
  6
CONTINUOUS
 62
    3
 10
2322.929
 20
4465.7238
 11
2314.6672
 21
4469.6779
  0
LINE
  8
0-3
  6
CONTINUOUS
 62
    3
 10
2314.6672
 20
4469.6779
 11
2306.0516
 21
4473.6488
  0
LINE
  8
0-3
  6
CONTINUOUS
 62
    3
 10
2306.0516
 20
4473.6488
 11
2297.1356
 21
4477.6242
  0
LINE
  8
0-3
  6
CONTINUOUS
 62
    3
 10
2297.1356
 20
4477.6242
 11
2287.9442
 21
4481.5793
  0
LINE
  8
0-3
  6
CONTINUOUS
 62
    3
 10
2287.9442
 20
4481.5793
 11
2278.5234
 21
4485.5022
  0
LINE
  8
0-3
  6
CONTINUOUS
 62
    3
 10
2278.5234
 20
4485.5022
 11
2268.8988
 21
4489.385
  0
LINE
  8
0-3
  6
CONTINUOUS
 62
    3
 10
2268.8988
 20
4489.385
 11
2259.1088
 21
4493.2075
  0
LINE
  8
0-3
  6
CONTINUOUS
 62
    3
 10
2259.1088
 20
4493.2075
 11
2249.188
 21
4496.9685
  0
LINE
  8
0-3
  6
CONTINUOUS
 62
    3
 10
2249.188
 20
4496.9685
 11
2239.1768
 21
4500.6564
  0
LINE
  8
0-3
  6
CONTINUOUS
 62
    3
 10
2239.1768
 20
4500.6564
 11
2229.1184
 21
4504.271
  0
LINE
  8
0-3
  6
CONTINUOUS
 62
    3
 10
2229.1184
 20
4504.271
 11
2219.0491
 21
4507.7881
  0
LINE
  8
0-3
  6
CONTINUOUS
 62
    3
 10
2219.0491
 20
4507.7881
 11
2209.0097
 21
4511.2107
  0
LINE
  8
0-3
  6
CONTINUOUS
 62
    3
 10
2209.0097
 20
4511.2107
 11
2199.05
 21
4514.5373
  0
LINE
  8
0-3
  6
CONTINUOUS
 62
    3
 10
2199.05
 20
4514.5373
 11
2189.2246
 21
4517.7456
  0
LINE
  8
0-3
  6
CONTINUOUS
 62
    3
 10
2189.2246
 20
4517.7456
 11
2179.5698
 21
4520.8366
  0
LINE
  8
0-3
  6
CONTINUOUS
 62
    3
 10
2179.5698
 20
4520.8366
 11
2170.1493
 21
4523.7975
  0
LINE
  8
0-3
  6
CONTINUOUS
 62
    3
 10
2170.1493
 20
4523.7975
 11
2161.0113
 21
4526.6138
  0
LINE
  8
0-3
  6
CONTINUOUS
 62
    3
 10
2161.0113
 20
4526.6138
 11
2152.2076
 21
4529.2773
  0
LINE
  8
0-3
  6
CONTINUOUS
 62
    3
 10
2152.2076
 20
4529.2773
 11
2143.7845
 21
4531.7759
  0
LINE
  8
0-3
  6
CONTINUOUS
 62
    3
 10
2143.7845
 20
4531.7759
 11
2135.7977
 21
4534.0919
  0
LINE
  8
0-3
  6
CONTINUOUS
 62
    3
 10
2315.8985
 20
4569.2022
 11
2316.0351
 21
4569.2497
  0
LINE
  8
0-3
  6
CONTINUOUS
 62
    3
 10
2185.6147
 20
4335.0014
 11
2185.6147
 21
4301.7177
  0
LINE
  8
0-3
  6
CONTINUOUS
 62
    3
 10
2185.6147
 20
4301.7177
 11
2286.755
 21
4301.7177
  0
LINE
  8
0-3
  6
CONTINUOUS
 62
    3
 10
2286.755
 20
4335.0014
 11
2286.755
 21
4301.7177
  0
LINE
  8
0-3
  6
CONTINUOUS
 62
    3
 10
2185.6147
 20
4335.0014
 11
2286.755
 21
4335.0014
  0
LINE
  8
0-3
  6
CONTINUOUS
 62
    3
 10
2126.4697
 20
4595.8084
 11
2126.4697
 21
4521.2226
  0
LINE
  8
0-3
  6
CONTINUOUS
 62
    3
 10
2137.3402
 20
4573.4448
 11
2136.2119
 21
4572.8069
  0
LINE
  8
0-3
  6
CONTINUOUS
 62
    3
 10
2136.2119
 20
4572.8069
 11
2135.0568
 21
4572.1373
  0
LINE
  8
0-3
  6
CONTINUOUS
 62
    3
 10
2135.0568
 20
4572.1373
 11
2133.8877
 21
4571.4346
  0
LINE
  8
0-3
  6
CONTINUOUS
 62
    3
 10
2133.8877
 20
4571.4346
 11
2132.6933
 21
4570.6982
  0
LINE
  8
0-3
  6
CONTINUOUS
 62
    3
 10
2132.6933
 20
4570.6982
 11
2131.4754
 21
4569.939
  0
LINE
  8
0-3
  6
CONTINUOUS
 62
    3
 10
2131.4754
 20
4569.939
 11
2130.2362
 21
4569.1408
  0
LINE
  8
0-3
  6
CONTINUOUS
 62
    3
 10
2130.2362
 20
4569.1408
 11
2128.9767
 21
4568.3153
  0
LINE
  8
0-3
  6
CONTINUOUS
 62
    3
 10
2128.9767
 20
4568.3153
 11
2127.6925
 21
4567.4528
  0
LINE
  8
0-3
  6
CONTINUOUS
 62
    3
 10
2127.6925
 20
4567.4528
 11
2126.3903
 21
4566.5659
  0
LINE
  8
0-3
  6
CONTINUOUS
 62
    3
 10
2133.4824
 20
4546.4526
 11
2132.6458
 21
4546.2912
  0
LINE
  8
0-3
  6
CONTINUOUS
 62
    3
 10
2132.6458
 20
4546.2912
 11
2131.8203
 21
4546.1428
  0
LINE
  8
0-3
  6
CONTINUOUS
 62
    3
 10
2131.8203
 20
4546.1428
 11
2131.01
 21
4545.9948
  0
LINE
  8
0-3
  6
CONTINUOUS
 62
    3
 10
2131.01
 20
4545.9948
 11
2130.208
 21
4545.8503
  0
LINE
  8
0-3
  6
CONTINUOUS
 62
    3
 10
2130.208
 20
4545.8503
 11
2129.4226
 21
4545.7137
  0
LINE
  8
0-3
  6
CONTINUOUS
 62
    3
 10
2129.4226
 20
4545.7137
 11
2128.6447
 21
4545.5845
  0
LINE
  8
0-3
  6
CONTINUOUS
 62
    3
 10
2128.6447
 20
4545.5845
 11
2127.8816
 21
4545.4643
  0
LINE
  8
0-3
  6
CONTINUOUS
 62
    3
 10
2127.8816
 20
4545.4643
 11
2127.1274
 21
4545.3455
  0
LINE
  8
0-3
  6
CONTINUOUS
 62
    3
 10
2127.1274
 20
4545.3455
 11
2126.3903
 21
4545.2312
  0
LINE
  8
0-3
  6
CONTINUOUS
 62
    3
 10
2150.1408
 20
4531.4894
 11
2146.9602
 21
4532.1629
  0
LINE
  8
0-3
  6
CONTINUOUS
 62
    3
 10
2146.9602
 20
4532.1629
 11
2143.909
 21
4532.8137
  0
LINE
  8
0-3
  6
CONTINUOUS
 62
    3
 10
2143.909
 20
4532.8137
 11
2140.9969
 21
4533.4461
  0
LINE
  8
0-3
  6
CONTINUOUS
 62
    3
 10
2140.9969
 20
4533.4461
 11
2138.2221
 21
4534.0568
  0
LINE
  8
0-3
  6
CONTINUOUS
 62
    3
 10
2138.2221
 20
4534.0568
 11
2135.5812
 21
4534.6452
  0
LINE
  8
0-3
  6
CONTINUOUS
 62
    3
 10
2135.5812
 20
4534.6452
 11
2133.08
 21
4535.2173
  0
LINE
  8
0-3
  6
CONTINUOUS
 62
    3
 10
2133.08
 20
4535.2173
 11
2130.7128
 21
4535.7636
  0
LINE
  8
0-3
  6
CONTINUOUS
 62
    3
 10
2130.7128
 20
4535.7636
 11
2128.4836
 21
4536.2922
  0
LINE
  8
0-3
  6
CONTINUOUS
 62
    3
 10
2128.4836
 20
4536.2922
 11
2126.3903
 21
4536.797
  0
LINE
  8
0-3
  6
CONTINUOUS
 62
    3
 10
2135.7977
 20
4534.0919
 11
2134.5531
 21
4534.4319
  0
LINE
  8
0-3
  6
CONTINUOUS
 62
    3
 10
2134.5531
 20
4534.4319
 11
2133.3587
 21
4534.7571
  0
LINE
  8
0-3
  6
CONTINUOUS
 62
    3
 10
2133.3587
 20
4534.7571
 11
2132.217
 21
4535.0797
  0
LINE
  8
0-3
  6
CONTINUOUS
 62
    3
 10
2132.217
 20
4535.0797
 11
2131.128
 21
4535.3895
  0
LINE
  8
0-3
  6
CONTINUOUS
 62
    3
 10
2131.128
 20
4535.3895
 11
2130.0944
 21
4535.6864
  0
LINE
  8
0-3
  6
CONTINUOUS
 62
    3
 10
2130.0944
 20
4535.6864
 11
2129.1079
 21
4535.9705
  0
LINE
  8
0-3
  6
CONTINUOUS
 62
    3
 10
2129.1079
 20
4535.9705
 11
2128.1748
 21
4536.2486
  0
LINE
  8
0-3
  6
CONTINUOUS
 62
    3
 10
2128.1748
 20
4536.2486
 11
2127.2961
 21
4536.5178
  0
LINE
  8
0-3
  6
CONTINUOUS
 62
    3
 10
2127.2961
 20
4536.5178
 11
2126.4697
 21
4536.7806
  0
LINE
  8
0-3
  6
CONTINUOUS
 62
    3
 10
2116.2806
 20
4606.0019
 11
2100.0023
 21
4606.0019
  0
LINE
  8
0-3
  6
CONTINUOUS
 62
    3
 10
2116.2806
 20
4449.3992
 11
2100.0023
 21
4449.3992
  0
LINE
  8
0-3
  6
CONTINUOUS
 62
    3
 10
2108.5056
 20
4502.4968
 11
2114.4092
 21
4495.8323
  0
LINE
  8
0-3
  6
CONTINUOUS
 62
    3
 10
2114.4092
 20
4495.8323
 11
2120.8986
 21
4488.9079
  0
LINE
  8
0-3
  6
CONTINUOUS
 62
    3
 10
2120.8986
 20
4488.9079
 11
2127.8779
 21
4481.8069
  0
LINE
  8
0-3
  6
CONTINUOUS
 62
    3
 10
2127.8779
 20
4481.8069
 11
2135.258
 21
4474.6005
  0
LINE
  8
0-3
  6
CONTINUOUS
 62
    3
 10
2135.258
 20
4474.6005
 11
2142.9551
 21
4467.3584
  0
LINE
  8
0-3
  6
CONTINUOUS
 62
    3
 10
2142.9551
 20
4467.3584
 11
2150.8898
 21
4460.1441
  0
LINE
  8
0-3
  6
CONTINUOUS
 62
    3
 10
2150.8898
 20
4460.1441
 11
2158.9902
 21
4453.0148
  0
LINE
  8
0-3
  6
CONTINUOUS
 62
    3
 10
2158.9902
 20
4453.0148
 11
2167.1874
 21
4446.0227
  0
LINE
  8
0-3
  6
CONTINUOUS
 62
    3
 10
2167.1874
 20
4446.0227
 11
2175.4192
 21
4439.2156
  0
LINE
  8
0-3
  6
CONTINUOUS
 62
    3
 10
2175.4192
 20
4439.2156
 11
2183.629
 21
4432.6342
  0
LINE
  8
0-3
  6
CONTINUOUS
 62
    3
 10
2183.629
 20
4432.6342
 11
2191.7644
 21
4426.3175
  0
LINE
  8
0-3
  6
CONTINUOUS
 62
    3
 10
2191.7644
 20
4426.3175
 11
2199.7807
 21
4420.2929
  0
LINE
  8
0-3
  6
CONTINUOUS
 62
    3
 10
2199.7807
 20
4420.2929
 11
2207.6364
 21
4414.5889
  0
LINE
  8
0-3
  6
CONTINUOUS
 62
    3
 10
2207.6364
 20
4414.5889
 11
2215.2959
 21
4409.2229
  0
LINE
  8
0-3
  6
CONTINUOUS
 62
    3
 10
2215.2959
 20
4409.2229
 11
2222.73
 21
4404.2108
  0
LINE
  8
0-3
  6
CONTINUOUS
 62
    3
 10
2222.73
 20
4404.2108
 11
2229.9134
 21
4399.5624
  0
LINE
  8
0-3
  6
CONTINUOUS
 62
    3
 10
2229.9134
 20
4399.5624
 11
2236.8274
 21
4395.2802
  0
LINE
  8
0-3
  6
CONTINUOUS
 62
    3
 10
2236.8274
 20
4395.2802
 11
2243.4587
 21
4391.3647
  0
LINE
  8
0-3
  6
CONTINUOUS
 62
    3
 10
2243.4587
 20
4391.3647
 11
2249.7994
 21
4387.808
  0
LINE
  8
0-3
  6
CONTINUOUS
 62
    3
 10
2249.7994
 20
4387.808
 11
2250.2656
 21
4387.6041
  0
LINE
  8
0-3
  6
CONTINUOUS
 62
    3
 10
2250.2656
 20
4387.6041
 11
2250.7273
 21
4387.4096
  0
LINE
  8
0-3
  6
CONTINUOUS
 62
    3
 10
2250.7273
 20
4387.4096
 11
2251.1853
 21
4387.225
  0
LINE
  8
0-3
  6
CONTINUOUS
 62
    3
 10
2251.1853
 20
4387.225
 11
2251.6376
 21
4387.0498
  0
LINE
  8
0-3
  6
CONTINUOUS
 62
    3
 10
2251.6376
 20
4387.0498
 11
2252.0857
 21
4386.885
  0
LINE
  8
0-3
  6
CONTINUOUS
 62
    3
 10
2252.0857
 20
4386.885
 11
2252.5284
 21
4386.7292
  0
LINE
  8
0-3
  6
CONTINUOUS
 62
    3
 10
2252.5284
 20
4386.7292
 11
2252.9671
 21
4386.5827
  0
LINE
  8
0-3
  6
CONTINUOUS
 62
    3
 10
2252.9671
 20
4386.5827
 11
2253.4006
 21
4386.4471
  0
LINE
  8
0-3
  6
CONTINUOUS
 62
    3
 10
2253.4006
 20
4386.4471
 11
2253.8294
 21
4386.3199
  0
LINE
  8
0-3
  6
CONTINUOUS
 62
    3
 10
2108.5056
 20
4502.4968
 11
2111.9954
 21
4504.2299
  0
LINE
  8
0-3
  6
CONTINUOUS
 62
    3
 10
2111.9954
 20
4504.2299
 11
2115.1117
 21
4506.0511
  0
LINE
  8
0-3
  6
CONTINUOUS
 62
    3
 10
2115.1117
 20
4506.0511
 11
2117.8551
 21
4507.9578
  0
LINE
  8
0-3
  6
CONTINUOUS
 62
    3
 10
2117.8551
 20
4507.9578
 11
2120.2246
 21
4509.9517
  0
LINE
  8
0-3
  6
CONTINUOUS
 62
    3
 10
2120.2246
 20
4509.9517
 11
2122.2209
 21
4512.0327
  0
LINE
  8
0-3
  6
CONTINUOUS
 62
    3
 10
2122.2209
 20
4512.0327
 11
2123.8434
 21
4514.1993
  0
LINE
  8
0-3
  6
CONTINUOUS
 62
    3
 10
2123.8434
 20
4514.1993
 11
2125.0922
 21
4516.4544
  0
LINE
  8
0-3
  6
CONTINUOUS
 62
    3
 10
2125.0922
 20
4516.4544
 11
2125.9679
 21
4518.7947
  0
LINE
  8
0-3
  6
CONTINUOUS
 62
    3
 10
2125.9679
 20
4518.7947
 11
2126.4697
 21
4521.2226
  0
LINE
  8
0-3
  6
CONTINUOUS
 62
    3
 10
2126.4727
 20
4459.5937
 11
2126.4727
 21
4483.2371
  0
LINE
  8
0-3
  6
CONTINUOUS
 62
    3
 10
2258.8433
 20
4547.568
 11
2238.773
 21
4591.8048
  0
LINE
  8
0-3
  6
CONTINUOUS
 62
    3
 10
2219.4254
 20
4255.6232
 11
2100.0023
 21
4255.6232
  0
LINE
  8
0-3
  6
CONTINUOUS
 62
    3
 10
2239.3884
 20
4275.5861
 11
2239.3884
 21
4301.7177
  0
LINE
  8
0-3
  6
CONTINUOUS
 62
    3
 10
2209.4442
 20
4237.6734
 11
2100.0023
 21
4237.6734
  0
LINE
  8
0-3
  6
CONTINUOUS
 62
    3
 10
2219.4254
 20
4247.6551
 11
2219.4254
 21
4255.6232
  0
LINE
  8
0-2
  6
CONTINUOUS
 62
    3
 10
2632.5151
 20
4691.6305
 11
2100.0149
 21
4691.6305
  0
LINE
  8
0-2
  6
CONTINUOUS
 62
    3
 10
2100.0149
 20
4714.2366
 11
2632.5148
 21
4714.2366
  0
LINE
  8
0-2
  6
CONTINUOUS
 62
    3
 10
1300.0001
 20
4864.2371
 11
2100.0001
 21
4864.2371
  0
LINE
  8
0-2
  6
CONTINUOUS
 62
    3
 10
2632.5
 20
4484.2363
 11
2900
 21
4484.2363
  0
LINE
  8
0-2
  6
CONTINUOUS
 62
    3
 10
2632.5
 20
4529.7375
 11
2900
 21
4529.7375
  0
LINE
  8
0-2
  6
CONTINUOUS
 62
    3
 10
2632.5
 20
4549.2367
 11
2900
 21
4549.2367
  0
LINE
  8
0-2
  6
CONTINUOUS
 62
    3
 10
2632.5
 20
4607.7375
 11
2900
 21
4607.7375
  0
LINE
  8
0-2
  6
CONTINUOUS
 62
    3
 10
2632.5
 20
4627.2367
 11
2900
 21
4627.2367
  0
LINE
  8
0-2
  6
CONTINUOUS
 62
    3
 10
1300.0001
 20
4484.2363
 11
2100.0001
 21
4484.2363
  0
LINE
  8
0-2
  6
CONTINUOUS
 62
    3
 10
1300.0001
 20
4529.7375
 11
2100.0001
 21
4529.7375
  0
LINE
  8
0-2
  6
CONTINUOUS
 62
    3
 10
1300.0001
 20
4549.2367
 11
2100.0001
 21
4549.2367
  0
LINE
  8
0-2
  6
CONTINUOUS
 62
    3
 10
1300.0001
 20
4607.7375
 11
2100.0001
 21
4607.7375
  0
LINE
  8
0-2
  6
CONTINUOUS
 62
    3
 10
1300.0001
 20
4627.2367
 11
2100.0001
 21
4627.2367
  0
LINE
  8
0-3
  6
CONTINUOUS
 62
    3
 10
2194.9838
 20
4423.8976
 11
2100.0023
 21
4423.8976
  0
LINE
  8
0-3
  6
CONTINUOUS
 62
    3
 10
2239.3884
 20
4335.0014
 11
2239.3884
 21
4393.7683
  0
LINE
  8
0-8
  6
CONTINUOUS
 62
    7
 10
3238.3188
 20
4484.2363
 11
3238.3188
 21
4864.2371
  0
LINE
  8
0-8
  6
CONTINUOUS
 62
    7
 10
3238.3188
 20
4864.2371
 11
3238.3188
 21
5049.2369
  0
LINE
  8
0-8
  6
CONTINUOUS
 62
    7
 10
2855.5084
 20
5049.2369
 11
3238.3188
 21
5049.2369
  0
LINE
  8
0-8
  6
CONTINUOUS
 62
    7
 10
1567.4999
 20
3992.4202
 11
2632.5
 21
3992.4202
  0
LINE
  8
0-8
  6
CONTINUOUS
 62
    7
 10
1013.2749
 20
4174.2362
 11
1013.2749
 21
5049.2369
  0
LINE
  8
0-8
  6
CONTINUOUS
 62
    7
 10
1313.8967
 20
4174.2362
 11
1013.2749
 21
4174.2362
  0
LINE
  8
0-8
  6
CONTINUOUS
 62
    7
 10
2949.2767
 20
4864.2371
 11
3238.3188
 21
4864.2371
  0
LINE
  8
0-8
  6
CONTINUOUS
 62
    7
 10
2949.2762
 20
4484.2363
 11
3238.3188
 21
4484.2363
  0
LINE
  8
0-2
  6
CONTINUOUS
 62
    3
 10
2632.5151
 20
4691.6309
 11
2632.5151
 21
4714.2366
  0
LINE
  8
0-8
  6
CONTINUOUS
 62
    7
 10
2714.5228
 20
4714.2366
 11
2844.2088
 21
4714.2366
  0
LINE
  8
0-2
  6
CONTINUOUS
 62
    3
 10
2253.6958
 20
4864.2371
 11
2900
 21
4864.2371
  0
LINE
  8
0-2
  6
CONTINUOUS
 62
    3
 10
1567.4999
 20
4174.2362
 11
2632.5
 21
4174.2362
  0
LINE
  8
0-8
  6
CONTINUOUS
 62
    7
 10
2714.5228
 20
4174.2372
 11
2844.2088
 21
4174.2372
  0
LINE
  8
0-8
  6
CONTINUOUS
 62
    7
 10
3238.3188
 20
4174.2362
 11
3238.3188
 21
4484.2363
  0
LINE
  8
0-8
  6
CONTINUOUS
 62
    7
 10
2844.2088
 20
4174.2362
 11
3238.3188
 21
4174.2362
  0
LINE
  8
0-8
  6
CONTINUOUS
 62
    7
 10
2844.2088
 20
4174.2372
 11
2844.2088
 21
4714.2366
  0
LINE
  8
0-2
  6
CONTINUOUS
 62
    3
 10
2232.7218
 20
4673.6896
 11
2100.0149
 21
4673.6896
  0
LINE
  8
0-2
  6
CONTINUOUS
 62
    3
 10
2632.5151
 20
4673.6896
 11
2501.4093
 21
4673.6896
  0
LINE
  8
0-2
  6
CONTINUOUS
 62
    3
 10
1567.4999
 20
4292.2363
 11
2100.0001
 21
4292.2363
  0
LINE
  8
0-2
  6
CONTINUOUS
 62
    3
 10
1567.4999
 20
4272.7361
 11
2100.0001
 21
4272.7361
  0
LINE
  8
0-2
  6
CONTINUOUS
 62
    3
 10
2239.1842
 20
4272.7361
 11
2632.5
 21
4272.7361
  0
LINE
  8
0-2
  6
CONTINUOUS
 62
    3
 10
1567.4999
 20
4204.2363
 11
2632.5
 21
4204.2363
  0
LINE
  8
0-2
  6
CONTINUOUS
 62
    3
 10
1567.4999
 20
4204.2368
 11
2100.0001
 21
4204.2368
  0
LINE
  8
0-2
  6
CONTINUOUS
 62
    3
 10
1567.4999
 20
4223.7371
 11
2632.5
 21
4223.7371
  0
LINE
  8
0-2
  6
CONTINUOUS
 62
    3
 10
1567.4999
 20
4484.2373
 11
1567.4999
 21
4292.2363
  0
LINE
  8
0-2
  6
CONTINUOUS
 62
    3
 10
2239.3884
 20
4292.2363
 11
2632.5
 21
4292.2363
  0
LINE
  8
0-2
  6
CONTINUOUS
 62
    3
 10
1567.4999
 20
4272.7361
 11
1567.4999
 21
4223.7371
  0
LINE
  8
0-2
  6
CONTINUOUS
 62
    3
 10
1567.4999
 20
4204.2368
 11
1567.4999
 21
4174.2362
  0
LINE
  8
0-2
  6
CONTINUOUS
 62
    3
 10
2632.5
 20
4673.6896
 11
2632.5
 21
4292.2363
  0
LINE
  8
0-2
  6
CONTINUOUS
 62
    3
 10
2632.5
 20
4272.7361
 11
2632.5
 21
4223.7371
  0
LINE
  8
0-2
  6
CONTINUOUS
 62
    3
 10
2632.5
 20
4204.2363
 11
2632.5
 21
4174.2362
  0
LINE
  8
0-3
  6
CONTINUOUS
 62
    2
 10
2583.6554
 20
4937.0561
 11
2100.0149
 21
4714.2366
  0
LINE
  8
0-2
  6
CONTINUOUS
 62
    3
 10
2100.0001
 20
5049.2369
 11
1271.8744
 21
4857.7329
  0
LINE
  8
0-2
  6
CONTINUOUS
 62
    3
 10
2100.0001
 20
5049.2369
 11
2928.1258
 21
4857.7329
  0
LINE
  8
0-1
  6
CENTER2
 62
    7
 10
2100.0001
 20
4076.2639
 11
2100.0001
 21
5049.2369
  0
LINE
  8
0-2
  6
CONTINUOUS
 62
    3
 10
2438.5307
 20
4970.9514
 11
2100.0001
 21
4775.5002
  0
LINE
  8
0-2
  6
CONTINUOUS
 62
    3
 10
2438.5307
 20
4970.9514
 11
2100.0001
 21
4970.9514
  0
LINE
  8
0-2
  6
CONTINUOUS
 62
    3
 10
2900
 20
4607.7372
 11
2901.6135
 21
4607.8853
  0
LINE
  8
0-2
  6
CONTINUOUS
 62
    3
 10
2901.6135
 20
4607.8853
 11
2903.1779
 21
4608.3252
  0
LINE
  8
0-2
  6
CONTINUOUS
 62
    3
 10
2903.1779
 20
4608.3252
 11
2904.6458
 21
4609.0434
  0
LINE
  8
0-2
  6
CONTINUOUS
 62
    3
 10
2904.6458
 20
4609.0434
 11
2905.9726
 21
4610.0182
  0
LINE
  8
0-2
  6
CONTINUOUS
 62
    3
 10
2905.9726
 20
4610.0182
 11
2907.1178
 21
4611.22
  0
LINE
  8
0-2
  6
CONTINUOUS
 62
    3
 10
2907.1178
 20
4611.22
 11
2908.0468
 21
4612.6121
  0
LINE
  8
0-2
  6
CONTINUOUS
 62
    3
 10
2908.0468
 20
4612.6121
 11
2908.7313
 21
4614.1524
  0
LINE
  8
0-2
  6
CONTINUOUS
 62
    3
 10
2908.7313
 20
4614.1524
 11
2909.1505
 21
4615.794
  0
LINE
  8
0-2
  6
CONTINUOUS
 62
    3
 10
2909.1505
 20
4615.794
 11
2909.2917
 21
4617.4871
  0
LINE
  8
0-2
  6
CONTINUOUS
 62
    3
 10
2909.2917
 20
4617.4871
 11
2909.1505
 21
4619.1801
  0
LINE
  8
0-2
  6
CONTINUOUS
 62
    3
 10
2909.1505
 20
4619.1801
 11
2908.7313
 21
4620.8217
  0
LINE
  8
0-2
  6
CONTINUOUS
 62
    3
 10
2908.7313
 20
4620.8217
 11
2908.0468
 21
4622.362
  0
LINE
  8
0-2
  6
CONTINUOUS
 62
    3
 10
2908.0468
 20
4622.362
 11
2907.1178
 21
4623.7542
  0
LINE
  8
0-2
  6
CONTINUOUS
 62
    3
 10
2907.1178
 20
4623.7542
 11
2905.9726
 21
4624.9559
  0
LINE
  8
0-2
  6
CONTINUOUS
 62
    3
 10
2905.9726
 20
4624.9559
 11
2904.6458
 21
4625.9307
  0
LINE
  8
0-2
  6
CONTINUOUS
 62
    3
 10
2904.6458
 20
4625.9307
 11
2903.1779
 21
4626.649
  0
LINE
  8
0-2
  6
CONTINUOUS
 62
    3
 10
2903.1779
 20
4626.649
 11
2901.6135
 21
4627.0889
  0
LINE
  8
0-2
  6
CONTINUOUS
 62
    3
 10
2901.6135
 20
4627.0889
 11
2900
 21
4627.237
  0
LINE
  8
0-2
  6
CONTINUOUS
 62
    3
 10
2900
 20
4529.7372
 11
2901.6135
 21
4529.8853
  0
LINE
  8
0-2
  6
CONTINUOUS
 62
    3
 10
2901.6135
 20
4529.8853
 11
2903.1779
 21
4530.3252
  0
LINE
  8
0-2
  6
CONTINUOUS
 62
    3
 10
2903.1779
 20
4530.3252
 11
2904.6458
 21
4531.0435
  0
LINE
  8
0-2
  6
CONTINUOUS
 62
    3
 10
2904.6458
 20
4531.0435
 11
2905.9726
 21
4532.0183
  0
LINE
  8
0-2
  6
CONTINUOUS
 62
    3
 10
2905.9726
 20
4532.0183
 11
2907.1178
 21
4533.22
  0
LINE
  8
0-2
  6
CONTINUOUS
 62
    3
 10
2907.1178
 20
4533.22
 11
2908.0468
 21
4534.6122
  0
LINE
  8
0-2
  6
CONTINUOUS
 62
    3
 10
2908.0468
 20
4534.6122
 11
2908.7313
 21
4536.1525
  0
LINE
  8
0-2
  6
CONTINUOUS
 62
    3
 10
2908.7313
 20
4536.1525
 11
2909.1505
 21
4537.7941
  0
LINE
  8
0-2
  6
CONTINUOUS
 62
    3
 10
2909.1505
 20
4537.7941
 11
2909.2917
 21
4539.4871
  0
LINE
  8
0-2
  6
CONTINUOUS
 62
    3
 10
2909.2917
 20
4539.4871
 11
2909.1505
 21
4541.1802
  0
LINE
  8
0-2
  6
CONTINUOUS
 62
    3
 10
2909.1505
 20
4541.1802
 11
2908.7313
 21
4542.8218
  0
LINE
  8
0-2
  6
CONTINUOUS
 62
    3
 10
2908.7313
 20
4542.8218
 11
2908.0468
 21
4544.3621
  0
LINE
  8
0-2
  6
CONTINUOUS
 62
    3
 10
2908.0468
 20
4544.3621
 11
2907.1178
 21
4545.7542
  0
LINE
  8
0-2
  6
CONTINUOUS
 62
    3
 10
2907.1178
 20
4545.7542
 11
2905.9726
 21
4546.956
  0
LINE
  8
0-2
  6
CONTINUOUS
 62
    3
 10
2905.9726
 20
4546.956
 11
2904.6458
 21
4547.9308
  0
LINE
  8
0-2
  6
CONTINUOUS
 62
    3
 10
2904.6458
 20
4547.9308
 11
2903.1779
 21
4548.649
  0
LINE
  8
0-2
  6
CONTINUOUS
 62
    3
 10
2903.1779
 20
4548.649
 11
2901.6135
 21
4549.0889
  0
LINE
  8
0-2
  6
CONTINUOUS
 62
    3
 10
2901.6135
 20
4549.0889
 11
2900
 21
4549.237
  0
LINE
  8
0-2
  6
CONTINUOUS
 62
    3
 10
1300.0001
 20
4627.237
 11
1298.3866
 21
4627.0889
  0
LINE
  8
0-2
  6
CONTINUOUS
 62
    3
 10
1298.3866
 20
4627.0889
 11
1296.8222
 21
4626.649
  0
LINE
  8
0-2
  6
CONTINUOUS
 62
    3
 10
1296.8222
 20
4626.649
 11
1295.3543
 21
4625.9307
  0
LINE
  8
0-2
  6
CONTINUOUS
 62
    3
 10
1295.3543
 20
4625.9307
 11
1294.0275
 21
4624.9559
  0
LINE
  8
0-2
  6
CONTINUOUS
 62
    3
 10
1294.0275
 20
4624.9559
 11
1292.8823
 21
4623.7542
  0
LINE
  8
0-2
  6
CONTINUOUS
 62
    3
 10
1292.8823
 20
4623.7542
 11
1291.9533
 21
4622.362
  0
LINE
  8
0-2
  6
CONTINUOUS
 62
    3
 10
1291.9533
 20
4622.362
 11
1291.2688
 21
4620.8217
  0
LINE
  8
0-2
  6
CONTINUOUS
 62
    3
 10
1291.2688
 20
4620.8217
 11
1290.8496
 21
4619.1801
  0
LINE
  8
0-2
  6
CONTINUOUS
 62
    3
 10
1290.8496
 20
4619.1801
 11
1290.7084
 21
4617.4871
  0
LINE
  8
0-2
  6
CONTINUOUS
 62
    3
 10
1290.7084
 20
4617.4871
 11
1290.8496
 21
4615.794
  0
LINE
  8
0-2
  6
CONTINUOUS
 62
    3
 10
1290.8496
 20
4615.794
 11
1291.2688
 21
4614.1524
  0
LINE
  8
0-2
  6
CONTINUOUS
 62
    3
 10
1291.2688
 20
4614.1524
 11
1291.9533
 21
4612.6121
  0
LINE
  8
0-2
  6
CONTINUOUS
 62
    3
 10
1291.9533
 20
4612.6121
 11
1292.8823
 21
4611.22
  0
LINE
  8
0-2
  6
CONTINUOUS
 62
    3
 10
1292.8823
 20
4611.22
 11
1294.0275
 21
4610.0182
  0
LINE
  8
0-2
  6
CONTINUOUS
 62
    3
 10
1294.0275
 20
4610.0182
 11
1295.3543
 21
4609.0434
  0
LINE
  8
0-2
  6
CONTINUOUS
 62
    3
 10
1295.3543
 20
4609.0434
 11
1296.8222
 21
4608.3252
  0
LINE
  8
0-2
  6
CONTINUOUS
 62
    3
 10
1296.8222
 20
4608.3252
 11
1298.3866
 21
4607.8853
  0
LINE
  8
0-2
  6
CONTINUOUS
 62
    3
 10
1298.3866
 20
4607.8853
 11
1300.0001
 21
4607.7372
  0
LINE
  8
0-2
  6
CONTINUOUS
 62
    3
 10
1300.0001
 20
4549.237
 11
1298.3866
 21
4549.0889
  0
LINE
  8
0-2
  6
CONTINUOUS
 62
    3
 10
1298.3866
 20
4549.0889
 11
1296.8222
 21
4548.649
  0
LINE
  8
0-2
  6
CONTINUOUS
 62
    3
 10
1296.8222
 20
4548.649
 11
1295.3543
 21
4547.9308
  0
LINE
  8
0-2
  6
CONTINUOUS
 62
    3
 10
1295.3543
 20
4547.9308
 11
1294.0275
 21
4546.956
  0
LINE
  8
0-2
  6
CONTINUOUS
 62
    3
 10
1294.0275
 20
4546.956
 11
1292.8823
 21
4545.7542
  0
LINE
  8
0-2
  6
CONTINUOUS
 62
    3
 10
1292.8823
 20
4545.7542
 11
1291.9533
 21
4544.3621
  0
LINE
  8
0-2
  6
CONTINUOUS
 62
    3
 10
1291.9533
 20
4544.3621
 11
1291.2688
 21
4542.8218
  0
LINE
  8
0-2
  6
CONTINUOUS
 62
    3
 10
1291.2688
 20
4542.8218
 11
1290.8496
 21
4541.1802
  0
LINE
  8
0-2
  6
CONTINUOUS
 62
    3
 10
1290.8496
 20
4541.1802
 11
1290.7084
 21
4539.4871
  0
LINE
  8
0-2
  6
CONTINUOUS
 62
    3
 10
1290.7084
 20
4539.4871
 11
1290.8496
 21
4537.7941
  0
LINE
  8
0-2
  6
CONTINUOUS
 62
    3
 10
1290.8496
 20
4537.7941
 11
1291.2688
 21
4536.1525
  0
LINE
  8
0-2
  6
CONTINUOUS
 62
    3
 10
1291.2688
 20
4536.1525
 11
1291.9533
 21
4534.6122
  0
LINE
  8
0-2
  6
CONTINUOUS
 62
    3
 10
1291.9533
 20
4534.6122
 11
1292.8823
 21
4533.22
  0
LINE
  8
0-2
  6
CONTINUOUS
 62
    3
 10
1292.8823
 20
4533.22
 11
1294.0275
 21
4532.0183
  0
LINE
  8
0-2
  6
CONTINUOUS
 62
    3
 10
1294.0275
 20
4532.0183
 11
1295.3543
 21
4531.0435
  0
LINE
  8
0-2
  6
CONTINUOUS
 62
    3
 10
1295.3543
 20
4531.0435
 11
1296.8222
 21
4530.3252
  0
LINE
  8
0-2
  6
CONTINUOUS
 62
    3
 10
1296.8222
 20
4530.3252
 11
1298.3866
 21
4529.8853
  0
LINE
  8
0-2
  6
CONTINUOUS
 62
    3
 10
1298.3866
 20
4529.8853
 11
1300.0001
 21
4529.7372
  0
LINE
  8
0-2
  6
CONTINUOUS
 62
    3
 10
2632.5
 20
4272.7358
 11
2634.1135
 21
4272.8839
  0
LINE
  8
0-2
  6
CONTINUOUS
 62
    3
 10
2634.1135
 20
4272.8839
 11
2635.6779
 21
4273.3238
  0
LINE
  8
0-2
  6
CONTINUOUS
 62
    3
 10
2635.6779
 20
4273.3238
 11
2637.1458
 21
4274.0421
  0
LINE
  8
0-2
  6
CONTINUOUS
 62
    3
 10
2637.1458
 20
4274.0421
 11
2638.4725
 21
4275.0169
  0
LINE
  8
0-2
  6
CONTINUOUS
 62
    3
 10
2638.4725
 20
4275.0169
 11
2639.6178
 21
4276.2186
  0
LINE
  8
0-2
  6
CONTINUOUS
 62
    3
 10
2639.6178
 20
4276.2186
 11
2640.5468
 21
4277.6108
  0
LINE
  8
0-2
  6
CONTINUOUS
 62
    3
 10
2640.5468
 20
4277.6108
 11
2641.2313
 21
4279.1511
  0
LINE
  8
0-2
  6
CONTINUOUS
 62
    3
 10
2641.2313
 20
4279.1511
 11
2641.6505
 21
4280.7927
  0
LINE
  8
0-2
  6
CONTINUOUS
 62
    3
 10
2641.6505
 20
4280.7927
 11
2641.7916
 21
4282.4857
  0
LINE
  8
0-2
  6
CONTINUOUS
 62
    3
 10
2641.7916
 20
4282.4857
 11
2641.6505
 21
4284.1788
  0
LINE
  8
0-2
  6
CONTINUOUS
 62
    3
 10
2641.6505
 20
4284.1788
 11
2641.2313
 21
4285.8204
  0
LINE
  8
0-2
  6
CONTINUOUS
 62
    3
 10
2641.2313
 20
4285.8204
 11
2640.5468
 21
4287.3607
  0
LINE
  8
0-2
  6
CONTINUOUS
 62
    3
 10
2640.5468
 20
4287.3607
 11
2639.6178
 21
4288.7528
  0
LINE
  8
0-2
  6
CONTINUOUS
 62
    3
 10
2639.6178
 20
4288.7528
 11
2638.4725
 21
4289.9546
  0
LINE
  8
0-2
  6
CONTINUOUS
 62
    3
 10
2638.4725
 20
4289.9546
 11
2637.1458
 21
4290.9294
  0
LINE
  8
0-2
  6
CONTINUOUS
 62
    3
 10
2637.1458
 20
4290.9294
 11
2635.6779
 21
4291.6476
  0
LINE
  8
0-2
  6
CONTINUOUS
 62
    3
 10
2635.6779
 20
4291.6476
 11
2634.1135
 21
4292.0875
  0
LINE
  8
0-2
  6
CONTINUOUS
 62
    3
 10
2634.1135
 20
4292.0875
 11
2632.5
 21
4292.2356
  0
LINE
  8
0-2
  6
CONTINUOUS
 62
    3
 10
1567.4999
 20
4292.2356
 11
1565.8864
 21
4292.0875
  0
LINE
  8
0-2
  6
CONTINUOUS
 62
    3
 10
1565.8864
 20
4292.0875
 11
1564.3219
 21
4291.6476
  0
LINE
  8
0-2
  6
CONTINUOUS
 62
    3
 10
1564.3219
 20
4291.6476
 11
1562.8541
 21
4290.9294
  0
LINE
  8
0-2
  6
CONTINUOUS
 62
    3
 10
1562.8541
 20
4290.9294
 11
1561.5273
 21
4289.9546
  0
LINE
  8
0-2
  6
CONTINUOUS
 62
    3
 10
1561.5273
 20
4289.9546
 11
1560.3821
 21
4288.7528
  0
LINE
  8
0-2
  6
CONTINUOUS
 62
    3
 10
1560.3821
 20
4288.7528
 11
1559.4531
 21
4287.3607
  0
LINE
  8
0-2
  6
CONTINUOUS
 62
    3
 10
1559.4531
 20
4287.3607
 11
1558.7686
 21
4285.8204
  0
LINE
  8
0-2
  6
CONTINUOUS
 62
    3
 10
1558.7686
 20
4285.8204
 11
1558.3494
 21
4284.1788
  0
LINE
  8
0-2
  6
CONTINUOUS
 62
    3
 10
1558.3494
 20
4284.1788
 11
1558.2082
 21
4282.4857
  0
LINE
  8
0-2
  6
CONTINUOUS
 62
    3
 10
1558.2082
 20
4282.4857
 11
1558.3494
 21
4280.7927
  0
LINE
  8
0-2
  6
CONTINUOUS
 62
    3
 10
1558.3494
 20
4280.7927
 11
1558.7686
 21
4279.1511
  0
LINE
  8
0-2
  6
CONTINUOUS
 62
    3
 10
1558.7686
 20
4279.1511
 11
1559.4531
 21
4277.6108
  0
LINE
  8
0-2
  6
CONTINUOUS
 62
    3
 10
1559.4531
 20
4277.6108
 11
1560.3821
 21
4276.2186
  0
LINE
  8
0-2
  6
CONTINUOUS
 62
    3
 10
1560.3821
 20
4276.2186
 11
1561.5273
 21
4275.0169
  0
LINE
  8
0-2
  6
CONTINUOUS
 62
    3
 10
1561.5273
 20
4275.0169
 11
1562.8541
 21
4274.0421
  0
LINE
  8
0-2
  6
CONTINUOUS
 62
    3
 10
1562.8541
 20
4274.0421
 11
1564.3219
 21
4273.3238
  0
LINE
  8
0-2
  6
CONTINUOUS
 62
    3
 10
1564.3219
 20
4273.3238
 11
1565.8864
 21
4272.8839
  0
LINE
  8
0-2
  6
CONTINUOUS
 62
    3
 10
1565.8864
 20
4272.8839
 11
1567.4999
 21
4272.7358
  0
ARC
  8
0-3
  6
CONTINUOUS
 62
    3
 10
2116.2806
 20
4459.5937
 40
10.192053
 50
270
 51
0
  0
ARC
  8
0-3
  6
CONTINUOUS
 62
    3
 10
2116.2806
 20
4595.8084
 40
10.192053
 50
0
 51
90
  0
ARC
  8
0-3
  6
CONTINUOUS
 62
    3
 10
2219.4254
 20
4275.5861
 40
19.962931
 50
270
 51
0
  0
ARC
  8
0-3
  6
CONTINUOUS
 62
    3
 10
2209.4442
 20
4247.6551
 40
9.9814658
 50
270
 51
0
  0
ARC
  8
0-2
  6
CONTINUOUS
 62
    3
 10
2632.5151
 20
4682.6603
 40
8.9706141
 50
270
 51
90
  0
LINE
  8
0-2
  6
CONTINUOUS
 62
    3
 10
1567.4999
 20
4223.7364
 11
1565.8864
 21
4223.5882
  0
LINE
  8
0-2
  6
CONTINUOUS
 62
    3
 10
1565.8864
 20
4223.5882
 11
1564.3219
 21
4223.1484
  0
LINE
  8
0-2
  6
CONTINUOUS
 62
    3
 10
1564.3219
 20
4223.1484
 11
1562.8541
 21
4222.4301
  0
LINE
  8
0-2
  6
CONTINUOUS
 62
    3
 10
1562.8541
 20
4222.4301
 11
1561.5273
 21
4221.4553
  0
LINE
  8
0-2
  6
CONTINUOUS
 62
    3
 10
1561.5273
 20
4221.4553
 11
1560.3821
 21
4220.2536
  0
LINE
  8
0-2
  6
CONTINUOUS
 62
    3
 10
1560.3821
 20
4220.2536
 11
1559.4531
 21
4218.8614
  0
LINE
  8
0-2
  6
CONTINUOUS
 62
    3
 10
1559.4531
 20
4218.8614
 11
1558.7686
 21
4217.3211
  0
LINE
  8
0-2
  6
CONTINUOUS
 62
    3
 10
1558.7686
 20
4217.3211
 11
1558.3494
 21
4215.6795
  0
LINE
  8
0-2
  6
CONTINUOUS
 62
    3
 10
1558.3494
 20
4215.6795
 11
1558.2082
 21
4213.9865
  0
LINE
  8
0-2
  6
CONTINUOUS
 62
    3
 10
1558.2082
 20
4213.9865
 11
1558.3494
 21
4212.2934
  0
LINE
  8
0-2
  6
CONTINUOUS
 62
    3
 10
1558.3494
 20
4212.2934
 11
1558.7686
 21
4210.6518
  0
LINE
  8
0-2
  6
CONTINUOUS
 62
    3
 10
1558.7686
 20
4210.6518
 11
1559.4531
 21
4209.1115
  0
LINE
  8
0-2
  6
CONTINUOUS
 62
    3
 10
1559.4531
 20
4209.1115
 11
1560.3821
 21
4207.7193
  0
LINE
  8
0-2
  6
CONTINUOUS
 62
    3
 10
1560.3821
 20
4207.7193
 11
1561.5273
 21
4206.5176
  0
LINE
  8
0-2
  6
CONTINUOUS
 62
    3
 10
1561.5273
 20
4206.5176
 11
1562.8541
 21
4205.5428
  0
LINE
  8
0-2
  6
CONTINUOUS
 62
    3
 10
1562.8541
 20
4205.5428
 11
1564.3219
 21
4204.8245
  0
LINE
  8
0-2
  6
CONTINUOUS
 62
    3
 10
1564.3219
 20
4204.8245
 11
1565.8864
 21
4204.3847
  0
LINE
  8
0-2
  6
CONTINUOUS
 62
    3
 10
1565.8864
 20
4204.3847
 11
1567.4999
 21
4204.2366
  0
LINE
  8
0-2
  6
CONTINUOUS
 62
    3
 10
2632.5002
 20
4204.2366
 11
2634.1137
 21
4204.3847
  0
LINE
  8
0-2
  6
CONTINUOUS
 62
    3
 10
2634.1137
 20
4204.3847
 11
2635.6782
 21
4204.8245
  0
LINE
  8
0-2
  6
CONTINUOUS
 62
    3
 10
2635.6782
 20
4204.8245
 11
2637.1461
 21
4205.5428
  0
LINE
  8
0-2
  6
CONTINUOUS
 62
    3
 10
2637.1461
 20
4205.5428
 11
2638.4728
 21
4206.5176
  0
LINE
  8
0-2
  6
CONTINUOUS
 62
    3
 10
2638.4728
 20
4206.5176
 11
2639.6181
 21
4207.7193
  0
LINE
  8
0-2
  6
CONTINUOUS
 62
    3
 10
2639.6181
 20
4207.7193
 11
2640.547
 21
4209.1115
  0
LINE
  8
0-2
  6
CONTINUOUS
 62
    3
 10
2640.547
 20
4209.1115
 11
2641.2315
 21
4210.6518
  0
LINE
  8
0-2
  6
CONTINUOUS
 62
    3
 10
2641.2315
 20
4210.6518
 11
2641.6507
 21
4212.2934
  0
LINE
  8
0-2
  6
CONTINUOUS
 62
    3
 10
2641.6507
 20
4212.2934
 11
2641.7919
 21
4213.9865
  0
LINE
  8
0-2
  6
CONTINUOUS
 62
    3
 10
2641.7919
 20
4213.9865
 11
2641.6507
 21
4215.6795
  0
LINE
  8
0-2
  6
CONTINUOUS
 62
    3
 10
2641.6507
 20
4215.6795
 11
2641.2315
 21
4217.3211
  0
LINE
  8
0-2
  6
CONTINUOUS
 62
    3
 10
2641.2315
 20
4217.3211
 11
2640.547
 21
4218.8614
  0
LINE
  8
0-2
  6
CONTINUOUS
 62
    3
 10
2640.547
 20
4218.8614
 11
2639.6181
 21
4220.2536
  0
LINE
  8
0-2
  6
CONTINUOUS
 62
    3
 10
2639.6181
 20
4220.2536
 11
2638.4728
 21
4221.4553
  0
LINE
  8
0-2
  6
CONTINUOUS
 62
    3
 10
2638.4728
 20
4221.4553
 11
2637.1461
 21
4222.4301
  0
LINE
  8
0-2
  6
CONTINUOUS
 62
    3
 10
2637.1461
 20
4222.4301
 11
2635.6782
 21
4223.1484
  0
LINE
  8
0-2
  6
CONTINUOUS
 62
    3
 10
2635.6782
 20
4223.1484
 11
2634.1137
 21
4223.5882
  0
LINE
  8
0-2
  6
CONTINUOUS
 62
    3
 10
2634.1137
 20
4223.5882
 11
2632.5002
 21
4223.7364
  0
ARC
  8
0-3
  6
DASHED1
 62
    2
 10
2100.0149
 20
4714.2366
 40
532.49986
 50
0
 51
24.73616
  0
TEXT
  8
0-d
 10
509.99972
 20
310.13515
 40
50
 41
1
 50
0
  1
図
  0
TEXT
  8
0-d
 10
509.99972
 20
190.13521
 40
50
 41
1
 50
0
  1
番
  0
TEXT
  8
0-d
 10
1309.9998
 20
310.13515
 40
50
 41
1
 50
0
  1
承
  0
TEXT
  8
0-d
 10
1309.9998
 20
190.13521
 40
50
 41
1
 50
0
  1
認
  0
TEXT
  8
0-d
 10
2039.9997
 20
470.13525
 40
50
 41
1
 50
0
  1
尺
  0
TEXT
  8
0-d
 10
2039.9997
 20
390.13529
 40
50
 41
1
 50
359.99986
  1
度
  0
TEXT
  8
0-d
 10
1709.9997
 20
310.13515
 40
50
 41
1
 50
0
  1
製
  0
TEXT
  8
0-d
 10
1709.9997
 20
190.13521
 40
50
 41
1
 50
0
  1
図
  0
TEXT
  8
0-d
 10
3110
 20
470.13525
 40
50
 41
1
 50
0
  1
日
  0
TEXT
  8
0-d
 10
3110
 20
390.13529
 40
50
 41
1
 50
359.99986
  1
付
  0
TEXT
  8
0-d
 10
2222.852
 20
322.09976
 40
40
 41
1
 50
0
  1
株式
  0
TEXT
  8
0-d
 10
2222.852
 20
278.83889
 40
40
 41
1
 50
0.0000152
  1
会社
  0
TEXT
  8
0-d
 10
2348.4485
 20
281.62989
 40
80
 41
1
 50
0
  1
スズキベンチレーター
  0
TEXT
  8
0-d
 10
2475.8354
 20
183.18397
 40
40
 41
1
 50
0
  1
TEL(054)296-7000  FAX(054)296-7001
  0
TEXT
  8
0-8
 10
2045.6252
 20
5203.4776
 40
60
 41
1
 50
0
  1
1,600
  0
TEXT
  8
0-8
 10
998.27523
 20
4469.8615
 40
60
 41
1
 50
90
  1
875
  0
TEXT
  8
0-8
 10
2045.6248
 20
4007.4202
 40
60
 41
1
 50
0
  1
1,065
  0
TEXT
  8
0-8
 10
3223.3185
 20
4912.3621
 40
60
 41
1
 50
90
  1
185
  0
TEXT
  8
0-8
 10
3223.3185
 20
4667.362
 40
60
 41
1
 50
90
  1
380
  0
TEXT
  8
0-8
 10
3223.3185
 20
4312.3616
 40
60
 41
1
 50
90
  1
310
  0
TEXT
  8
0-8
 10
2829.2087
 20
4407.3622
 40
60
 41
1
 50
90
  1
540
  0
TEXT
  8
0-d
 10
510.00006
 20
5545.4028
 40
100
 41
1
 50
0
  1
ＳＴ－１０５　直付型（ダンパー付）断面
  0
TEXT
  8
0-d
 10
562.32181
 20
415.28022
 40
60
 41
1
 50
0
  1
ＳＴ－１０５　直付型（ダンパー付）断面
  0
TEXT
  8
0-d
 10
596.6753
 20
287.90676
 40
60
 41
1
 50
0
  1
105-G04a
  0
TEXT
  8
0-d
 10
2168.6978
 20
415.33667
 40
80
 41
1
 50
0
  1
１／２０
  0
TEXT
  8
0-d
 10
2471.3583
 20
232.42738
 40
40
 41
1
 50
0
  1
〒421-2114　静岡市葵区安倍口新田１５２番地
  0
POINT
  8
0-8
 62
    2
 10
1013.2749
 20
4174.2362
  0
POINT
  8
0-8
 62
    2
 10
1013.2749
 20
5049.2369
  0
POINT
  8
0-8
 62
    2
 10
1300.0001
 20
5188.4773
  0
POINT
  8
0-8
 62
    2
 10
2900
 20
5188.4773
  0
POINT
  8
0-8
 62
    2
 10
1567.4999
 20
3992.4202
  0
POINT
  8
0-8
 62
    2
 10
2632.5
 20
3992.4202
  0
POINT
  8
0-8
 62
    2
 10
3238.3188
 20
4484.2363
  0
POINT
  8
0-8
 62
    2
 10
3238.3188
 20
4864.2371
  0
POINT
  8
0-8
 62
    2
 10
3238.3188
 20
5049.2369
  0
POINT
  8
0-8
 62
    2
 10
2844.2088
 20
4714.2366
  0
POINT
  8
0-8
 62
    2
 10
2844.2088
 20
4174.2372
  0
POINT
  8
0-8
 62
    2
 10
3238.3188
 20
4174.2362
  0
ENDSEC
  0
EOF
