  0
SECTION
  2
HEADER
  9
$EXTMIN
 10
0
 20
0
  9
$EXTMAX
 10
8400
 20
5940
  0
ENDSEC
  0
SECTION
  2
TABLES
  0
TABLE
  2
LTYPE
 70
     9
  0
LTYPE
  2
CONTINUOUS
 70
    64
  3
実線
 72
    65
 73
     0
 40
0.0
  0
LTYPE
  2
DASHED1
 70
    64
  3
--  --  --  --  --  --  --  --  
 72
    65
 73
     2
 40
2.5
 49
1.25
 49
-1.25
  0
LTYPE
  2
DASHED2
 70
    64
  3
----    ----    ----    ----    
 72
    65
 73
     2
 40
5.0
 49
2.5
 49
-2.5
  0
LTYPE
  2
DASHED3
 70
    64
  3
------  ------  ------  ------  
 72
    65
 73
     2
 40
5.0
 49
3.75
 49
-1.25
  0
LTYPE
  2
CENTER1
 70
    64
  3
----- - ----- - ----- - ----- - 
 72
    65
 73
     4
 40
10.0
 49
6.25
 49
-1.25
 49
1.25
 49
-1.25
  0
LTYPE
  2
CENTER2
 70
    64
  3
----------  --  ----------  --  
 72
    65
 73
     4
 40
20.0
 49
12.5
 49
-2.5
 49
2.5
 49
-2.5
  0
LTYPE
  2
PHANTOM1
 70
    64
  3
--- - - --- - - --- - - --- - - 
 72
    65
 73
     6
 40
10.0
 49
3.25
 49
-1.25
 49
1.25
 49
-1.25
 49
1.25
 49
-1.25
  0
LTYPE
  2
PHANTOM2
 70
    64
  3
--------  -  -  --------  -  -  
 72
    65
 73
     6
 40
20.0
 49
10.0
 49
-2.5
 49
1.25
 49
-2.5
 49
1.25
 49
-2.5
  0
LTYPE
  2
DOT
 70
    64
  3
-   -   -   -   -   -   -   -   
 72
    65
 73
     2
 40
2.5
 49
0.625
 49
-1.875
  0
ENDTAB
  0
TABLE
  2
STYLE
 70
    1
  0
STYLE
  2
STANDARD
 70
    64
 40
0.0
 41
1.0
 42
0.0
 50
0.0
 71
     0
  3
TXT
  4
BIGFONT
  0
ENDTAB
  0
TABLE
  2
LAYER
 70
    4
  0
LAYER
  2
0-2
 70
   64
 62
    7
  6
CONTINUOUS
  0
LAYER
  2
0-8
 70
   64
 62
    7
  6
CONTINUOUS
  0
LAYER
  2
0-d
 70
   64
 62
    7
  6
CONTINUOUS
  0
LAYER
  2
ADD_LINE
 70
   64
 62
    7
  6
CONTINUOUS
  0
ENDTAB
  0
ENDSEC
  0
SECTION
  2
ENTITIES
  0
LINE
  8
0-d
  6
CONTINUOUS
 62
    7
 10
500.00006
 20
5515.4027
 11
3700.0002
 21
5515.4027
  0
LINE
  8
0-d
  6
CONTINUOUS
 62
    7
 10
500.00006
 20
5535.4028
 11
3700.0002
 21
5535.4028
  0
LINE
  8
0-d
  6
CONTINUOUS
 62
    7
 10
499.99981
 20
375.13524
 11
3700
 21
375.13524
  0
LINE
  8
0-d
  6
CONTINUOUS
 62
    7
 10
499.99981
 20
175.13519
 11
499.99981
 21
535.13516
  0
LINE
  8
0-d
  6
CONTINUOUS
 62
    7
 10
499.99981
 20
175.13519
 11
3700
 21
175.13519
  0
LINE
  8
0-d
  6
CONTINUOUS
 62
    7
 10
2100.0001
 20
535.13516
 11
2100.0001
 21
175.13519
  0
LINE
  8
0-d
  6
CONTINUOUS
 62
    7
 10
1300
 20
175.13519
 11
1300
 21
375.13524
  0
LINE
  8
0-d
  6
CONTINUOUS
 62
    7
 10
2100.0001
 20
375.13524
 11
2100.0001
 21
535.13516
  0
LINE
  8
0-d
  6
CONTINUOUS
 62
    7
 10
1700
 20
175.13519
 11
1700
 21
375.13524
  0
LINE
  8
0-d
  6
CONTINUOUS
 62
    7
 10
569.99968
 20
175.13519
 11
569.99968
 21
375.13524
  0
LINE
  8
0-d
  6
CONTINUOUS
 62
    7
 10
1369.9996
 20
175.13519
 11
1369.9996
 21
375.13524
  0
LINE
  8
0-d
  6
CONTINUOUS
 62
    7
 10
1769.9996
 20
175.13519
 11
1769.9996
 21
375.13524
  0
LINE
  8
0-d
  6
CONTINUOUS
 62
    7
 10
2029.9999
 20
375.13524
 11
2029.9999
 21
535.13516
  0
LINE
  8
0-d
  6
CONTINUOUS
 62
    7
 10
3099.9999
 20
375.13524
 11
3099.9999
 21
535.13516
  0
LINE
  8
0-d
  6
CONTINUOUS
 62
    7
 10
3169.9997
 20
375.13524
 11
3169.9997
 21
535.13516
  0
LINE
  8
0-d
  6
CONTINUOUS
 62
    7
 10
499.99981
 20
535.13516
 11
3700
 21
535.13516
  0
LINE
  8
0-d
  6
CONTINUOUS
 62
    7
 10
3700
 20
535.13516
 11
3700
 21
175.13519
  0
LINE
  8
0-8
  6
CONTINUOUS
 62
    7
 10
1299.9999
 20
5179.0612
 11
2899.9998
 21
5179.0612
  0
LINE
  8
0-2
  6
CONTINUOUS
 62
    3
 10
1300.0003
 20
4854.82
 11
1299.9999
 21
4617.8201
  0
LINE
  8
0-8
  6
CONTINUOUS
 62
    7
 10
1567.4996
 20
4098.4622
 11
1567.4996
 21
3983.0033
  0
LINE
  8
0-8
  6
CONTINUOUS
 62
    7
 10
2632.4995
 20
4098.4622
 11
2632.4995
 21
3983.0033
  0
LINE
  8
0-8
  6
CONTINUOUS
 62
    7
 10
1299.9999
 20
4935.3681
 11
1299.9999
 21
5179.0612
  0
LINE
  8
0-8
  6
CONTINUOUS
 62
    7
 10
1604.5542
 20
5039.8199
 11
1013.275
 21
5039.8199
  0
LINE
  8
0-8
  6
CONTINUOUS
 62
    7
 10
2899.9998
 20
4935.3681
 11
2899.9998
 21
5179.0612
  0
LINE
  8
0-2
  6
CONTINUOUS
 62
    3
 10
1299.9999
 20
4598.3209
 11
1299.9999
 21
4539.8202
  0
LINE
  8
0-2
  6
CONTINUOUS
 62
    3
 10
1299.9999
 20
4520.3209
 11
1299.9999
 21
4474.8197
  0
LINE
  8
0-2
  6
CONTINUOUS
 62
    3
 10
1300.0003
 20
4854.82
 11
2100.0001
 21
4854.82
  0
LINE
  8
0-2
  6
CONTINUOUS
 62
    3
 10
1299.9999
 20
4474.8197
 11
2100.0001
 21
4474.8197
  0
LINE
  8
0-2
  6
CONTINUOUS
 62
    3
 10
1299.9999
 20
4520.3209
 11
2100.0001
 21
4520.3209
  0
LINE
  8
0-2
  6
CONTINUOUS
 62
    3
 10
1299.9999
 20
4539.8202
 11
2100.0001
 21
4539.8202
  0
LINE
  8
0-2
  6
CONTINUOUS
 62
    3
 10
1299.9999
 20
4598.3209
 11
2100.0001
 21
4598.3209
  0
LINE
  8
0-2
  6
CONTINUOUS
 62
    3
 10
1299.9999
 20
4617.8201
 11
2100.0001
 21
4617.8201
  0
LINE
  8
0-8
  6
CONTINUOUS
 62
    7
 10
3238.3191
 20
4474.8197
 11
3238.3193
 21
4854.82
  0
LINE
  8
0-8
  6
CONTINUOUS
 62
    7
 10
3238.3193
 20
4854.82
 11
3238.3193
 21
5039.8199
  0
LINE
  8
0-8
  6
CONTINUOUS
 62
    7
 10
2855.5081
 20
5039.8199
 11
3238.3193
 21
5039.8199
  0
LINE
  8
0-8
  6
CONTINUOUS
 62
    7
 10
1567.4996
 20
3983.0033
 11
2632.4995
 21
3983.0033
  0
LINE
  8
0-8
  6
CONTINUOUS
 62
    7
 10
1013.275
 20
4164.8202
 11
1013.275
 21
5039.8199
  0
LINE
  8
0-8
  6
CONTINUOUS
 62
    7
 10
1313.8966
 20
4164.8202
 11
1013.275
 21
4164.8202
  0
LINE
  8
0-8
  6
CONTINUOUS
 62
    7
 10
2949.2764
 20
4854.82
 11
3238.3193
 21
4854.82
  0
LINE
  8
0-8
  6
CONTINUOUS
 62
    7
 10
2949.2764
 20
4474.8197
 11
3238.3191
 21
4474.8197
  0
LINE
  8
0-2
  6
CONTINUOUS
 62
    3
 10
1567.4996
 20
4164.8202
 11
2632.4995
 21
4164.8202
  0
LINE
  8
0-8
  6
CONTINUOUS
 62
    7
 10
3238.3191
 20
4164.8202
 11
3238.3191
 21
4474.8197
  0
LINE
  8
0-8
  6
CONTINUOUS
 62
    7
 10
2844.209
 20
4164.8202
 11
3238.3191
 21
4164.8202
  0
LINE
  8
0-2
  6
CONTINUOUS
 62
    3
 10
1567.4996
 20
4282.8193
 11
2100.0001
 21
4282.8193
  0
LINE
  8
0-2
  6
CONTINUOUS
 62
    3
 10
1567.4996
 20
4263.319
 11
2100.0001
 21
4263.319
  0
LINE
  8
0-2
  6
CONTINUOUS
 62
    3
 10
1567.4996
 20
4194.8198
 11
2632.4995
 21
4194.8198
  0
LINE
  8
0-2
  6
CONTINUOUS
 62
    3
 10
1567.4996
 20
4194.8198
 11
2100.0001
 21
4194.8198
  0
LINE
  8
0-2
  6
CONTINUOUS
 62
    3
 10
1567.4996
 20
4214.32
 11
2632.4995
 21
4214.32
  0
LINE
  8
0-2
  6
CONTINUOUS
 62
    3
 10
1567.4996
 20
4474.8207
 11
1567.4996
 21
4282.8193
  0
LINE
  8
0-2
  6
CONTINUOUS
 62
    3
 10
1567.4996
 20
4263.319
 11
1567.4996
 21
4214.32
  0
LINE
  8
0-2
  6
CONTINUOUS
 62
    3
 10
1567.4996
 20
4194.8198
 11
1567.4996
 21
4164.8202
  0
LINE
  8
0-2
  6
CONTINUOUS
 62
    3
 10
2899.9998
 20
4854.82
 11
2900.0003
 21
4617.8201
  0
LINE
  8
0-2
  6
CONTINUOUS
 62
    3
 10
2900.0003
 20
4598.3209
 11
2900.0003
 21
4539.8202
  0
LINE
  8
0-2
  6
CONTINUOUS
 62
    3
 10
2900.0003
 20
4520.3209
 11
2900.0003
 21
4474.8197
  0
LINE
  8
0-2
  6
CONTINUOUS
 62
    3
 10
2900.0003
 20
4474.8197
 11
2100.0001
 21
4474.8197
  0
LINE
  8
0-2
  6
CONTINUOUS
 62
    3
 10
2900.0003
 20
4520.3209
 11
2100.0001
 21
4520.3209
  0
LINE
  8
0-2
  6
CONTINUOUS
 62
    3
 10
2900.0003
 20
4539.8202
 11
2100.0001
 21
4539.8202
  0
LINE
  8
0-2
  6
CONTINUOUS
 62
    3
 10
2900.0003
 20
4598.3209
 11
2100.0001
 21
4598.3209
  0
LINE
  8
0-2
  6
CONTINUOUS
 62
    3
 10
2900.0003
 20
4617.8201
 11
2100.0001
 21
4617.8201
  0
LINE
  8
0-2
  6
CONTINUOUS
 62
    3
 10
2632.5005
 20
4282.8193
 11
2100.0001
 21
4282.8193
  0
LINE
  8
0-2
  6
CONTINUOUS
 62
    3
 10
2632.5005
 20
4263.319
 11
2100.0001
 21
4263.319
  0
LINE
  8
0-2
  6
CONTINUOUS
 62
    3
 10
2632.5005
 20
4194.8198
 11
2100.0001
 21
4194.8198
  0
LINE
  8
0-2
  6
CONTINUOUS
 62
    3
 10
2632.5005
 20
4474.8207
 11
2632.5005
 21
4282.8193
  0
LINE
  8
0-2
  6
CONTINUOUS
 62
    3
 10
2632.5005
 20
4263.319
 11
2632.5005
 21
4214.32
  0
LINE
  8
0-2
  6
CONTINUOUS
 62
    3
 10
2632.5005
 20
4194.8198
 11
2632.5005
 21
4164.8202
  0
LINE
  8
0-2
  6
CONTINUOUS
 62
    3
 10
2100.0001
 20
5039.8199
 11
1271.8744
 21
4848.3153
  0
LINE
  8
0-2
  6
CONTINUOUS
 62
    3
 10
2899.9998
 20
4854.82
 11
2100.0001
 21
4854.82
  0
LINE
  8
0-2
  6
CONTINUOUS
 62
    3
 10
2100.0001
 20
5039.8199
 11
2928.1258
 21
4848.3153
  0
LINE
  8
0-d
  6
CENTER2
 62
    7
 10
2100.0001
 20
3874.8199
 11
2100.0001
 21
5127.5224
  0
LINE
  8
0-2
  6
CONTINUOUS
 62
    3
 10
1299.9999
 20
4617.8199
 11
1298.3864
 21
4617.6718
  0
LINE
  8
0-2
  6
CONTINUOUS
 62
    3
 10
1298.3864
 20
4617.6718
 11
1296.8219
 21
4617.2319
  0
LINE
  8
0-2
  6
CONTINUOUS
 62
    3
 10
1296.8219
 20
4617.2319
 11
1295.354
 21
4616.5137
  0
LINE
  8
0-2
  6
CONTINUOUS
 62
    3
 10
1295.354
 20
4616.5137
 11
1294.0273
 21
4615.5389
  0
LINE
  8
0-2
  6
CONTINUOUS
 62
    3
 10
1294.0273
 20
4615.5389
 11
1292.882
 21
4614.3371
  0
LINE
  8
0-2
  6
CONTINUOUS
 62
    3
 10
1292.882
 20
4614.3371
 11
1291.953
 21
4612.945
  0
LINE
  8
0-2
  6
CONTINUOUS
 62
    3
 10
1291.953
 20
4612.945
 11
1291.2686
 21
4611.4047
  0
LINE
  8
0-2
  6
CONTINUOUS
 62
    3
 10
1291.2686
 20
4611.4047
 11
1290.8494
 21
4609.7631
  0
LINE
  8
0-2
  6
CONTINUOUS
 62
    3
 10
1290.8494
 20
4609.7631
 11
1290.7082
 21
4608.07
  0
LINE
  8
0-2
  6
CONTINUOUS
 62
    3
 10
1290.7082
 20
4608.07
 11
1290.8494
 21
4606.377
  0
LINE
  8
0-2
  6
CONTINUOUS
 62
    3
 10
1290.8494
 20
4606.377
 11
1291.2686
 21
4604.7354
  0
LINE
  8
0-2
  6
CONTINUOUS
 62
    3
 10
1291.2686
 20
4604.7354
 11
1291.953
 21
4603.1951
  0
LINE
  8
0-2
  6
CONTINUOUS
 62
    3
 10
1291.953
 20
4603.1951
 11
1292.882
 21
4601.8029
  0
LINE
  8
0-2
  6
CONTINUOUS
 62
    3
 10
1292.882
 20
4601.8029
 11
1294.0273
 21
4600.6012
  0
LINE
  8
0-2
  6
CONTINUOUS
 62
    3
 10
1294.0273
 20
4600.6012
 11
1295.354
 21
4599.6264
  0
LINE
  8
0-2
  6
CONTINUOUS
 62
    3
 10
1295.354
 20
4599.6264
 11
1296.8219
 21
4598.9081
  0
LINE
  8
0-2
  6
CONTINUOUS
 62
    3
 10
1296.8219
 20
4598.9081
 11
1298.3864
 21
4598.4682
  0
LINE
  8
0-2
  6
CONTINUOUS
 62
    3
 10
1298.3864
 20
4598.4682
 11
1299.9999
 21
4598.3201
  0
LINE
  8
0-2
  6
CONTINUOUS
 62
    3
 10
1299.9999
 20
4539.82
 11
1298.3864
 21
4539.6718
  0
LINE
  8
0-2
  6
CONTINUOUS
 62
    3
 10
1298.3864
 20
4539.6718
 11
1296.8219
 21
4539.232
  0
LINE
  8
0-2
  6
CONTINUOUS
 62
    3
 10
1296.8219
 20
4539.232
 11
1295.354
 21
4538.5137
  0
LINE
  8
0-2
  6
CONTINUOUS
 62
    3
 10
1295.354
 20
4538.5137
 11
1294.0273
 21
4537.5389
  0
LINE
  8
0-2
  6
CONTINUOUS
 62
    3
 10
1294.0273
 20
4537.5389
 11
1292.882
 21
4536.3372
  0
LINE
  8
0-2
  6
CONTINUOUS
 62
    3
 10
1292.882
 20
4536.3372
 11
1291.953
 21
4534.945
  0
LINE
  8
0-2
  6
CONTINUOUS
 62
    3
 10
1291.953
 20
4534.945
 11
1291.2686
 21
4533.4047
  0
LINE
  8
0-2
  6
CONTINUOUS
 62
    3
 10
1291.2686
 20
4533.4047
 11
1290.8494
 21
4531.7631
  0
LINE
  8
0-2
  6
CONTINUOUS
 62
    3
 10
1290.8494
 20
4531.7631
 11
1290.7082
 21
4530.0701
  0
LINE
  8
0-2
  6
CONTINUOUS
 62
    3
 10
1290.7082
 20
4530.0701
 11
1290.8494
 21
4528.377
  0
LINE
  8
0-2
  6
CONTINUOUS
 62
    3
 10
1290.8494
 20
4528.377
 11
1291.2686
 21
4526.7354
  0
LINE
  8
0-2
  6
CONTINUOUS
 62
    3
 10
1291.2686
 20
4526.7354
 11
1291.953
 21
4525.1951
  0
LINE
  8
0-2
  6
CONTINUOUS
 62
    3
 10
1291.953
 20
4525.1951
 11
1292.882
 21
4523.8029
  0
LINE
  8
0-2
  6
CONTINUOUS
 62
    3
 10
1292.882
 20
4523.8029
 11
1294.0273
 21
4522.6012
  0
LINE
  8
0-2
  6
CONTINUOUS
 62
    3
 10
1294.0273
 20
4522.6012
 11
1295.354
 21
4521.6264
  0
LINE
  8
0-2
  6
CONTINUOUS
 62
    3
 10
1295.354
 20
4521.6264
 11
1296.8219
 21
4520.9081
  0
LINE
  8
0-2
  6
CONTINUOUS
 62
    3
 10
1296.8219
 20
4520.9081
 11
1298.3864
 21
4520.4683
  0
LINE
  8
0-2
  6
CONTINUOUS
 62
    3
 10
1298.3864
 20
4520.4683
 11
1299.9999
 21
4520.3202
  0
LINE
  8
0-2
  6
CONTINUOUS
 62
    3
 10
1567.4996
 20
4282.819
 11
1565.8862
 21
4282.6709
  0
LINE
  8
0-2
  6
CONTINUOUS
 62
    3
 10
1565.8862
 20
4282.6709
 11
1564.3217
 21
4282.2311
  0
LINE
  8
0-2
  6
CONTINUOUS
 62
    3
 10
1564.3217
 20
4282.2311
 11
1562.8538
 21
4281.5128
  0
LINE
  8
0-2
  6
CONTINUOUS
 62
    3
 10
1562.8538
 20
4281.5128
 11
1561.5271
 21
4280.538
  0
LINE
  8
0-2
  6
CONTINUOUS
 62
    3
 10
1561.5271
 20
4280.538
 11
1560.3818
 21
4279.3363
  0
LINE
  8
0-2
  6
CONTINUOUS
 62
    3
 10
1560.3818
 20
4279.3363
 11
1559.4528
 21
4277.9441
  0
LINE
  8
0-2
  6
CONTINUOUS
 62
    3
 10
1559.4528
 20
4277.9441
 11
1558.7683
 21
4276.4038
  0
LINE
  8
0-2
  6
CONTINUOUS
 62
    3
 10
1558.7683
 20
4276.4038
 11
1558.3491
 21
4274.7622
  0
LINE
  8
0-2
  6
CONTINUOUS
 62
    3
 10
1558.3491
 20
4274.7622
 11
1558.208
 21
4273.0691
  0
LINE
  8
0-2
  6
CONTINUOUS
 62
    3
 10
1558.208
 20
4273.0691
 11
1558.3491
 21
4271.3761
  0
LINE
  8
0-2
  6
CONTINUOUS
 62
    3
 10
1558.3491
 20
4271.3761
 11
1558.7683
 21
4269.7345
  0
LINE
  8
0-2
  6
CONTINUOUS
 62
    3
 10
1558.7683
 20
4269.7345
 11
1559.4528
 21
4268.1942
  0
LINE
  8
0-2
  6
CONTINUOUS
 62
    3
 10
1559.4528
 20
4268.1942
 11
1560.3818
 21
4266.802
  0
LINE
  8
0-2
  6
CONTINUOUS
 62
    3
 10
1560.3818
 20
4266.802
 11
1561.5271
 21
4265.6003
  0
LINE
  8
0-2
  6
CONTINUOUS
 62
    3
 10
1561.5271
 20
4265.6003
 11
1562.8538
 21
4264.6255
  0
LINE
  8
0-2
  6
CONTINUOUS
 62
    3
 10
1562.8538
 20
4264.6255
 11
1564.3217
 21
4263.9072
  0
LINE
  8
0-2
  6
CONTINUOUS
 62
    3
 10
1564.3217
 20
4263.9072
 11
1565.8862
 21
4263.4674
  0
LINE
  8
0-2
  6
CONTINUOUS
 62
    3
 10
1565.8862
 20
4263.4674
 11
1567.4996
 21
4263.3192
  0
LINE
  8
0-2
  6
CONTINUOUS
 62
    3
 10
1567.4996
 20
4214.3198
 11
1565.8862
 21
4214.1717
  0
LINE
  8
0-2
  6
CONTINUOUS
 62
    3
 10
1565.8862
 20
4214.1717
 11
1564.3217
 21
4213.7318
  0
LINE
  8
0-2
  6
CONTINUOUS
 62
    3
 10
1564.3217
 20
4213.7318
 11
1562.8538
 21
4213.0135
  0
LINE
  8
0-2
  6
CONTINUOUS
 62
    3
 10
1562.8538
 20
4213.0135
 11
1561.5271
 21
4212.0387
  0
LINE
  8
0-2
  6
CONTINUOUS
 62
    3
 10
1561.5271
 20
4212.0387
 11
1560.3818
 21
4210.837
  0
LINE
  8
0-2
  6
CONTINUOUS
 62
    3
 10
1560.3818
 20
4210.837
 11
1559.4528
 21
4209.4448
  0
LINE
  8
0-2
  6
CONTINUOUS
 62
    3
 10
1559.4528
 20
4209.4448
 11
1558.7683
 21
4207.9045
  0
LINE
  8
0-2
  6
CONTINUOUS
 62
    3
 10
1558.7683
 20
4207.9045
 11
1558.3491
 21
4206.2629
  0
LINE
  8
0-2
  6
CONTINUOUS
 62
    3
 10
1558.3491
 20
4206.2629
 11
1558.208
 21
4204.5699
  0
LINE
  8
0-2
  6
CONTINUOUS
 62
    3
 10
1558.208
 20
4204.5699
 11
1558.3491
 21
4202.8768
  0
LINE
  8
0-2
  6
CONTINUOUS
 62
    3
 10
1558.3491
 20
4202.8768
 11
1558.7683
 21
4201.2352
  0
LINE
  8
0-2
  6
CONTINUOUS
 62
    3
 10
1558.7683
 20
4201.2352
 11
1559.4528
 21
4199.6949
  0
LINE
  8
0-2
  6
CONTINUOUS
 62
    3
 10
1559.4528
 20
4199.6949
 11
1560.3818
 21
4198.3028
  0
LINE
  8
0-2
  6
CONTINUOUS
 62
    3
 10
1560.3818
 20
4198.3028
 11
1561.5271
 21
4197.101
  0
LINE
  8
0-2
  6
CONTINUOUS
 62
    3
 10
1561.5271
 20
4197.101
 11
1562.8538
 21
4196.1262
  0
LINE
  8
0-2
  6
CONTINUOUS
 62
    3
 10
1562.8538
 20
4196.1262
 11
1564.3217
 21
4195.408
  0
LINE
  8
0-2
  6
CONTINUOUS
 62
    3
 10
1564.3217
 20
4195.408
 11
1565.8862
 21
4194.9681
  0
LINE
  8
0-2
  6
CONTINUOUS
 62
    3
 10
1565.8862
 20
4194.9681
 11
1567.4996
 21
4194.82
  0
LINE
  8
0-2
  6
CONTINUOUS
 62
    3
 10
2900.0003
 20
4598.3201
 11
2901.6137
 21
4598.4682
  0
LINE
  8
0-2
  6
CONTINUOUS
 62
    3
 10
2901.6137
 20
4598.4682
 11
2903.1782
 21
4598.9081
  0
LINE
  8
0-2
  6
CONTINUOUS
 62
    3
 10
2903.1782
 20
4598.9081
 11
2904.6461
 21
4599.6264
  0
LINE
  8
0-2
  6
CONTINUOUS
 62
    3
 10
2904.6461
 20
4599.6264
 11
2905.9728
 21
4600.6012
  0
LINE
  8
0-2
  6
CONTINUOUS
 62
    3
 10
2905.9728
 20
4600.6012
 11
2907.1181
 21
4601.8029
  0
LINE
  8
0-2
  6
CONTINUOUS
 62
    3
 10
2907.1181
 20
4601.8029
 11
2908.0471
 21
4603.1951
  0
LINE
  8
0-2
  6
CONTINUOUS
 62
    3
 10
2908.0471
 20
4603.1951
 11
2908.7316
 21
4604.7354
  0
LINE
  8
0-2
  6
CONTINUOUS
 62
    3
 10
2908.7316
 20
4604.7354
 11
2909.1508
 21
4606.377
  0
LINE
  8
0-2
  6
CONTINUOUS
 62
    3
 10
2909.1508
 20
4606.377
 11
2909.2919
 21
4608.07
  0
LINE
  8
0-2
  6
CONTINUOUS
 62
    3
 10
2909.2919
 20
4608.07
 11
2909.1508
 21
4609.7631
  0
LINE
  8
0-2
  6
CONTINUOUS
 62
    3
 10
2909.1508
 20
4609.7631
 11
2908.7316
 21
4611.4047
  0
LINE
  8
0-2
  6
CONTINUOUS
 62
    3
 10
2908.7316
 20
4611.4047
 11
2908.0471
 21
4612.945
  0
LINE
  8
0-2
  6
CONTINUOUS
 62
    3
 10
2908.0471
 20
4612.945
 11
2907.1181
 21
4614.3371
  0
LINE
  8
0-2
  6
CONTINUOUS
 62
    3
 10
2907.1181
 20
4614.3371
 11
2905.9728
 21
4615.5389
  0
LINE
  8
0-2
  6
CONTINUOUS
 62
    3
 10
2905.9728
 20
4615.5389
 11
2904.6461
 21
4616.5137
  0
LINE
  8
0-2
  6
CONTINUOUS
 62
    3
 10
2904.6461
 20
4616.5137
 11
2903.1782
 21
4617.2319
  0
LINE
  8
0-2
  6
CONTINUOUS
 62
    3
 10
2903.1782
 20
4617.2319
 11
2901.6137
 21
4617.6718
  0
LINE
  8
0-2
  6
CONTINUOUS
 62
    3
 10
2901.6137
 20
4617.6718
 11
2900.0003
 21
4617.8199
  0
LINE
  8
0-2
  6
CONTINUOUS
 62
    3
 10
2900.0003
 20
4520.3202
 11
2901.6137
 21
4520.4683
  0
LINE
  8
0-2
  6
CONTINUOUS
 62
    3
 10
2901.6137
 20
4520.4683
 11
2903.1782
 21
4520.9081
  0
LINE
  8
0-2
  6
CONTINUOUS
 62
    3
 10
2903.1782
 20
4520.9081
 11
2904.6461
 21
4521.6264
  0
LINE
  8
0-2
  6
CONTINUOUS
 62
    3
 10
2904.6461
 20
4521.6264
 11
2905.9728
 21
4522.6012
  0
LINE
  8
0-2
  6
CONTINUOUS
 62
    3
 10
2905.9728
 20
4522.6012
 11
2907.1181
 21
4523.8029
  0
LINE
  8
0-2
  6
CONTINUOUS
 62
    3
 10
2907.1181
 20
4523.8029
 11
2908.0471
 21
4525.1951
  0
LINE
  8
0-2
  6
CONTINUOUS
 62
    3
 10
2908.0471
 20
4525.1951
 11
2908.7316
 21
4526.7354
  0
LINE
  8
0-2
  6
CONTINUOUS
 62
    3
 10
2908.7316
 20
4526.7354
 11
2909.1508
 21
4528.377
  0
LINE
  8
0-2
  6
CONTINUOUS
 62
    3
 10
2909.1508
 20
4528.377
 11
2909.2919
 21
4530.0701
  0
LINE
  8
0-2
  6
CONTINUOUS
 62
    3
 10
2909.2919
 20
4530.0701
 11
2909.1508
 21
4531.7631
  0
LINE
  8
0-2
  6
CONTINUOUS
 62
    3
 10
2909.1508
 20
4531.7631
 11
2908.7316
 21
4533.4047
  0
LINE
  8
0-2
  6
CONTINUOUS
 62
    3
 10
2908.7316
 20
4533.4047
 11
2908.0471
 21
4534.945
  0
LINE
  8
0-2
  6
CONTINUOUS
 62
    3
 10
2908.0471
 20
4534.945
 11
2907.1181
 21
4536.3372
  0
LINE
  8
0-2
  6
CONTINUOUS
 62
    3
 10
2907.1181
 20
4536.3372
 11
2905.9728
 21
4537.5389
  0
LINE
  8
0-2
  6
CONTINUOUS
 62
    3
 10
2905.9728
 20
4537.5389
 11
2904.6461
 21
4538.5137
  0
LINE
  8
0-2
  6
CONTINUOUS
 62
    3
 10
2904.6461
 20
4538.5137
 11
2903.1782
 21
4539.232
  0
LINE
  8
0-2
  6
CONTINUOUS
 62
    3
 10
2903.1782
 20
4539.232
 11
2901.6137
 21
4539.6718
  0
LINE
  8
0-2
  6
CONTINUOUS
 62
    3
 10
2901.6137
 20
4539.6718
 11
2900.0003
 21
4539.82
  0
LINE
  8
0-2
  6
CONTINUOUS
 62
    3
 10
2632.5005
 20
4263.3192
 11
2634.114
 21
4263.4674
  0
LINE
  8
0-2
  6
CONTINUOUS
 62
    3
 10
2634.114
 20
4263.4674
 11
2635.6784
 21
4263.9072
  0
LINE
  8
0-2
  6
CONTINUOUS
 62
    3
 10
2635.6784
 20
4263.9072
 11
2637.1463
 21
4264.6255
  0
LINE
  8
0-2
  6
CONTINUOUS
 62
    3
 10
2637.1463
 20
4264.6255
 11
2638.473
 21
4265.6003
  0
LINE
  8
0-2
  6
CONTINUOUS
 62
    3
 10
2638.473
 20
4265.6003
 11
2639.6183
 21
4266.802
  0
LINE
  8
0-2
  6
CONTINUOUS
 62
    3
 10
2639.6183
 20
4266.802
 11
2640.5473
 21
4268.1942
  0
LINE
  8
0-2
  6
CONTINUOUS
 62
    3
 10
2640.5473
 20
4268.1942
 11
2641.2318
 21
4269.7345
  0
LINE
  8
0-2
  6
CONTINUOUS
 62
    3
 10
2641.2318
 20
4269.7345
 11
2641.651
 21
4271.3761
  0
LINE
  8
0-2
  6
CONTINUOUS
 62
    3
 10
2641.651
 20
4271.3761
 11
2641.7921
 21
4273.0691
  0
LINE
  8
0-2
  6
CONTINUOUS
 62
    3
 10
2641.7921
 20
4273.0691
 11
2641.651
 21
4274.7622
  0
LINE
  8
0-2
  6
CONTINUOUS
 62
    3
 10
2641.651
 20
4274.7622
 11
2641.2318
 21
4276.4038
  0
LINE
  8
0-2
  6
CONTINUOUS
 62
    3
 10
2641.2318
 20
4276.4038
 11
2640.5473
 21
4277.9441
  0
LINE
  8
0-2
  6
CONTINUOUS
 62
    3
 10
2640.5473
 20
4277.9441
 11
2639.6183
 21
4279.3363
  0
LINE
  8
0-2
  6
CONTINUOUS
 62
    3
 10
2639.6183
 20
4279.3363
 11
2638.473
 21
4280.538
  0
LINE
  8
0-2
  6
CONTINUOUS
 62
    3
 10
2638.473
 20
4280.538
 11
2637.1463
 21
4281.5128
  0
LINE
  8
0-2
  6
CONTINUOUS
 62
    3
 10
2637.1463
 20
4281.5128
 11
2635.6784
 21
4282.2311
  0
LINE
  8
0-2
  6
CONTINUOUS
 62
    3
 10
2635.6784
 20
4282.2311
 11
2634.114
 21
4282.6709
  0
LINE
  8
0-2
  6
CONTINUOUS
 62
    3
 10
2634.114
 20
4282.6709
 11
2632.5005
 21
4282.819
  0
LINE
  8
0-2
  6
CONTINUOUS
 62
    3
 10
2632.5005
 20
4194.82
 11
2634.114
 21
4194.9681
  0
LINE
  8
0-2
  6
CONTINUOUS
 62
    3
 10
2634.114
 20
4194.9681
 11
2635.6784
 21
4195.408
  0
LINE
  8
0-2
  6
CONTINUOUS
 62
    3
 10
2635.6784
 20
4195.408
 11
2637.1463
 21
4196.1262
  0
LINE
  8
0-2
  6
CONTINUOUS
 62
    3
 10
2637.1463
 20
4196.1262
 11
2638.473
 21
4197.101
  0
LINE
  8
0-2
  6
CONTINUOUS
 62
    3
 10
2638.473
 20
4197.101
 11
2639.6183
 21
4198.3028
  0
LINE
  8
0-2
  6
CONTINUOUS
 62
    3
 10
2639.6183
 20
4198.3028
 11
2640.5473
 21
4199.6949
  0
LINE
  8
0-2
  6
CONTINUOUS
 62
    3
 10
2640.5473
 20
4199.6949
 11
2641.2318
 21
4201.2352
  0
LINE
  8
0-2
  6
CONTINUOUS
 62
    3
 10
2641.2318
 20
4201.2352
 11
2641.651
 21
4202.8768
  0
LINE
  8
0-2
  6
CONTINUOUS
 62
    3
 10
2641.651
 20
4202.8768
 11
2641.7921
 21
4204.5699
  0
LINE
  8
0-2
  6
CONTINUOUS
 62
    3
 10
2641.7921
 20
4204.5699
 11
2641.651
 21
4206.2629
  0
LINE
  8
0-2
  6
CONTINUOUS
 62
    3
 10
2641.651
 20
4206.2629
 11
2641.2318
 21
4207.9045
  0
LINE
  8
0-2
  6
CONTINUOUS
 62
    3
 10
2641.2318
 20
4207.9045
 11
2640.5473
 21
4209.4448
  0
LINE
  8
0-2
  6
CONTINUOUS
 62
    3
 10
2640.5473
 20
4209.4448
 11
2639.6183
 21
4210.837
  0
LINE
  8
0-2
  6
CONTINUOUS
 62
    3
 10
2639.6183
 20
4210.837
 11
2638.473
 21
4212.0387
  0
LINE
  8
0-2
  6
CONTINUOUS
 62
    3
 10
2638.473
 20
4212.0387
 11
2637.1463
 21
4213.0135
  0
LINE
  8
0-2
  6
CONTINUOUS
 62
    3
 10
2637.1463
 20
4213.0135
 11
2635.6784
 21
4213.7318
  0
LINE
  8
0-2
  6
CONTINUOUS
 62
    3
 10
2635.6784
 20
4213.7318
 11
2634.114
 21
4214.1717
  0
LINE
  8
0-2
  6
CONTINUOUS
 62
    3
 10
2634.114
 20
4214.1717
 11
2632.5005
 21
4214.3198
  0
TEXT
  8
0-d
 10
509.99972
 20
310.13515
 40
50
 41
1
 50
0
  1
図
  0
TEXT
  8
0-d
 10
509.99972
 20
190.13521
 40
50
 41
1
 50
0
  1
番
  0
TEXT
  8
0-d
 10
1309.9998
 20
310.13515
 40
50
 41
1
 50
0
  1
承
  0
TEXT
  8
0-d
 10
1309.9998
 20
190.13521
 40
50
 41
1
 50
0
  1
認
  0
TEXT
  8
0-d
 10
2039.9997
 20
470.13525
 40
50
 41
1
 50
0
  1
尺
  0
TEXT
  8
0-d
 10
2039.9997
 20
390.13529
 40
50
 41
1
 50
359.99986
  1
度
  0
TEXT
  8
0-d
 10
1709.9997
 20
310.13515
 40
50
 41
1
 50
0
  1
製
  0
TEXT
  8
0-d
 10
1709.9997
 20
190.13521
 40
50
 41
1
 50
0
  1
図
  0
TEXT
  8
0-d
 10
3110
 20
470.13525
 40
50
 41
1
 50
0
  1
日
  0
TEXT
  8
0-d
 10
3110
 20
390.13529
 40
50
 41
1
 50
359.99986
  1
付
  0
TEXT
  8
0-d
 10
2222.852
 20
322.09976
 40
40
 41
1
 50
0
  1
株式
  0
TEXT
  8
0-d
 10
2222.852
 20
278.83889
 40
40
 41
1
 50
0.0000152
  1
会社
  0
TEXT
  8
0-d
 10
2348.4485
 20
281.62989
 40
80
 41
1
 50
0
  1
スズキベンチレーター
  0
TEXT
  8
0-d
 10
2475.8354
 20
183.18397
 40
40
 41
1
 50
0
  1
TEL(054)296-7000  FAX(054)296-7001
  0
TEXT
  8
0-8
 10
2024.375
 20
5194.0605
 40
60
 41
1
 50
0
  1
1,600
  0
TEXT
  8
0-8
 10
998.27523
 20
4447.9448
 40
60
 41
1
 50
90
  1
875
  0
TEXT
  8
0-8
 10
2024.3745
 20
3998.0034
 40
60
 41
1
 50
0
  1
1,065
  0
TEXT
  8
0-8
 10
3223.319
 20
4890.4449
 40
60
 41
1
 50
90
  1
185
  0
TEXT
  8
0-8
 10
3223.3185
 20
4645.4443
 40
60
 41
1
 50
90
  1
380
  0
TEXT
  8
0-8
 10
3223.3185
 20
4290.4444
 40
60
 41
1
 50
90
  1
310
  0
TEXT
  8
0-d
 10
510.00006
 20
5545.4028
 40
100
 41
1
 50
0
  1
ＳＴ－１０５　直付型立面
  0
TEXT
  8
0-d
 10
562.32181
 20
415.28022
 40
60
 41
1
 50
0
  1
ＳＴ－１０５　直付型立面
  0
TEXT
  8
0-d
 10
596.6753
 20
287.90676
 40
60
 41
1
 50
0
  1
105-G02a
  0
TEXT
  8
0-d
 10
2168.6978
 20
415.33667
 40
80
 41
1
 50
0
  1
１／２０
  0
TEXT
  8
0-d
 10
2471.3583
 20
232.42738
 40
40
 41
1
 50
0
  1
〒421-2114　静岡市葵区安倍口新田１５２番地
  0
POINT
  8
0-8
 62
    2
 10
1013.275
 20
4164.8202
  0
POINT
  8
0-8
 62
    2
 10
1013.275
 20
5039.8199
  0
POINT
  8
0-8
 62
    2
 10
1299.9999
 20
5179.0612
  0
POINT
  8
0-8
 62
    2
 10
2899.9998
 20
5179.0612
  0
POINT
  8
0-8
 62
    2
 10
1567.4996
 20
3983.0033
  0
POINT
  8
0-8
 62
    2
 10
2632.4995
 20
3983.0033
  0
POINT
  8
0-8
 62
    2
 10
3238.3191
 20
4474.8197
  0
POINT
  8
0-8
 62
    2
 10
3238.3193
 20
4854.82
  0
POINT
  8
0-8
 62
    2
 10
3238.3193
 20
5039.8199
  0
POINT
  8
0-8
 62
    2
 10
3238.3191
 20
4164.8202
  0
ENDSEC
  0
EOF
