  0
SECTION
  2
HEADER
  9
$EXTMIN
 10
0
 20
0
  9
$EXTMAX
 10
4200
 20
2970
  0
ENDSEC
  0
SECTION
  2
TABLES
  0
TABLE
  2
LTYPE
 70
     9
  0
LTYPE
  2
CONTINUOUS
 70
    64
  3
実線
 72
    65
 73
     0
 40
0.0
  0
LTYPE
  2
DASHED1
 70
    64
  3
--  --  --  --  --  --  --  --  
 72
    65
 73
     2
 40
2.5
 49
1.25
 49
-1.25
  0
LTYPE
  2
DASHED2
 70
    64
  3
----    ----    ----    ----    
 72
    65
 73
     2
 40
5.0
 49
2.5
 49
-2.5
  0
LTYPE
  2
DASHED3
 70
    64
  3
------  ------  ------  ------  
 72
    65
 73
     2
 40
5.0
 49
3.75
 49
-1.25
  0
LTYPE
  2
CENTER1
 70
    64
  3
----- - ----- - ----- - ----- - 
 72
    65
 73
     4
 40
10.0
 49
6.25
 49
-1.25
 49
1.25
 49
-1.25
  0
LTYPE
  2
CENTER2
 70
    64
  3
----------  --  ----------  --  
 72
    65
 73
     4
 40
20.0
 49
12.5
 49
-2.5
 49
2.5
 49
-2.5
  0
LTYPE
  2
PHANTOM1
 70
    64
  3
--- - - --- - - --- - - --- - - 
 72
    65
 73
     6
 40
10.0
 49
3.25
 49
-1.25
 49
1.25
 49
-1.25
 49
1.25
 49
-1.25
  0
LTYPE
  2
PHANTOM2
 70
    64
  3
--------  -  -  --------  -  -  
 72
    65
 73
     6
 40
20.0
 49
10.0
 49
-2.5
 49
1.25
 49
-2.5
 49
1.25
 49
-2.5
  0
LTYPE
  2
DOT
 70
    64
  3
-   -   -   -   -   -   -   -   
 72
    65
 73
     2
 40
2.5
 49
0.625
 49
-1.875
  0
ENDTAB
  0
TABLE
  2
STYLE
 70
    1
  0
STYLE
  2
STANDARD
 70
    64
 40
0.0
 41
1.0
 42
0.0
 50
0.0
 71
     0
  3
TXT
  4
BIGFONT
  0
ENDTAB
  0
TABLE
  2
LAYER
 70
    6
  0
LAYER
  2
0-1
 70
   64
 62
    7
  6
CONTINUOUS
  0
LAYER
  2
0-2
 70
   64
 62
    7
  6
CONTINUOUS
  0
LAYER
  2
0-4
 70
   64
 62
    7
  6
CONTINUOUS
  0
LAYER
  2
0-8
 70
   64
 62
    7
  6
CONTINUOUS
  0
LAYER
  2
0-d
 70
   64
 62
    7
  6
CONTINUOUS
  0
LAYER
  2
ADD_LINE
 70
   64
 62
    7
  6
CONTINUOUS
  0
ENDTAB
  0
ENDSEC
  0
SECTION
  2
ENTITIES
  0
LINE
  8
0-d
  6
CONTINUOUS
 62
    7
 10
250.00006
 20
2757.7013
 11
1850.0001
 21
2757.7013
  0
LINE
  8
0-d
  6
CONTINUOUS
 62
    7
 10
250.00006
 20
2767.7016
 11
1850.0001
 21
2767.7016
  0
LINE
  8
0-d
  6
CONTINUOUS
 62
    7
 10
249.99969
 20
189.99989
 11
1850.0005
 21
189.99989
  0
LINE
  8
0-d
  6
CONTINUOUS
 62
    7
 10
249.99969
 20
89.999806
 11
249.99969
 21
269.99991
  0
LINE
  8
0-d
  6
CONTINUOUS
 62
    7
 10
249.99969
 20
89.999806
 11
1850.0005
 21
89.999806
  0
LINE
  8
0-d
  6
CONTINUOUS
 62
    7
 10
1850.0005
 20
269.99991
 11
1850.0005
 21
89.999806
  0
LINE
  8
0-d
  6
CONTINUOUS
 62
    7
 10
249.99969
 20
269.99991
 11
1850.0005
 21
269.99991
  0
LINE
  8
0-d
  6
CONTINUOUS
 62
    7
 10
1050
 20
269.99991
 11
1050
 21
89.999806
  0
LINE
  8
0-d
  6
CONTINUOUS
 62
    7
 10
650.00019
 20
89.999806
 11
650.00019
 21
189.99989
  0
LINE
  8
0-d
  6
CONTINUOUS
 62
    7
 10
1050
 20
189.99989
 11
1050
 21
269.99991
  0
LINE
  8
0-d
  6
CONTINUOUS
 62
    7
 10
849.99981
 20
89.999806
 11
849.99981
 21
189.99989
  0
LINE
  8
0-d
  6
CONTINUOUS
 62
    7
 10
285.00002
 20
89.999806
 11
285.00002
 21
189.99989
  0
LINE
  8
0-d
  6
CONTINUOUS
 62
    7
 10
685.00006
 20
89.999806
 11
685.00006
 21
189.99989
  0
LINE
  8
0-d
  6
CONTINUOUS
 62
    7
 10
885.00018
 20
89.999806
 11
885.00018
 21
189.99989
  0
LINE
  8
0-d
  6
CONTINUOUS
 62
    7
 10
1015
 20
189.99989
 11
1015
 21
269.99991
  0
LINE
  8
0-d
  6
CONTINUOUS
 62
    7
 10
1550.0004
 20
189.99989
 11
1550.0004
 21
269.99991
  0
LINE
  8
0-d
  6
CONTINUOUS
 62
    7
 10
1585.0002
 20
189.99989
 11
1585.0002
 21
269.99991
  0
LINE
  8
0-8
  6
CONTINUOUS
 62
    7
 10
387.26412
 20
887.83788
 11
310.00041
 21
887.83788
  0
LINE
  8
0-8
  6
CONTINUOUS
 62
    7
 10
310.00041
 20
887.83788
 11
310.00041
 21
2137.8376
  0
LINE
  8
0-8
  6
CONTINUOUS
 62
    7
 10
539.99982
 20
2337.8375
 11
1560.0002
 21
2337.8375
  0
LINE
  8
0-8
  6
CONTINUOUS
 62
    7
 10
1560.0002
 20
2091.086
 11
1560.0002
 21
2337.8375
  0
LINE
  8
0-8
  6
CONTINUOUS
 62
    7
 10
539.99982
 20
2337.8375
 11
539.99982
 21
2091.086
  0
LINE
  8
0-8
  6
CONTINUOUS
 62
    7
 10
552.94835
 20
887.83788
 11
310.00041
 21
887.83788
  0
LINE
  8
0-8
  6
CONTINUOUS
 62
    7
 10
552.94786
 20
887.83788
 11
310.00041
 21
887.83788
  0
LINE
  8
0-2
  6
CONTINUOUS
 62
    3
 10
640.12289
 20
827.83762
 11
640.12289
 21
887.83788
  0
LINE
  8
0-2
  6
CONTINUOUS
 62
    3
 10
640.12289
 20
827.83762
 11
1459.8777
 21
827.83762
  0
LINE
  8
0-2
  6
CONTINUOUS
 62
    3
 10
1459.8777
 20
827.83762
 11
1459.8777
 21
887.83738
  0
LINE
  8
0-2
  6
CONTINUOUS
 62
    3
 10
640.12289
 20
887.83788
 11
1459.8777
 21
887.83738
  0
LINE
  8
0-8
  6
CONTINUOUS
 62
    7
 10
310.00041
 20
827.83762
 11
310.00041
 21
887.83788
  0
LINE
  8
0-8
  6
CONTINUOUS
 62
    7
 10
552.94786
 20
887.83689
 11
310.00041
 21
887.83689
  0
LINE
  8
0-8
  6
CONTINUOUS
 62
    7
 10
538.8809
 20
887.83837
 11
310.00041
 21
887.83837
  0
LINE
  8
0-8
  6
CONTINUOUS
 62
    7
 10
538.8809
 20
887.83689
 11
310.00041
 21
887.83689
  0
LINE
  8
0-2
  6
CONTINUOUS
 62
    3
 10
742.51028
 20
900.58029
 11
1357.5101
 21
900.58029
  0
LINE
  8
0-2
  6
CONTINUOUS
 62
    3
 10
742.51028
 20
887.83763
 11
1357.5101
 21
887.83763
  0
LINE
  8
0-2
  6
CONTINUOUS
 62
    3
 10
742.51028
 20
938.81048
 11
742.51028
 21
900.58029
  0
LINE
  8
0-2
  6
CONTINUOUS
 62
    3
 10
742.51028
 20
938.81048
 11
1357.5101
 21
938.81048
  0
LINE
  8
0-2
  6
CONTINUOUS
 62
    3
 10
742.50854
 20
951.55388
 11
1357.5101
 21
951.55388
  0
LINE
  8
0-8
  6
CONTINUOUS
 62
    7
 10
1459.9999
 20
779.00759
 11
1459.9999
 21
622.48284
  0
LINE
  8
0-8
  6
CONTINUOUS
 62
    7
 10
640.00016
 20
622.48284
 11
1459.9999
 21
622.48284
  0
LINE
  8
0-8
  6
CONTINUOUS
 62
    7
 10
640.00016
 20
779.00759
 11
640.00016
 21
622.48284
  0
LINE
  8
0-2
  6
CONTINUOUS
 62
    3
 10
1357.4999
 20
1292.2507
 11
1357.4999
 21
951.55388
  0
LINE
  8
0-2
  6
CONTINUOUS
 62
    3
 10
1357.5101
 20
938.81048
 11
1357.5101
 21
900.58029
  0
LINE
  8
0-8
  6
CONTINUOUS
 62
    7
 10
552.94786
 20
827.83762
 11
310.00041
 21
827.83762
  0
LINE
  8
0-4
  6
DASHED1
 62
    3
 10
1050
 20
1101.5538
 11
1357.5101
 21
1101.5538
  0
LINE
  8
0-d
  6
CONTINUOUS
 62
    4
 10
1273.4797
 20
1101.6672
 11
1422.6934
 21
1015.5186
  0
LINE
  8
0-d
  6
CONTINUOUS
 62
    4
 10
1422.6934
 20
1015.5186
 11
1475.9841
 21
1015.5186
  0
LINE
  8
0-2
  6
CONTINUOUS
 62
    3
 10
540.00131
 20
1350.9084
 11
540.00032
 21
1259.7668
  0
LINE
  8
0-2
  6
CONTINUOUS
 62
    3
 10
1560.0012
 20
1350.9084
 11
1560.0002
 21
1259.7668
  0
LINE
  8
0-2
  6
CONTINUOUS
 62
    3
 10
539.99982
 20
1865.9075
 11
1560.0012
 21
1865.9075
  0
LINE
  8
0-2
  6
CONTINUOUS
 62
    3
 10
539.99982
 20
1887.8376
 11
1560.0012
 21
1887.8376
  0
LINE
  8
0-2
  6
CONTINUOUS
 62
    3
 10
539.99982
 20
1865.9075
 11
539.99982
 21
1774.7667
  0
LINE
  8
0-2
  6
CONTINUOUS
 62
    3
 10
1560.0002
 20
1865.9075
 11
1560.0002
 21
1774.7667
  0
LINE
  8
0-2
  6
CONTINUOUS
 62
    3
 10
540.00032
 20
1237.8376
 11
640.00016
 21
1128.1886
  0
LINE
  8
0-2
  6
CONTINUOUS
 62
    3
 10
1050
 20
2137.8376
 11
799.33013
 21
2003.2712
  0
LINE
  8
0-2
  6
CONTINUOUS
 62
    3
 10
1560.0002
 20
1887.8376
 11
1460.0004
 21
1997.4861
  0
LINE
  8
0-2
  6
CONTINUOUS
 62
    3
 10
539.99982
 20
1887.8376
 11
640.00016
 21
1997.4861
  0
LINE
  8
0-2
  6
CONTINUOUS
 62
    3
 10
961.15282
 20
1988.4239
 11
961.9758
 21
1988.6644
  0
LINE
  8
0-2
  6
CONTINUOUS
 62
    3
 10
961.9758
 20
1988.6644
 11
962.7493
 21
1988.994
  0
LINE
  8
0-2
  6
CONTINUOUS
 62
    3
 10
962.7493
 20
1988.994
 11
963.47281
 21
1989.4027
  0
LINE
  8
0-2
  6
CONTINUOUS
 62
    3
 10
963.47281
 20
1989.4027
 11
964.14832
 21
1989.8867
  0
LINE
  8
0-2
  6
CONTINUOUS
 62
    3
 10
964.14832
 20
1989.8867
 11
964.77633
 21
1990.4405
  0
LINE
  8
0-2
  6
CONTINUOUS
 62
    3
 10
964.77633
 20
1990.4405
 11
965.35781
 21
1991.0561
  0
LINE
  8
0-2
  6
CONTINUOUS
 62
    3
 10
965.35781
 20
1991.0561
 11
965.89376
 21
1991.7267
  0
LINE
  8
0-2
  6
CONTINUOUS
 62
    3
 10
965.89376
 20
1991.7267
 11
966.38518
 21
1992.4492
  0
LINE
  8
0-2
  6
CONTINUOUS
 62
    3
 10
966.38518
 20
1992.4492
 11
966.83305
 21
1993.2143
  0
LINE
  8
0-2
  6
CONTINUOUS
 62
    3
 10
966.83305
 20
1993.2143
 11
967.23786
 21
1994.018
  0
LINE
  8
0-2
  6
CONTINUOUS
 62
    3
 10
967.23786
 20
1994.018
 11
967.59961
 21
1994.8533
  0
LINE
  8
0-2
  6
CONTINUOUS
 62
    3
 10
967.59961
 20
1994.8533
 11
967.92178
 21
1995.7134
  0
LINE
  8
0-2
  6
CONTINUOUS
 62
    3
 10
967.92178
 20
1995.7134
 11
968.20287
 21
1996.5938
  0
LINE
  8
0-2
  6
CONTINUOUS
 62
    3
 10
968.20287
 20
1996.5938
 11
968.44487
 21
1997.4861
  0
LINE
  8
0-2
  6
CONTINUOUS
 62
    3
 10
956.63209
 20
1988.3754
 11
955.68044
 21
1988.7109
  0
LINE
  8
0-2
  6
CONTINUOUS
 62
    3
 10
955.68044
 20
1988.7109
 11
954.78767
 21
1989.1068
  0
LINE
  8
0-2
  6
CONTINUOUS
 62
    3
 10
954.78767
 20
1989.1068
 11
953.95232
 21
1989.5606
  0
LINE
  8
0-2
  6
CONTINUOUS
 62
    3
 10
953.95232
 20
1989.5606
 11
953.17486
 21
1990.0693
  0
LINE
  8
0-2
  6
CONTINUOUS
 62
    3
 10
953.17486
 20
1990.0693
 11
952.45432
 21
1990.6291
  0
LINE
  8
0-2
  6
CONTINUOUS
 62
    3
 10
952.45432
 20
1990.6291
 11
951.78969
 21
1991.2378
  0
LINE
  8
0-2
  6
CONTINUOUS
 62
    3
 10
951.78969
 20
1991.2378
 11
951.18099
 21
1991.8925
  0
LINE
  8
0-2
  6
CONTINUOUS
 62
    3
 10
951.18099
 20
1991.8925
 11
950.62772
 21
1992.5893
  0
LINE
  8
0-2
  6
CONTINUOUS
 62
    3
 10
950.62772
 20
1992.5893
 11
950.12789
 21
1993.3252
  0
LINE
  8
0-2
  6
CONTINUOUS
 62
    3
 10
950.12789
 20
1993.3252
 11
949.6825
 21
1994.0972
  0
LINE
  8
0-2
  6
CONTINUOUS
 62
    3
 10
949.6825
 20
1994.0972
 11
949.29055
 21
1994.9028
  0
LINE
  8
0-2
  6
CONTINUOUS
 62
    3
 10
949.29055
 20
1994.9028
 11
948.95007
 21
1995.7372
  0
LINE
  8
0-2
  6
CONTINUOUS
 62
    3
 10
948.95007
 20
1995.7372
 11
948.66205
 21
1996.6003
  0
LINE
  8
0-2
  6
CONTINUOUS
 62
    3
 10
948.66205
 20
1996.6003
 11
948.42501
 21
1997.4861
  0
LINE
  8
0-2
  6
CONTINUOUS
 62
    3
 10
909.16719
 20
1997.4861
 11
908.24523
 21
1996.0148
  0
LINE
  8
0-2
  6
CONTINUOUS
 62
    3
 10
908.24523
 20
1996.0148
 11
907.31238
 21
1994.7059
  0
LINE
  8
0-2
  6
CONTINUOUS
 62
    3
 10
907.31238
 20
1994.7059
 11
906.3731
 21
1993.5498
  0
LINE
  8
0-2
  6
CONTINUOUS
 62
    3
 10
906.3731
 20
1993.5498
 11
905.42986
 21
1992.5383
  0
LINE
  8
0-2
  6
CONTINUOUS
 62
    3
 10
905.42986
 20
1992.5383
 11
904.48711
 21
1991.6619
  0
LINE
  8
0-2
  6
CONTINUOUS
 62
    3
 10
904.48711
 20
1991.6619
 11
903.54833
 21
1990.9126
  0
LINE
  8
0-2
  6
CONTINUOUS
 62
    3
 10
903.54833
 20
1990.9126
 11
902.61746
 21
1990.2807
  0
LINE
  8
0-2
  6
CONTINUOUS
 62
    3
 10
902.61746
 20
1990.2807
 11
901.69748
 21
1989.7561
  0
LINE
  8
0-2
  6
CONTINUOUS
 62
    3
 10
901.69748
 20
1989.7561
 11
900.79234
 21
1989.3305
  0
LINE
  8
0-2
  6
CONTINUOUS
 62
    3
 10
900.79234
 20
1989.3305
 11
899.90601
 21
1988.9959
  0
LINE
  8
0-2
  6
CONTINUOUS
 62
    3
 10
899.90601
 20
1988.9959
 11
899.04245
 21
1988.7421
  0
LINE
  8
0-2
  6
CONTINUOUS
 62
    3
 10
899.04245
 20
1988.7421
 11
898.20412
 21
1988.5595
  0
LINE
  8
0-2
  6
CONTINUOUS
 62
    3
 10
898.20412
 20
1988.5595
 11
897.39549
 21
1988.4402
  0
LINE
  8
0-2
  6
CONTINUOUS
 62
    3
 10
897.39549
 20
1988.4402
 11
896.62051
 21
1988.3754
  0
LINE
  8
0-2
  6
CONTINUOUS
 62
    3
 10
890.02376
 20
1997.4861
 11
890.05098
 21
1996.4281
  0
LINE
  8
0-2
  6
CONTINUOUS
 62
    3
 10
890.05098
 20
1996.4281
 11
890.13461
 21
1995.4492
  0
LINE
  8
0-2
  6
CONTINUOUS
 62
    3
 10
890.13461
 20
1995.4492
 11
890.27665
 21
1994.547
  0
LINE
  8
0-2
  6
CONTINUOUS
 62
    3
 10
890.27665
 20
1994.547
 11
890.48103
 21
1993.7156
  0
LINE
  8
0-2
  6
CONTINUOUS
 62
    3
 10
890.48103
 20
1993.7156
 11
890.75024
 21
1992.952
  0
LINE
  8
0-2
  6
CONTINUOUS
 62
    3
 10
890.75024
 20
1992.952
 11
891.088
 21
1992.2518
  0
LINE
  8
0-2
  6
CONTINUOUS
 62
    3
 10
891.088
 20
1992.2518
 11
891.49727
 21
1991.6094
  0
LINE
  8
0-2
  6
CONTINUOUS
 62
    3
 10
891.49727
 20
1991.6094
 11
891.98076
 21
1991.0205
  0
LINE
  8
0-2
  6
CONTINUOUS
 62
    3
 10
891.98076
 20
1991.0205
 11
892.54171
 21
1990.4816
  0
LINE
  8
0-2
  6
CONTINUOUS
 62
    3
 10
892.54171
 20
1990.4816
 11
893.18357
 21
1989.9877
  0
LINE
  8
0-2
  6
CONTINUOUS
 62
    3
 10
893.18357
 20
1989.9877
 11
893.90956
 21
1989.5344
  0
LINE
  8
0-2
  6
CONTINUOUS
 62
    3
 10
893.90956
 20
1989.5344
 11
894.72165
 21
1989.1177
  0
LINE
  8
0-2
  6
CONTINUOUS
 62
    3
 10
894.72165
 20
1989.1177
 11
895.62481
 21
1988.7317
  0
LINE
  8
0-2
  6
CONTINUOUS
 62
    3
 10
895.62481
 20
1988.7317
 11
896.62051
 21
1988.3754
  0
LINE
  8
0-2
  6
CONTINUOUS
 62
    3
 10
835.08519
 20
1997.4861
 11
835.55533
 21
1996.243
  0
LINE
  8
0-2
  6
CONTINUOUS
 62
    3
 10
835.55533
 20
1996.243
 11
836.04526
 21
1995.1146
  0
LINE
  8
0-2
  6
CONTINUOUS
 62
    3
 10
836.04526
 20
1995.1146
 11
836.5535
 21
1994.0972
  0
LINE
  8
0-2
  6
CONTINUOUS
 62
    3
 10
836.5535
 20
1994.0972
 11
837.08104
 21
1993.1826
  0
LINE
  8
0-2
  6
CONTINUOUS
 62
    3
 10
837.08104
 20
1993.1826
 11
837.6264
 21
1992.3681
  0
LINE
  8
0-2
  6
CONTINUOUS
 62
    3
 10
837.6264
 20
1992.3681
 11
838.18957
 21
1991.647
  0
LINE
  8
0-2
  6
CONTINUOUS
 62
    3
 10
838.18957
 20
1991.647
 11
838.76907
 21
1991.0131
  0
LINE
  8
0-2
  6
CONTINUOUS
 62
    3
 10
838.76907
 20
1991.0131
 11
839.3659
 21
1990.4623
  0
LINE
  8
0-2
  6
CONTINUOUS
 62
    3
 10
839.3659
 20
1990.4623
 11
839.97831
 21
1989.9867
  0
LINE
  8
0-2
  6
CONTINUOUS
 62
    3
 10
839.97831
 20
1989.9867
 11
840.60656
 21
1989.5839
  0
LINE
  8
0-2
  6
CONTINUOUS
 62
    3
 10
840.60656
 20
1989.5839
 11
841.2504
 21
1989.2454
  0
LINE
  8
0-2
  6
CONTINUOUS
 62
    3
 10
841.2504
 20
1989.2454
 11
841.90834
 21
1988.9677
  0
LINE
  8
0-2
  6
CONTINUOUS
 62
    3
 10
841.90834
 20
1988.9677
 11
842.58064
 21
1988.7436
  0
LINE
  8
0-2
  6
CONTINUOUS
 62
    3
 10
842.58064
 20
1988.7436
 11
843.26654
 21
1988.5694
  0
LINE
  8
0-2
  6
CONTINUOUS
 62
    3
 10
844.77493
 20
1988.5694
 11
845.49053
 21
1988.7178
  0
LINE
  8
0-2
  6
CONTINUOUS
 62
    3
 10
845.49053
 20
1988.7178
 11
846.20019
 21
1988.9559
  0
LINE
  8
0-2
  6
CONTINUOUS
 62
    3
 10
846.20019
 20
1988.9559
 11
846.90391
 21
1989.28
  0
LINE
  8
0-2
  6
CONTINUOUS
 62
    3
 10
846.90391
 20
1989.28
 11
847.60193
 21
1989.6937
  0
LINE
  8
0-2
  6
CONTINUOUS
 62
    3
 10
847.60193
 20
1989.6937
 11
848.29402
 21
1990.1936
  0
LINE
  8
0-2
  6
CONTINUOUS
 62
    3
 10
848.29402
 20
1990.1936
 11
848.98042
 21
1990.7825
  0
LINE
  8
0-2
  6
CONTINUOUS
 62
    3
 10
848.98042
 20
1990.7825
 11
849.66088
 21
1991.4595
  0
LINE
  8
0-2
  6
CONTINUOUS
 62
    3
 10
849.66088
 20
1991.4595
 11
850.3359
 21
1992.2245
  0
LINE
  8
0-2
  6
CONTINUOUS
 62
    3
 10
850.3359
 20
1992.2245
 11
851.00473
 21
1993.0767
  0
LINE
  8
0-2
  6
CONTINUOUS
 62
    3
 10
784.79873
 20
1997.4861
 11
784.93507
 21
1996.5379
  0
LINE
  8
0-2
  6
CONTINUOUS
 62
    3
 10
784.93507
 20
1996.5379
 11
785.12808
 21
1995.656
  0
LINE
  8
0-2
  6
CONTINUOUS
 62
    3
 10
785.12808
 20
1995.656
 11
785.37354
 21
1994.8365
  0
LINE
  8
0-2
  6
CONTINUOUS
 62
    3
 10
785.37354
 20
1994.8365
 11
785.6675
 21
1994.0774
  0
LINE
  8
0-2
  6
CONTINUOUS
 62
    3
 10
785.6675
 20
1994.0774
 11
786.00451
 21
1993.3746
  0
LINE
  8
0-2
  6
CONTINUOUS
 62
    3
 10
786.00451
 20
1993.3746
 11
786.3821
 21
1992.7283
  0
LINE
  8
0-2
  6
CONTINUOUS
 62
    3
 10
786.3821
 20
1992.7283
 11
786.79533
 21
1992.1345
  0
LINE
  8
0-2
  6
CONTINUOUS
 62
    3
 10
786.79533
 20
1992.1345
 11
787.24097
 21
1991.5921
  0
LINE
  8
0-2
  6
CONTINUOUS
 62
    3
 10
787.24097
 20
1991.5921
 11
787.7158
 21
1991.0982
  0
LINE
  8
0-2
  6
CONTINUOUS
 62
    3
 10
787.7158
 20
1991.0982
 11
788.21662
 21
1990.6518
  0
LINE
  8
0-2
  6
CONTINUOUS
 62
    3
 10
788.21662
 20
1990.6518
 11
788.7402
 21
1990.252
  0
LINE
  8
0-2
  6
CONTINUOUS
 62
    3
 10
788.7402
 20
1990.252
 11
789.28507
 21
1989.8966
  0
LINE
  8
0-2
  6
CONTINUOUS
 62
    3
 10
789.28507
 20
1989.8966
 11
789.84675
 21
1989.5839
  0
LINE
  8
0-2
  6
CONTINUOUS
 62
    3
 10
789.84675
 20
1989.5839
 11
790.42527
 21
1989.3142
  0
LINE
  8
0-2
  6
CONTINUOUS
 62
    3
 10
790.42527
 20
1989.3142
 11
791.01665
 21
1989.085
  0
LINE
  8
0-2
  6
CONTINUOUS
 62
    3
 10
791.01665
 20
1989.085
 11
791.62065
 21
1988.896
  0
LINE
  8
0-2
  6
CONTINUOUS
 62
    3
 10
791.62065
 20
1988.896
 11
792.23504
 21
1988.7475
  0
LINE
  8
0-2
  6
CONTINUOUS
 62
    3
 10
792.23504
 20
1988.7475
 11
792.8581
 21
1988.6396
  0
LINE
  8
0-2
  6
CONTINUOUS
 62
    3
 10
792.8581
 20
1988.6396
 11
793.48956
 21
1988.5694
  0
LINE
  8
0-2
  6
CONTINUOUS
 62
    3
 10
793.64891
 20
1988.5778
 11
794.00473
 21
1988.6159
  0
LINE
  8
0-2
  6
CONTINUOUS
 62
    3
 10
794.00473
 20
1988.6159
 11
794.35387
 21
1988.6713
  0
LINE
  8
0-2
  6
CONTINUOUS
 62
    3
 10
794.35387
 20
1988.6713
 11
794.69732
 21
1988.7436
  0
LINE
  8
0-2
  6
CONTINUOUS
 62
    3
 10
794.69732
 20
1988.7436
 11
795.03408
 21
1988.8331
  0
LINE
  8
0-2
  6
CONTINUOUS
 62
    3
 10
795.03408
 20
1988.8331
 11
795.36541
 21
1988.9385
  0
LINE
  8
0-2
  6
CONTINUOUS
 62
    3
 10
795.36541
 20
1988.9385
 11
795.69029
 21
1989.0613
  0
LINE
  8
0-2
  6
CONTINUOUS
 62
    3
 10
795.69029
 20
1989.0613
 11
796.009
 21
1989.2003
  0
LINE
  8
0-2
  6
CONTINUOUS
 62
    3
 10
796.009
 20
1989.2003
 11
796.32127
 21
1989.3567
  0
LINE
  8
0-2
  6
CONTINUOUS
 62
    3
 10
796.32127
 20
1989.3567
 11
796.62809
 21
1989.5299
  0
LINE
  8
0-2
  6
CONTINUOUS
 62
    3
 10
649.96159
 20
1997.4861
 11
650.08333
 21
1996.4894
  0
LINE
  8
0-2
  6
CONTINUOUS
 62
    3
 10
650.08333
 20
1996.4894
 11
650.212
 21
1995.5778
  0
LINE
  8
0-2
  6
CONTINUOUS
 62
    3
 10
650.212
 20
1995.5778
 11
650.34809
 21
1994.7534
  0
LINE
  8
0-2
  6
CONTINUOUS
 62
    3
 10
650.34809
 20
1994.7534
 11
650.49087
 21
1994.0135
  0
LINE
  8
0-2
  6
CONTINUOUS
 62
    3
 10
650.49087
 20
1994.0135
 11
650.64081
 21
1993.3608
  0
LINE
  8
0-2
  6
CONTINUOUS
 62
    3
 10
650.64081
 20
1993.3608
 11
650.79794
 21
1992.7937
  0
LINE
  8
0-2
  6
CONTINUOUS
 62
    3
 10
650.79794
 20
1992.7937
 11
650.96174
 21
1992.3126
  0
LINE
  8
0-2
  6
CONTINUOUS
 62
    3
 10
650.96174
 20
1992.3126
 11
651.13347
 21
1991.9177
  0
LINE
  8
0-2
  6
CONTINUOUS
 62
    3
 10
651.13347
 20
1991.9177
 11
651.31162
 21
1991.6094
  0
LINE
  8
0-2
  6
CONTINUOUS
 62
    3
 10
672.09707
 20
1997.4861
 11
672.16486
 21
1996.6973
  0
LINE
  8
0-2
  6
CONTINUOUS
 62
    3
 10
672.16486
 20
1996.6973
 11
672.27621
 21
1995.951
  0
LINE
  8
0-2
  6
CONTINUOUS
 62
    3
 10
672.27621
 20
1995.951
 11
672.42591
 21
1995.2468
  0
LINE
  8
0-2
  6
CONTINUOUS
 62
    3
 10
672.42591
 20
1995.2468
 11
672.61149
 21
1994.5861
  0
LINE
  8
0-2
  6
CONTINUOUS
 62
    3
 10
672.61149
 20
1994.5861
 11
672.82751
 21
1993.9695
  0
LINE
  8
0-2
  6
CONTINUOUS
 62
    3
 10
672.82751
 20
1993.9695
 11
673.07
 21
1993.3964
  0
LINE
  8
0-2
  6
CONTINUOUS
 62
    3
 10
673.07
 20
1993.3964
 11
673.33476
 21
1992.8669
  0
LINE
  8
0-2
  6
CONTINUOUS
 62
    3
 10
673.33476
 20
1992.8669
 11
673.61684
 21
1992.3824
  0
LINE
  8
0-2
  6
CONTINUOUS
 62
    3
 10
673.61684
 20
1992.3824
 11
673.91228
 21
1991.9415
  0
LINE
  8
0-2
  6
CONTINUOUS
 62
    3
 10
673.91228
 20
1991.9415
 11
674.21663
 21
1991.5456
  0
LINE
  8
0-2
  6
CONTINUOUS
 62
    3
 10
674.21663
 20
1991.5456
 11
674.52569
 21
1991.1952
  0
LINE
  8
0-2
  6
CONTINUOUS
 62
    3
 10
674.52569
 20
1991.1952
 11
674.83573
 21
1990.8894
  0
LINE
  8
0-2
  6
CONTINUOUS
 62
    3
 10
674.83573
 20
1990.8894
 11
675.14156
 21
1990.6291
  0
LINE
  8
0-2
  6
CONTINUOUS
 62
    3
 10
675.14156
 20
1990.6291
 11
675.43899
 21
1990.4133
  0
LINE
  8
0-2
  6
CONTINUOUS
 62
    3
 10
702.41364
 20
1997.4861
 11
702.61431
 21
1996.6077
  0
LINE
  8
0-2
  6
CONTINUOUS
 62
    3
 10
702.61431
 20
1996.6077
 11
702.85903
 21
1995.7852
  0
LINE
  8
0-2
  6
CONTINUOUS
 62
    3
 10
702.85903
 20
1995.7852
 11
703.14582
 21
1995.0171
  0
LINE
  8
0-2
  6
CONTINUOUS
 62
    3
 10
703.14582
 20
1995.0171
 11
703.47293
 21
1994.305
  0
LINE
  8
0-2
  6
CONTINUOUS
 62
    3
 10
703.47293
 20
1994.305
 11
703.83815
 21
1993.6468
  0
LINE
  8
0-2
  6
CONTINUOUS
 62
    3
 10
703.83815
 20
1993.6468
 11
704.2395
 21
1993.0431
  0
LINE
  8
0-2
  6
CONTINUOUS
 62
    3
 10
704.2395
 20
1993.0431
 11
704.67598
 21
1992.4938
  0
LINE
  8
0-2
  6
CONTINUOUS
 62
    3
 10
704.67598
 20
1992.4938
 11
705.14612
 21
1991.9969
  0
LINE
  8
0-2
  6
CONTINUOUS
 62
    3
 10
705.14612
 20
1991.9969
 11
705.64743
 21
1991.5535
  0
LINE
  8
0-2
  6
CONTINUOUS
 62
    3
 10
705.64743
 20
1991.5535
 11
706.17844
 21
1991.162
  0
LINE
  8
0-2
  6
CONTINUOUS
 62
    3
 10
706.17844
 20
1991.162
 11
706.73716
 21
1990.823
  0
LINE
  8
0-2
  6
CONTINUOUS
 62
    3
 10
706.73716
 20
1990.823
 11
707.32211
 21
1990.536
  0
LINE
  8
0-2
  6
CONTINUOUS
 62
    3
 10
707.32211
 20
1990.536
 11
707.9313
 21
1990.3005
  0
LINE
  8
0-2
  6
CONTINUOUS
 62
    3
 10
707.9313
 20
1990.3005
 11
708.56326
 21
1990.1154
  0
LINE
  8
0-2
  6
CONTINUOUS
 62
    3
 10
740.23655
 20
1997.4861
 11
740.54041
 21
1996.5656
  0
LINE
  8
0-2
  6
CONTINUOUS
 62
    3
 10
740.54041
 20
1996.5656
 11
740.89672
 21
1995.7115
  0
LINE
  8
0-2
  6
CONTINUOUS
 62
    3
 10
740.89672
 20
1995.7115
 11
741.30054
 21
1994.9251
  0
LINE
  8
0-2
  6
CONTINUOUS
 62
    3
 10
741.30054
 20
1994.9251
 11
741.74791
 21
1994.206
  0
LINE
  8
0-2
  6
CONTINUOUS
 62
    3
 10
741.74791
 20
1994.206
 11
742.23438
 21
1993.5558
  0
LINE
  8
0-2
  6
CONTINUOUS
 62
    3
 10
742.23438
 20
1993.5558
 11
742.75549
 21
1992.9728
  0
LINE
  8
0-2
  6
CONTINUOUS
 62
    3
 10
742.75549
 20
1992.9728
 11
743.30629
 21
1992.4561
  0
LINE
  8
0-2
  6
CONTINUOUS
 62
    3
 10
743.30629
 20
1992.4561
 11
743.88233
 21
1992.0058
  0
LINE
  8
0-2
  6
CONTINUOUS
 62
    3
 10
743.88233
 20
1992.0058
 11
744.47916
 21
1991.6213
  0
LINE
  8
0-2
  6
CONTINUOUS
 62
    3
 10
744.47916
 20
1991.6213
 11
745.09083
 21
1991.3016
  0
LINE
  8
0-2
  6
CONTINUOUS
 62
    3
 10
745.09083
 20
1991.3016
 11
745.71289
 21
1991.0448
  0
LINE
  8
0-2
  6
CONTINUOUS
 62
    3
 10
745.71289
 20
1991.0448
 11
746.3404
 21
1990.8488
  0
LINE
  8
0-2
  6
CONTINUOUS
 62
    3
 10
746.3404
 20
1990.8488
 11
746.96741
 21
1990.7127
  0
LINE
  8
0-2
  6
CONTINUOUS
 62
    3
 10
746.96741
 20
1990.7127
 11
747.58898
 21
1990.635
  0
LINE
  8
0-2
  6
CONTINUOUS
 62
    3
 10
747.58898
 20
1990.635
 11
748.19917
 21
1990.6107
  0
LINE
  8
0-2
  6
CONTINUOUS
 62
    3
 10
748.19917
 20
1990.6107
 11
748.79203
 21
1990.6399
  0
LINE
  8
0-2
  6
CONTINUOUS
 62
    3
 10
748.79203
 20
1990.6399
 11
749.36263
 21
1990.7181
  0
LINE
  8
0-2
  6
CONTINUOUS
 62
    3
 10
749.36263
 20
1990.7181
 11
749.90452
 21
1990.8428
  0
LINE
  8
0-2
  6
CONTINUOUS
 62
    3
 10
749.90452
 20
1990.8428
 11
750.41177
 21
1991.0111
  0
LINE
  8
0-2
  6
CONTINUOUS
 62
    3
 10
649.96159
 20
1997.4861
 11
640.00016
 21
1997.4861
  0
LINE
  8
0-2
  6
CONTINUOUS
 62
    3
 10
552.39112
 20
1887.8376
 11
649.96159
 21
1997.4861
  0
LINE
  8
0-2
  6
CONTINUOUS
 62
    3
 10
656.39775
 20
1997.4861
 11
560.39728
 21
1887.8376
  0
LINE
  8
0-2
  6
CONTINUOUS
 62
    3
 10
579.92573
 20
1887.8376
 11
672.09707
 21
1997.4861
  0
LINE
  8
0-2
  6
CONTINUOUS
 62
    3
 10
672.09707
 20
1997.4861
 11
656.39775
 21
1997.4861
  0
LINE
  8
0-2
  6
CONTINUOUS
 62
    3
 10
681.32261
 20
1997.4861
 11
591.401
 21
1887.8376
  0
LINE
  8
0-2
  6
CONTINUOUS
 62
    3
 10
702.41364
 20
1997.4861
 11
681.32261
 21
1997.4861
  0
LINE
  8
0-2
  6
CONTINUOUS
 62
    3
 10
617.63605
 20
1887.8376
 11
702.41364
 21
1997.4861
  0
LINE
  8
0-2
  6
CONTINUOUS
 62
    3
 10
714.22815
 20
1997.4861
 11
632.332
 21
1887.8376
  0
LINE
  8
0-2
  6
CONTINUOUS
 62
    3
 10
740.25338
 20
1997.4861
 11
714.22815
 21
1997.4861
  0
LINE
  8
0-2
  6
CONTINUOUS
 62
    3
 10
664.70554
 20
1887.8376
 11
740.25338
 21
1997.4861
  0
LINE
  8
0-2
  6
CONTINUOUS
 62
    3
 10
754.40199
 20
1997.4861
 11
682.30495
 21
1887.8376
  0
LINE
  8
0-2
  6
CONTINUOUS
 62
    3
 10
784.79873
 20
1997.4861
 11
754.40199
 21
1997.4861
  0
LINE
  8
0-2
  6
CONTINUOUS
 62
    3
 10
720.11573
 20
1887.8376
 11
784.79873
 21
1997.4861
  0
LINE
  8
0-2
  6
CONTINUOUS
 62
    3
 10
800.97462
 20
1997.4861
 11
740.23655
 21
1887.8376
  0
LINE
  8
0-2
  6
CONTINUOUS
 62
    3
 10
835.08519
 20
1997.4861
 11
800.97462
 21
1997.4861
  0
LINE
  8
0-2
  6
CONTINUOUS
 62
    3
 10
782.66704
 20
1887.8376
 11
835.08519
 21
1997.4861
  0
LINE
  8
0-2
  6
CONTINUOUS
 62
    3
 10
852.93797
 20
1997.4861
 11
804.87378
 21
1887.8376
  0
LINE
  8
0-2
  6
CONTINUOUS
 62
    3
 10
890.02376
 20
1997.4861
 11
852.93797
 21
1997.4861
  0
LINE
  8
0-2
  6
CONTINUOUS
 62
    3
 10
851.00473
 20
1887.8376
 11
890.02376
 21
1997.4861
  0
LINE
  8
0-2
  6
CONTINUOUS
 62
    3
 10
874.8171
 20
1887.8376
 11
909.16719
 21
1997.4861
  0
LINE
  8
0-2
  6
CONTINUOUS
 62
    3
 10
948.42501
 20
1997.4861
 11
909.16719
 21
1997.4861
  0
LINE
  8
0-2
  6
CONTINUOUS
 62
    3
 10
948.42501
 20
1997.4861
 11
923.65034
 21
1887.8376
  0
LINE
  8
0-2
  6
CONTINUOUS
 62
    3
 10
948.55318
 20
1887.8376
 11
968.44487
 21
1997.4861
  0
LINE
  8
0-2
  6
CONTINUOUS
 62
    3
 10
1009.0255
 20
1997.4861
 11
968.44487
 21
1997.4861
  0
LINE
  8
0-2
  6
CONTINUOUS
 62
    3
 10
1009.0255
 20
1997.4861
 11
999.0314
 21
1887.8376
  0
LINE
  8
0-2
  6
CONTINUOUS
 62
    3
 10
1029.4882
 20
1997.4861
 11
1024.485
 21
1887.8376
  0
LINE
  8
0-2
  6
CONTINUOUS
 62
    3
 10
1050
 20
1997.4861
 11
1029.4882
 21
1997.4861
  0
LINE
  8
0-2
  6
CONTINUOUS
 62
    3
 10
1560.0002
 20
1887.8376
 11
1460.0004
 21
1997.4861
  0
LINE
  8
0-2
  6
CONTINUOUS
 62
    3
 10
1450.039
 20
1997.4861
 11
1449.9172
 21
1996.4894
  0
LINE
  8
0-2
  6
CONTINUOUS
 62
    3
 10
1449.9172
 20
1996.4894
 11
1449.7881
 21
1995.5778
  0
LINE
  8
0-2
  6
CONTINUOUS
 62
    3
 10
1449.7881
 20
1995.5778
 11
1449.6525
 21
1994.7534
  0
LINE
  8
0-2
  6
CONTINUOUS
 62
    3
 10
1449.6525
 20
1994.7534
 11
1449.5094
 21
1994.0135
  0
LINE
  8
0-2
  6
CONTINUOUS
 62
    3
 10
1449.5094
 20
1994.0135
 11
1449.359
 21
1993.3608
  0
LINE
  8
0-2
  6
CONTINUOUS
 62
    3
 10
1449.359
 20
1993.3608
 11
1449.2026
 21
1992.7937
  0
LINE
  8
0-2
  6
CONTINUOUS
 62
    3
 10
1449.2026
 20
1992.7937
 11
1449.0383
 21
1992.3126
  0
LINE
  8
0-2
  6
CONTINUOUS
 62
    3
 10
1449.0383
 20
1992.3126
 11
1448.8671
 21
1991.9177
  0
LINE
  8
0-2
  6
CONTINUOUS
 62
    3
 10
1448.8671
 20
1991.9177
 11
1448.6884
 21
1991.6094
  0
LINE
  8
0-2
  6
CONTINUOUS
 62
    3
 10
1427.903
 20
1997.4861
 11
1427.8352
 21
1996.6973
  0
LINE
  8
0-2
  6
CONTINUOUS
 62
    3
 10
1427.8352
 20
1996.6973
 11
1427.7243
 21
1995.951
  0
LINE
  8
0-2
  6
CONTINUOUS
 62
    3
 10
1427.7243
 20
1995.951
 11
1427.5739
 21
1995.2468
  0
LINE
  8
0-2
  6
CONTINUOUS
 62
    3
 10
1427.5739
 20
1995.2468
 11
1427.3888
 21
1994.5861
  0
LINE
  8
0-2
  6
CONTINUOUS
 62
    3
 10
1427.3888
 20
1994.5861
 11
1427.1725
 21
1993.9695
  0
LINE
  8
0-2
  6
CONTINUOUS
 62
    3
 10
1427.1725
 20
1993.9695
 11
1426.9305
 21
1993.3964
  0
LINE
  8
0-2
  6
CONTINUOUS
 62
    3
 10
1426.9305
 20
1993.3964
 11
1426.6658
 21
1992.8669
  0
LINE
  8
0-2
  6
CONTINUOUS
 62
    3
 10
1426.6658
 20
1992.8669
 11
1426.3832
 21
1992.3824
  0
LINE
  8
0-2
  6
CONTINUOUS
 62
    3
 10
1426.3832
 20
1992.3824
 11
1426.0878
 21
1991.9415
  0
LINE
  8
0-2
  6
CONTINUOUS
 62
    3
 10
1426.0878
 20
1991.9415
 11
1425.7839
 21
1991.5456
  0
LINE
  8
0-2
  6
CONTINUOUS
 62
    3
 10
1425.7839
 20
1991.5456
 11
1425.4741
 21
1991.1952
  0
LINE
  8
0-2
  6
CONTINUOUS
 62
    3
 10
1425.4741
 20
1991.1952
 11
1425.1648
 21
1990.8894
  0
LINE
  8
0-2
  6
CONTINUOUS
 62
    3
 10
1425.1648
 20
1990.8894
 11
1424.859
 21
1990.6291
  0
LINE
  8
0-2
  6
CONTINUOUS
 62
    3
 10
1424.859
 20
1990.6291
 11
1424.5616
 21
1990.4133
  0
LINE
  8
0-2
  6
CONTINUOUS
 62
    3
 10
1397.5862
 20
1997.4861
 11
1397.3857
 21
1996.6077
  0
LINE
  8
0-2
  6
CONTINUOUS
 62
    3
 10
1397.3857
 20
1996.6077
 11
1397.1408
 21
1995.7852
  0
LINE
  8
0-2
  6
CONTINUOUS
 62
    3
 10
1397.1408
 20
1995.7852
 11
1396.8547
 21
1995.0171
  0
LINE
  8
0-2
  6
CONTINUOUS
 62
    3
 10
1396.8547
 20
1995.0171
 11
1396.5281
 21
1994.305
  0
LINE
  8
0-2
  6
CONTINUOUS
 62
    3
 10
1396.5281
 20
1994.305
 11
1396.1624
 21
1993.6468
  0
LINE
  8
0-2
  6
CONTINUOUS
 62
    3
 10
1396.1624
 20
1993.6468
 11
1395.7606
 21
1993.0431
  0
LINE
  8
0-2
  6
CONTINUOUS
 62
    3
 10
1395.7606
 20
1993.0431
 11
1395.3241
 21
1992.4938
  0
LINE
  8
0-2
  6
CONTINUOUS
 62
    3
 10
1395.3241
 20
1992.4938
 11
1394.8539
 21
1991.9969
  0
LINE
  8
0-2
  6
CONTINUOUS
 62
    3
 10
1394.8539
 20
1991.9969
 11
1394.3531
 21
1991.5535
  0
LINE
  8
0-2
  6
CONTINUOUS
 62
    3
 10
1394.3531
 20
1991.5535
 11
1393.8221
 21
1991.162
  0
LINE
  8
0-2
  6
CONTINUOUS
 62
    3
 10
1393.8221
 20
1991.162
 11
1393.2634
 21
1990.823
  0
LINE
  8
0-2
  6
CONTINUOUS
 62
    3
 10
1393.2634
 20
1990.823
 11
1392.6779
 21
1990.536
  0
LINE
  8
0-2
  6
CONTINUOUS
 62
    3
 10
1392.6779
 20
1990.536
 11
1392.0687
 21
1990.3005
  0
LINE
  8
0-2
  6
CONTINUOUS
 62
    3
 10
1392.0687
 20
1990.3005
 11
1391.4368
 21
1990.1154
  0
LINE
  8
0-2
  6
CONTINUOUS
 62
    3
 10
1359.764
 20
1997.4861
 11
1359.4601
 21
1996.5656
  0
LINE
  8
0-2
  6
CONTINUOUS
 62
    3
 10
1359.4601
 20
1996.5656
 11
1359.1038
 21
1995.7115
  0
LINE
  8
0-2
  6
CONTINUOUS
 62
    3
 10
1359.1038
 20
1995.7115
 11
1358.6995
 21
1994.9251
  0
LINE
  8
0-2
  6
CONTINUOUS
 62
    3
 10
1358.6995
 20
1994.9251
 11
1358.2526
 21
1994.206
  0
LINE
  8
0-2
  6
CONTINUOUS
 62
    3
 10
1358.2526
 20
1994.206
 11
1357.7657
 21
1993.5558
  0
LINE
  8
0-2
  6
CONTINUOUS
 62
    3
 10
1357.7657
 20
1993.5558
 11
1357.2451
 21
1992.9728
  0
LINE
  8
0-2
  6
CONTINUOUS
 62
    3
 10
1357.2451
 20
1992.9728
 11
1356.6938
 21
1992.4561
  0
LINE
  8
0-2
  6
CONTINUOUS
 62
    3
 10
1356.6938
 20
1992.4561
 11
1356.1182
 21
1992.0058
  0
LINE
  8
0-2
  6
CONTINUOUS
 62
    3
 10
1356.1182
 20
1992.0058
 11
1355.5204
 21
1991.6213
  0
LINE
  8
0-2
  6
CONTINUOUS
 62
    3
 10
1355.5204
 20
1991.6213
 11
1354.9092
 21
1991.3016
  0
LINE
  8
0-2
  6
CONTINUOUS
 62
    3
 10
1354.9092
 20
1991.3016
 11
1354.2872
 21
1991.0448
  0
LINE
  8
0-2
  6
CONTINUOUS
 62
    3
 10
1354.2872
 20
1991.0448
 11
1353.6597
 21
1990.8488
  0
LINE
  8
0-2
  6
CONTINUOUS
 62
    3
 10
1353.6597
 20
1990.8488
 11
1353.0326
 21
1990.7127
  0
LINE
  8
0-2
  6
CONTINUOUS
 62
    3
 10
1353.0326
 20
1990.7127
 11
1352.4116
 21
1990.635
  0
LINE
  8
0-2
  6
CONTINUOUS
 62
    3
 10
1352.4116
 20
1990.635
 11
1351.8014
 21
1990.6107
  0
LINE
  8
0-2
  6
CONTINUOUS
 62
    3
 10
1351.8014
 20
1990.6107
 11
1351.208
 21
1990.6399
  0
LINE
  8
0-2
  6
CONTINUOUS
 62
    3
 10
1351.208
 20
1990.6399
 11
1350.6379
 21
1990.7181
  0
LINE
  8
0-2
  6
CONTINUOUS
 62
    3
 10
1350.6379
 20
1990.7181
 11
1350.096
 21
1990.8428
  0
LINE
  8
0-2
  6
CONTINUOUS
 62
    3
 10
1350.096
 20
1990.8428
 11
1349.5888
 21
1991.0111
  0
LINE
  8
0-2
  6
CONTINUOUS
 62
    3
 10
1450.039
 20
1997.4861
 11
1460.0004
 21
1997.4861
  0
LINE
  8
0-2
  6
CONTINUOUS
 62
    3
 10
1547.6089
 20
1887.8376
 11
1450.039
 21
1997.4861
  0
LINE
  8
0-2
  6
CONTINUOUS
 62
    3
 10
1443.6021
 20
1997.4861
 11
1539.6028
 21
1887.8376
  0
LINE
  8
0-2
  6
CONTINUOUS
 62
    3
 10
1520.0748
 20
1887.8376
 11
1427.903
 21
1997.4861
  0
LINE
  8
0-2
  6
CONTINUOUS
 62
    3
 10
1427.903
 20
1997.4861
 11
1443.6021
 21
1997.4861
  0
LINE
  8
0-2
  6
CONTINUOUS
 62
    3
 10
1418.6774
 20
1997.4861
 11
1508.5991
 21
1887.8376
  0
LINE
  8
0-2
  6
CONTINUOUS
 62
    3
 10
1397.5862
 20
1997.4861
 11
1418.6774
 21
1997.4861
  0
LINE
  8
0-2
  6
CONTINUOUS
 62
    3
 10
1482.364
 20
1887.8376
 11
1397.5862
 21
1997.4861
  0
LINE
  8
0-2
  6
CONTINUOUS
 62
    3
 10
1359.7467
 20
1997.4861
 11
1385.7719
 21
1997.4861
  0
LINE
  8
0-2
  6
CONTINUOUS
 62
    3
 10
1315.2011
 20
1997.4861
 11
1345.5986
 21
1997.4861
  0
LINE
  8
0-2
  6
CONTINUOUS
 62
    3
 10
999.0314
 20
1752.8376
 11
999.0314
 21
1372.8375
  0
LINE
  8
0-2
  6
CONTINUOUS
 62
    3
 10
948.55318
 20
1752.8376
 11
948.55318
 21
1372.8375
  0
LINE
  8
0-2
  6
CONTINUOUS
 62
    3
 10
851.00473
 20
1752.8376
 11
851.00473
 21
1372.8375
  0
LINE
  8
0-2
  6
CONTINUOUS
 62
    3
 10
804.87378
 20
1752.8376
 11
804.87378
 21
1372.8375
  0
LINE
  8
0-2
  6
CONTINUOUS
 62
    3
 10
720.11573
 20
1752.8376
 11
720.11573
 21
1372.8375
  0
LINE
  8
0-2
  6
CONTINUOUS
 62
    3
 10
682.30495
 20
1752.8376
 11
682.30495
 21
1372.8375
  0
LINE
  8
0-2
  6
CONTINUOUS
 62
    3
 10
617.63605
 20
1752.8376
 11
617.63605
 21
1372.8375
  0
LINE
  8
0-2
  6
CONTINUOUS
 62
    3
 10
948.55318
 20
1372.8375
 11
851.00473
 21
1399.418
  0
LINE
  8
0-2
  6
CONTINUOUS
 62
    3
 10
682.30495
 20
1372.8375
 11
617.63605
 21
1399.418
  0
LINE
  8
0-2
  6
CONTINUOUS
 62
    3
 10
737.22521
 20
1752.8376
 11
737.22521
 21
1372.8375
  0
LINE
  8
0-2
  6
CONTINUOUS
 62
    3
 10
757.22577
 20
1752.8376
 11
757.22577
 21
1372.8375
  0
LINE
  8
0-2
  6
CONTINUOUS
 62
    3
 10
804.87378
 20
1372.8375
 11
757.22577
 21
1387.7799
  0
LINE
  8
0-2
  6
CONTINUOUS
 62
    3
 10
737.22521
 20
1394.0525
 11
720.11573
 21
1399.418
  0
LINE
  8
0-2
  6
CONTINUOUS
 62
    3
 10
539.99982
 20
1259.7672
 11
539.99982
 21
1350.9094
  0
LINE
  8
0-2
  6
CONTINUOUS
 62
    3
 10
1482.364
 20
1752.8376
 11
1482.364
 21
1372.8375
  0
LINE
  8
0-2
  6
CONTINUOUS
 62
    3
 10
1560.0002
 20
1237.8376
 11
1460.0004
 21
1128.1886
  0
LINE
  8
0-2
  6
CONTINUOUS
 62
    3
 10
539.99982
 20
1237.8376
 11
640.00016
 21
1128.1886
  0
LINE
  8
0-2
  6
CONTINUOUS
 62
    3
 10
961.15282
 20
1137.2519
 11
961.9758
 21
1137.0099
  0
LINE
  8
0-2
  6
CONTINUOUS
 62
    3
 10
961.9758
 20
1137.0099
 11
962.7493
 21
1136.6818
  0
LINE
  8
0-2
  6
CONTINUOUS
 62
    3
 10
962.7493
 20
1136.6818
 11
963.47281
 21
1136.2725
  0
LINE
  8
0-2
  6
CONTINUOUS
 62
    3
 10
963.47281
 20
1136.2725
 11
964.14832
 21
1135.788
  0
LINE
  8
0-2
  6
CONTINUOUS
 62
    3
 10
964.14832
 20
1135.788
 11
964.77633
 21
1135.2347
  0
LINE
  8
0-2
  6
CONTINUOUS
 62
    3
 10
964.77633
 20
1135.2347
 11
965.35781
 21
1134.6196
  0
LINE
  8
0-2
  6
CONTINUOUS
 62
    3
 10
965.35781
 20
1134.6196
 11
965.89376
 21
1133.9481
  0
LINE
  8
0-2
  6
CONTINUOUS
 62
    3
 10
965.89376
 20
1133.9481
 11
966.38518
 21
1133.2265
  0
LINE
  8
0-2
  6
CONTINUOUS
 62
    3
 10
966.38518
 20
1133.2265
 11
966.83305
 21
1132.4609
  0
LINE
  8
0-2
  6
CONTINUOUS
 62
    3
 10
966.83305
 20
1132.4609
 11
967.23786
 21
1131.6573
  0
LINE
  8
0-2
  6
CONTINUOUS
 62
    3
 10
967.23786
 20
1131.6573
 11
967.59961
 21
1130.8219
  0
LINE
  8
0-2
  6
CONTINUOUS
 62
    3
 10
967.59961
 20
1130.8219
 11
967.92178
 21
1129.9618
  0
LINE
  8
0-2
  6
CONTINUOUS
 62
    3
 10
967.92178
 20
1129.9618
 11
968.20287
 21
1129.0819
  0
LINE
  8
0-2
  6
CONTINUOUS
 62
    3
 10
968.20287
 20
1129.0819
 11
968.44487
 21
1128.1886
  0
LINE
  8
0-2
  6
CONTINUOUS
 62
    3
 10
956.63209
 20
1137.3009
 11
955.68044
 21
1136.9643
  0
LINE
  8
0-2
  6
CONTINUOUS
 62
    3
 10
955.68044
 20
1136.9643
 11
954.78767
 21
1136.5684
  0
LINE
  8
0-2
  6
CONTINUOUS
 62
    3
 10
954.78767
 20
1136.5684
 11
953.95232
 21
1136.1151
  0
LINE
  8
0-2
  6
CONTINUOUS
 62
    3
 10
953.95232
 20
1136.1151
 11
953.17486
 21
1135.6054
  0
LINE
  8
0-2
  6
CONTINUOUS
 62
    3
 10
953.17486
 20
1135.6054
 11
952.45432
 21
1135.0462
  0
LINE
  8
0-2
  6
CONTINUOUS
 62
    3
 10
952.45432
 20
1135.0462
 11
951.78969
 21
1134.4365
  0
LINE
  8
0-2
  6
CONTINUOUS
 62
    3
 10
951.78969
 20
1134.4365
 11
951.18099
 21
1133.7823
  0
LINE
  8
0-2
  6
CONTINUOUS
 62
    3
 10
951.18099
 20
1133.7823
 11
950.62772
 21
1133.0865
  0
LINE
  8
0-2
  6
CONTINUOUS
 62
    3
 10
950.62772
 20
1133.0865
 11
950.12789
 21
1132.3506
  0
LINE
  8
0-2
  6
CONTINUOUS
 62
    3
 10
950.12789
 20
1132.3506
 11
949.6825
 21
1131.5781
  0
LINE
  8
0-2
  6
CONTINUOUS
 62
    3
 10
949.6825
 20
1131.5781
 11
949.29055
 21
1130.7724
  0
LINE
  8
0-2
  6
CONTINUOUS
 62
    3
 10
949.29055
 20
1130.7724
 11
948.95007
 21
1129.938
  0
LINE
  8
0-2
  6
CONTINUOUS
 62
    3
 10
948.95007
 20
1129.938
 11
948.66205
 21
1129.0753
  0
LINE
  8
0-2
  6
CONTINUOUS
 62
    3
 10
948.66205
 20
1129.0753
 11
948.42501
 21
1128.1886
  0
LINE
  8
0-2
  6
CONTINUOUS
 62
    3
 10
909.16719
 20
1128.1886
 11
908.24523
 21
1129.6609
  0
LINE
  8
0-2
  6
CONTINUOUS
 62
    3
 10
908.24523
 20
1129.6609
 11
907.31238
 21
1130.9699
  0
LINE
  8
0-2
  6
CONTINUOUS
 62
    3
 10
907.31238
 20
1130.9699
 11
906.3731
 21
1132.1254
  0
LINE
  8
0-2
  6
CONTINUOUS
 62
    3
 10
906.3731
 20
1132.1254
 11
905.42986
 21
1133.1369
  0
LINE
  8
0-2
  6
CONTINUOUS
 62
    3
 10
905.42986
 20
1133.1369
 11
904.48711
 21
1134.0134
  0
LINE
  8
0-2
  6
CONTINUOUS
 62
    3
 10
904.48711
 20
1134.0134
 11
903.54833
 21
1134.7621
  0
LINE
  8
0-2
  6
CONTINUOUS
 62
    3
 10
903.54833
 20
1134.7621
 11
902.61746
 21
1135.3951
  0
LINE
  8
0-2
  6
CONTINUOUS
 62
    3
 10
902.61746
 20
1135.3951
 11
901.69748
 21
1135.9192
  0
LINE
  8
0-2
  6
CONTINUOUS
 62
    3
 10
901.69748
 20
1135.9192
 11
900.79234
 21
1136.3448
  0
LINE
  8
0-2
  6
CONTINUOUS
 62
    3
 10
900.79234
 20
1136.3448
 11
899.90601
 21
1136.6793
  0
LINE
  8
0-2
  6
CONTINUOUS
 62
    3
 10
899.90601
 20
1136.6793
 11
899.04245
 21
1136.9332
  0
LINE
  8
0-2
  6
CONTINUOUS
 62
    3
 10
899.04245
 20
1136.9332
 11
898.20412
 21
1137.1158
  0
LINE
  8
0-2
  6
CONTINUOUS
 62
    3
 10
898.20412
 20
1137.1158
 11
897.39549
 21
1137.2345
  0
LINE
  8
0-2
  6
CONTINUOUS
 62
    3
 10
897.39549
 20
1137.2345
 11
896.62051
 21
1137.3009
  0
LINE
  8
0-2
  6
CONTINUOUS
 62
    3
 10
890.02376
 20
1128.1886
 11
890.05098
 21
1129.2472
  0
LINE
  8
0-2
  6
CONTINUOUS
 62
    3
 10
890.05098
 20
1129.2472
 11
890.13461
 21
1130.2266
  0
LINE
  8
0-2
  6
CONTINUOUS
 62
    3
 10
890.13461
 20
1130.2266
 11
890.27665
 21
1131.1287
  0
LINE
  8
0-2
  6
CONTINUOUS
 62
    3
 10
890.27665
 20
1131.1287
 11
890.48103
 21
1131.9596
  0
LINE
  8
0-2
  6
CONTINUOUS
 62
    3
 10
890.48103
 20
1131.9596
 11
890.75024
 21
1132.7226
  0
LINE
  8
0-2
  6
CONTINUOUS
 62
    3
 10
890.75024
 20
1132.7226
 11
891.088
 21
1133.4238
  0
LINE
  8
0-2
  6
CONTINUOUS
 62
    3
 10
891.088
 20
1133.4238
 11
891.49727
 21
1134.0653
  0
LINE
  8
0-2
  6
CONTINUOUS
 62
    3
 10
891.49727
 20
1134.0653
 11
891.98076
 21
1134.6547
  0
LINE
  8
0-2
  6
CONTINUOUS
 62
    3
 10
891.98076
 20
1134.6547
 11
892.54171
 21
1135.1932
  0
LINE
  8
0-2
  6
CONTINUOUS
 62
    3
 10
892.54171
 20
1135.1932
 11
893.18357
 21
1135.6876
  0
LINE
  8
0-2
  6
CONTINUOUS
 62
    3
 10
893.18357
 20
1135.6876
 11
893.90956
 21
1136.1409
  0
LINE
  8
0-2
  6
CONTINUOUS
 62
    3
 10
893.90956
 20
1136.1409
 11
894.72165
 21
1136.558
  0
LINE
  8
0-2
  6
CONTINUOUS
 62
    3
 10
894.72165
 20
1136.558
 11
895.62481
 21
1136.9431
  0
LINE
  8
0-2
  6
CONTINUOUS
 62
    3
 10
895.62481
 20
1136.9431
 11
896.62051
 21
1137.3009
  0
LINE
  8
0-2
  6
CONTINUOUS
 62
    3
 10
835.08519
 20
1128.1886
 11
835.55533
 21
1129.4321
  0
LINE
  8
0-2
  6
CONTINUOUS
 62
    3
 10
835.55533
 20
1129.4321
 11
836.04526
 21
1130.5606
  0
LINE
  8
0-2
  6
CONTINUOUS
 62
    3
 10
836.04526
 20
1130.5606
 11
836.5535
 21
1131.5781
  0
LINE
  8
0-2
  6
CONTINUOUS
 62
    3
 10
836.5535
 20
1131.5781
 11
837.08104
 21
1132.4921
  0
LINE
  8
0-2
  6
CONTINUOUS
 62
    3
 10
837.08104
 20
1132.4921
 11
837.6264
 21
1133.3067
  0
LINE
  8
0-2
  6
CONTINUOUS
 62
    3
 10
837.6264
 20
1133.3067
 11
838.18957
 21
1134.0281
  0
LINE
  8
0-2
  6
CONTINUOUS
 62
    3
 10
838.18957
 20
1134.0281
 11
838.76907
 21
1134.6622
  0
LINE
  8
0-2
  6
CONTINUOUS
 62
    3
 10
838.76907
 20
1134.6622
 11
839.3659
 21
1135.2135
  0
LINE
  8
0-2
  6
CONTINUOUS
 62
    3
 10
839.3659
 20
1135.2135
 11
839.97831
 21
1135.6885
  0
LINE
  8
0-2
  6
CONTINUOUS
 62
    3
 10
839.97831
 20
1135.6885
 11
840.60656
 21
1136.0917
  0
LINE
  8
0-2
  6
CONTINUOUS
 62
    3
 10
840.60656
 20
1136.0917
 11
841.2504
 21
1136.4294
  0
LINE
  8
0-2
  6
CONTINUOUS
 62
    3
 10
841.2504
 20
1136.4294
 11
841.90834
 21
1136.708
  0
LINE
  8
0-2
  6
CONTINUOUS
 62
    3
 10
841.90834
 20
1136.708
 11
842.58064
 21
1136.9312
  0
LINE
  8
0-2
  6
CONTINUOUS
 62
    3
 10
842.58064
 20
1136.9312
 11
843.26654
 21
1137.1054
  0
LINE
  8
0-2
  6
CONTINUOUS
 62
    3
 10
844.77493
 20
1137.1054
 11
845.49053
 21
1136.9564
  0
LINE
  8
0-2
  6
CONTINUOUS
 62
    3
 10
845.49053
 20
1136.9564
 11
846.20019
 21
1136.7197
  0
LINE
  8
0-2
  6
CONTINUOUS
 62
    3
 10
846.20019
 20
1136.7197
 11
846.90391
 21
1136.3942
  0
LINE
  8
0-2
  6
CONTINUOUS
 62
    3
 10
846.90391
 20
1136.3942
 11
847.60193
 21
1135.9815
  0
LINE
  8
0-2
  6
CONTINUOUS
 62
    3
 10
847.60193
 20
1135.9815
 11
848.29402
 21
1135.4817
  0
LINE
  8
0-2
  6
CONTINUOUS
 62
    3
 10
848.29402
 20
1135.4817
 11
848.98042
 21
1134.8928
  0
LINE
  8
0-2
  6
CONTINUOUS
 62
    3
 10
848.98042
 20
1134.8928
 11
849.66088
 21
1134.2158
  0
LINE
  8
0-2
  6
CONTINUOUS
 62
    3
 10
849.66088
 20
1134.2158
 11
850.3359
 21
1133.4507
  0
LINE
  8
0-2
  6
CONTINUOUS
 62
    3
 10
850.3359
 20
1133.4507
 11
851.00473
 21
1132.5985
  0
LINE
  8
0-2
  6
CONTINUOUS
 62
    3
 10
784.79873
 20
1128.1886
 11
784.93507
 21
1129.1368
  0
LINE
  8
0-2
  6
CONTINUOUS
 62
    3
 10
784.93507
 20
1129.1368
 11
785.12808
 21
1130.0187
  0
LINE
  8
0-2
  6
CONTINUOUS
 62
    3
 10
785.12808
 20
1130.0187
 11
785.37354
 21
1130.8392
  0
LINE
  8
0-2
  6
CONTINUOUS
 62
    3
 10
785.37354
 20
1130.8392
 11
785.6675
 21
1131.5979
  0
LINE
  8
0-2
  6
CONTINUOUS
 62
    3
 10
785.6675
 20
1131.5979
 11
786.00451
 21
1132.3001
  0
LINE
  8
0-2
  6
CONTINUOUS
 62
    3
 10
786.00451
 20
1132.3001
 11
786.3821
 21
1132.9468
  0
LINE
  8
0-2
  6
CONTINUOUS
 62
    3
 10
786.3821
 20
1132.9468
 11
786.79533
 21
1133.5408
  0
LINE
  8
0-2
  6
CONTINUOUS
 62
    3
 10
786.79533
 20
1133.5408
 11
787.24097
 21
1134.0836
  0
LINE
  8
0-2
  6
CONTINUOUS
 62
    3
 10
787.24097
 20
1134.0836
 11
787.7158
 21
1134.577
  0
LINE
  8
0-2
  6
CONTINUOUS
 62
    3
 10
787.7158
 20
1134.577
 11
788.21662
 21
1135.0229
  0
LINE
  8
0-2
  6
CONTINUOUS
 62
    3
 10
788.21662
 20
1135.0229
 11
788.7402
 21
1135.4228
  0
LINE
  8
0-2
  6
CONTINUOUS
 62
    3
 10
788.7402
 20
1135.4228
 11
789.28507
 21
1135.7796
  0
LINE
  8
0-2
  6
CONTINUOUS
 62
    3
 10
789.28507
 20
1135.7796
 11
789.84675
 21
1136.0914
  0
LINE
  8
0-2
  6
CONTINUOUS
 62
    3
 10
789.84675
 20
1136.0914
 11
790.42527
 21
1136.3616
  0
LINE
  8
0-2
  6
CONTINUOUS
 62
    3
 10
790.42527
 20
1136.3616
 11
791.01665
 21
1136.5902
  0
LINE
  8
0-2
  6
CONTINUOUS
 62
    3
 10
791.01665
 20
1136.5902
 11
791.62065
 21
1136.7788
  0
LINE
  8
0-2
  6
CONTINUOUS
 62
    3
 10
791.62065
 20
1136.7788
 11
792.23504
 21
1136.9272
  0
LINE
  8
0-2
  6
CONTINUOUS
 62
    3
 10
792.23504
 20
1136.9272
 11
792.8581
 21
1137.0356
  0
LINE
  8
0-2
  6
CONTINUOUS
 62
    3
 10
792.8581
 20
1137.0356
 11
793.48956
 21
1137.1054
  0
LINE
  8
0-2
  6
CONTINUOUS
 62
    3
 10
793.64891
 20
1137.098
 11
794.00473
 21
1137.0589
  0
LINE
  8
0-2
  6
CONTINUOUS
 62
    3
 10
794.00473
 20
1137.0589
 11
794.35387
 21
1137.0029
  0
LINE
  8
0-2
  6
CONTINUOUS
 62
    3
 10
794.35387
 20
1137.0029
 11
794.69732
 21
1136.9317
  0
LINE
  8
0-2
  6
CONTINUOUS
 62
    3
 10
794.69732
 20
1136.9317
 11
795.03408
 21
1136.8425
  0
LINE
  8
0-2
  6
CONTINUOUS
 62
    3
 10
795.03408
 20
1136.8425
 11
795.36541
 21
1136.7367
  0
LINE
  8
0-2
  6
CONTINUOUS
 62
    3
 10
795.36541
 20
1136.7367
 11
795.69029
 21
1136.614
  0
LINE
  8
0-2
  6
CONTINUOUS
 62
    3
 10
795.69029
 20
1136.614
 11
796.009
 21
1136.4744
  0
LINE
  8
0-2
  6
CONTINUOUS
 62
    3
 10
796.009
 20
1136.4744
 11
796.32127
 21
1136.318
  0
LINE
  8
0-2
  6
CONTINUOUS
 62
    3
 10
796.32127
 20
1136.318
 11
796.62809
 21
1136.1448
  0
LINE
  8
0-2
  6
CONTINUOUS
 62
    3
 10
649.96159
 20
1128.1886
 11
650.08333
 21
1129.1858
  0
LINE
  8
0-2
  6
CONTINUOUS
 62
    3
 10
650.08333
 20
1129.1858
 11
650.212
 21
1130.0974
  0
LINE
  8
0-2
  6
CONTINUOUS
 62
    3
 10
650.212
 20
1130.0974
 11
650.34809
 21
1130.9219
  0
LINE
  8
0-2
  6
CONTINUOUS
 62
    3
 10
650.34809
 20
1130.9219
 11
650.49087
 21
1131.6612
  0
LINE
  8
0-2
  6
CONTINUOUS
 62
    3
 10
650.49087
 20
1131.6612
 11
650.64081
 21
1132.3145
  0
LINE
  8
0-2
  6
CONTINUOUS
 62
    3
 10
650.64081
 20
1132.3145
 11
650.79794
 21
1132.8816
  0
LINE
  8
0-2
  6
CONTINUOUS
 62
    3
 10
650.79794
 20
1132.8816
 11
650.96174
 21
1133.3626
  0
LINE
  8
0-2
  6
CONTINUOUS
 62
    3
 10
650.96174
 20
1133.3626
 11
651.13347
 21
1133.7575
  0
LINE
  8
0-2
  6
CONTINUOUS
 62
    3
 10
651.13347
 20
1133.7575
 11
651.31162
 21
1134.0653
  0
LINE
  8
0-2
  6
CONTINUOUS
 62
    3
 10
672.09707
 20
1128.1886
 11
672.16486
 21
1128.979
  0
LINE
  8
0-2
  6
CONTINUOUS
 62
    3
 10
672.16486
 20
1128.979
 11
672.27621
 21
1129.7251
  0
LINE
  8
0-2
  6
CONTINUOUS
 62
    3
 10
672.27621
 20
1129.7251
 11
672.42591
 21
1130.429
  0
LINE
  8
0-2
  6
CONTINUOUS
 62
    3
 10
672.42591
 20
1130.429
 11
672.61149
 21
1131.0895
  0
LINE
  8
0-2
  6
CONTINUOUS
 62
    3
 10
672.61149
 20
1131.0895
 11
672.82751
 21
1131.7062
  0
LINE
  8
0-2
  6
CONTINUOUS
 62
    3
 10
672.82751
 20
1131.7062
 11
673.07
 21
1132.2788
  0
LINE
  8
0-2
  6
CONTINUOUS
 62
    3
 10
673.07
 20
1132.2788
 11
673.33476
 21
1132.8083
  0
LINE
  8
0-2
  6
CONTINUOUS
 62
    3
 10
673.33476
 20
1132.8083
 11
673.61684
 21
1133.2923
  0
LINE
  8
0-2
  6
CONTINUOUS
 62
    3
 10
673.61684
 20
1133.2923
 11
673.91228
 21
1133.7338
  0
LINE
  8
0-2
  6
CONTINUOUS
 62
    3
 10
673.91228
 20
1133.7338
 11
674.21663
 21
1134.1292
  0
LINE
  8
0-2
  6
CONTINUOUS
 62
    3
 10
674.21663
 20
1134.1292
 11
674.52569
 21
1134.4804
  0
LINE
  8
0-2
  6
CONTINUOUS
 62
    3
 10
674.52569
 20
1134.4804
 11
674.83573
 21
1134.7859
  0
LINE
  8
0-2
  6
CONTINUOUS
 62
    3
 10
674.83573
 20
1134.7859
 11
675.14156
 21
1135.0467
  0
LINE
  8
0-2
  6
CONTINUOUS
 62
    3
 10
675.14156
 20
1135.0467
 11
675.43899
 21
1135.2615
  0
LINE
  8
0-2
  6
CONTINUOUS
 62
    3
 10
702.41364
 20
1128.1886
 11
702.61431
 21
1129.068
  0
LINE
  8
0-2
  6
CONTINUOUS
 62
    3
 10
702.61431
 20
1129.068
 11
702.85903
 21
1129.8905
  0
LINE
  8
0-2
  6
CONTINUOUS
 62
    3
 10
702.85903
 20
1129.8905
 11
703.14582
 21
1130.658
  0
LINE
  8
0-2
  6
CONTINUOUS
 62
    3
 10
703.14582
 20
1130.658
 11
703.47293
 21
1131.3702
  0
LINE
  8
0-2
  6
CONTINUOUS
 62
    3
 10
703.47293
 20
1131.3702
 11
703.83815
 21
1132.0284
  0
LINE
  8
0-2
  6
CONTINUOUS
 62
    3
 10
703.83815
 20
1132.0284
 11
704.2395
 21
1132.6322
  0
LINE
  8
0-2
  6
CONTINUOUS
 62
    3
 10
704.2395
 20
1132.6322
 11
704.67598
 21
1133.182
  0
LINE
  8
0-2
  6
CONTINUOUS
 62
    3
 10
704.67598
 20
1133.182
 11
705.14612
 21
1133.6778
  0
LINE
  8
0-2
  6
CONTINUOUS
 62
    3
 10
705.14612
 20
1133.6778
 11
705.64743
 21
1134.1218
  0
LINE
  8
0-2
  6
CONTINUOUS
 62
    3
 10
705.64743
 20
1134.1218
 11
706.17844
 21
1134.5132
  0
LINE
  8
0-2
  6
CONTINUOUS
 62
    3
 10
706.17844
 20
1134.5132
 11
706.73716
 21
1134.8517
  0
LINE
  8
0-2
  6
CONTINUOUS
 62
    3
 10
706.73716
 20
1134.8517
 11
707.32211
 21
1135.1387
  0
LINE
  8
0-2
  6
CONTINUOUS
 62
    3
 10
707.32211
 20
1135.1387
 11
707.9313
 21
1135.3748
  0
LINE
  8
0-2
  6
CONTINUOUS
 62
    3
 10
707.9313
 20
1135.3748
 11
708.56326
 21
1135.5607
  0
LINE
  8
0-2
  6
CONTINUOUS
 62
    3
 10
740.23655
 20
1128.1886
 11
740.54041
 21
1129.1106
  0
LINE
  8
0-2
  6
CONTINUOUS
 62
    3
 10
740.54041
 20
1129.1106
 11
740.89672
 21
1129.9628
  0
LINE
  8
0-2
  6
CONTINUOUS
 62
    3
 10
740.89672
 20
1129.9628
 11
741.30054
 21
1130.7495
  0
LINE
  8
0-2
  6
CONTINUOUS
 62
    3
 10
741.30054
 20
1130.7495
 11
741.74791
 21
1131.4682
  0
LINE
  8
0-2
  6
CONTINUOUS
 62
    3
 10
741.74791
 20
1131.4682
 11
742.23438
 21
1132.12
  0
LINE
  8
0-2
  6
CONTINUOUS
 62
    3
 10
742.23438
 20
1132.12
 11
742.75549
 21
1132.7034
  0
LINE
  8
0-2
  6
CONTINUOUS
 62
    3
 10
742.75549
 20
1132.7034
 11
743.30629
 21
1133.2196
  0
LINE
  8
0-2
  6
CONTINUOUS
 62
    3
 10
743.30629
 20
1133.2196
 11
743.88233
 21
1133.6694
  0
LINE
  8
0-2
  6
CONTINUOUS
 62
    3
 10
743.88233
 20
1133.6694
 11
744.47916
 21
1134.0535
  0
LINE
  8
0-2
  6
CONTINUOUS
 62
    3
 10
744.47916
 20
1134.0535
 11
745.09083
 21
1134.3732
  0
LINE
  8
0-2
  6
CONTINUOUS
 62
    3
 10
745.09083
 20
1134.3732
 11
745.71289
 21
1134.6305
  0
LINE
  8
0-2
  6
CONTINUOUS
 62
    3
 10
745.71289
 20
1134.6305
 11
746.3404
 21
1134.827
  0
LINE
  8
0-2
  6
CONTINUOUS
 62
    3
 10
746.3404
 20
1134.827
 11
746.96741
 21
1134.9619
  0
LINE
  8
0-2
  6
CONTINUOUS
 62
    3
 10
746.96741
 20
1134.9619
 11
747.58898
 21
1135.0407
  0
LINE
  8
0-2
  6
CONTINUOUS
 62
    3
 10
747.58898
 20
1135.0407
 11
748.19917
 21
1135.0645
  0
LINE
  8
0-2
  6
CONTINUOUS
 62
    3
 10
748.19917
 20
1135.0645
 11
748.79203
 21
1135.0352
  0
LINE
  8
0-2
  6
CONTINUOUS
 62
    3
 10
748.79203
 20
1135.0352
 11
749.36263
 21
1134.9571
  0
LINE
  8
0-2
  6
CONTINUOUS
 62
    3
 10
749.36263
 20
1134.9571
 11
749.90452
 21
1134.8319
  0
LINE
  8
0-2
  6
CONTINUOUS
 62
    3
 10
749.90452
 20
1134.8319
 11
750.41177
 21
1134.6632
  0
LINE
  8
0-2
  6
CONTINUOUS
 62
    3
 10
649.96159
 20
1128.1886
 11
640.00016
 21
1128.1886
  0
LINE
  8
0-2
  6
CONTINUOUS
 62
    3
 10
552.39112
 20
1237.8376
 11
649.96159
 21
1128.1886
  0
LINE
  8
0-2
  6
CONTINUOUS
 62
    3
 10
656.39775
 20
1128.1886
 11
560.39728
 21
1237.8376
  0
LINE
  8
0-2
  6
CONTINUOUS
 62
    3
 10
579.92573
 20
1237.8376
 11
672.09707
 21
1128.1886
  0
LINE
  8
0-2
  6
CONTINUOUS
 62
    3
 10
672.09707
 20
1128.1886
 11
656.39775
 21
1128.1886
  0
LINE
  8
0-2
  6
CONTINUOUS
 62
    3
 10
681.32261
 20
1128.1886
 11
591.401
 21
1237.8376
  0
LINE
  8
0-2
  6
CONTINUOUS
 62
    3
 10
702.41364
 20
1128.1886
 11
681.32261
 21
1128.1886
  0
LINE
  8
0-2
  6
CONTINUOUS
 62
    3
 10
617.63605
 20
1237.8376
 11
702.41364
 21
1128.1886
  0
LINE
  8
0-2
  6
CONTINUOUS
 62
    3
 10
714.22815
 20
1128.1886
 11
632.332
 21
1237.8376
  0
LINE
  8
0-2
  6
CONTINUOUS
 62
    3
 10
740.25338
 20
1128.1886
 11
714.22815
 21
1128.1886
  0
LINE
  8
0-2
  6
CONTINUOUS
 62
    3
 10
664.70554
 20
1237.8376
 11
740.25338
 21
1128.1886
  0
LINE
  8
0-2
  6
CONTINUOUS
 62
    3
 10
754.40199
 20
1128.1886
 11
682.30495
 21
1237.8376
  0
LINE
  8
0-2
  6
CONTINUOUS
 62
    3
 10
784.79873
 20
1128.1886
 11
754.40199
 21
1128.1886
  0
LINE
  8
0-2
  6
CONTINUOUS
 62
    3
 10
720.11573
 20
1237.8376
 11
784.79873
 21
1128.1886
  0
LINE
  8
0-2
  6
CONTINUOUS
 62
    3
 10
800.97462
 20
1128.1886
 11
740.23655
 21
1237.8376
  0
LINE
  8
0-2
  6
CONTINUOUS
 62
    3
 10
835.08519
 20
1128.1886
 11
800.97462
 21
1128.1886
  0
LINE
  8
0-2
  6
CONTINUOUS
 62
    3
 10
852.93797
 20
1128.1886
 11
804.87378
 21
1237.8376
  0
LINE
  8
0-2
  6
CONTINUOUS
 62
    3
 10
890.02376
 20
1128.1886
 11
852.93797
 21
1128.1886
  0
LINE
  8
0-2
  6
CONTINUOUS
 62
    3
 10
851.00473
 20
1237.8376
 11
890.02376
 21
1128.1886
  0
LINE
  8
0-2
  6
CONTINUOUS
 62
    3
 10
874.8171
 20
1237.8376
 11
909.16719
 21
1128.1886
  0
LINE
  8
0-2
  6
CONTINUOUS
 62
    3
 10
948.42501
 20
1128.1886
 11
909.16719
 21
1128.1886
  0
LINE
  8
0-2
  6
CONTINUOUS
 62
    3
 10
948.42501
 20
1128.1886
 11
923.65034
 21
1237.8376
  0
LINE
  8
0-2
  6
CONTINUOUS
 62
    3
 10
948.55318
 20
1237.8376
 11
968.44487
 21
1128.1886
  0
LINE
  8
0-2
  6
CONTINUOUS
 62
    3
 10
1009.0255
 20
1128.1886
 11
968.44487
 21
1128.1886
  0
LINE
  8
0-2
  6
CONTINUOUS
 62
    3
 10
1009.0255
 20
1128.1886
 11
999.0314
 21
1237.8376
  0
LINE
  8
0-2
  6
CONTINUOUS
 62
    3
 10
1029.4882
 20
1128.1886
 11
1024.485
 21
1237.8376
  0
LINE
  8
0-2
  6
CONTINUOUS
 62
    3
 10
1050
 20
1128.1886
 11
1029.4882
 21
1128.1886
  0
LINE
  8
0-2
  6
CONTINUOUS
 62
    3
 10
1560.0002
 20
1237.8376
 11
1460.0004
 21
1128.1886
  0
LINE
  8
0-2
  6
CONTINUOUS
 62
    3
 10
1547.6089
 20
1237.8376
 11
1450.039
 21
1128.1886
  0
LINE
  8
0-2
  6
CONTINUOUS
 62
    3
 10
1443.6021
 20
1128.1886
 11
1539.6028
 21
1237.8376
  0
LINE
  8
0-2
  6
CONTINUOUS
 62
    3
 10
1520.0748
 20
1237.8376
 11
1427.903
 21
1128.1886
  0
LINE
  8
0-2
  6
CONTINUOUS
 62
    3
 10
1418.6774
 20
1128.1886
 11
1508.5991
 21
1237.8376
  0
LINE
  8
0-2
  6
CONTINUOUS
 62
    3
 10
1482.364
 20
1237.8376
 11
1397.5862
 21
1128.1886
  0
LINE
  8
0-2
  6
CONTINUOUS
 62
    3
 10
782.66704
 20
1237.8376
 11
835.08519
 21
1128.1886
  0
LINE
  8
0-2
  6
CONTINUOUS
 62
    3
 10
843.26654
 20
1988.5694
 11
843.44965
 21
1988.5555
  0
LINE
  8
0-2
  6
CONTINUOUS
 62
    3
 10
843.44965
 20
1988.5555
 11
843.62879
 21
1988.5451
  0
LINE
  8
0-2
  6
CONTINUOUS
 62
    3
 10
843.62879
 20
1988.5451
 11
843.80398
 21
1988.5382
  0
LINE
  8
0-2
  6
CONTINUOUS
 62
    3
 10
843.80398
 20
1988.5382
 11
843.97546
 21
1988.5342
  0
LINE
  8
0-2
  6
CONTINUOUS
 62
    3
 10
843.97546
 20
1988.5342
 11
844.14297
 21
1988.5342
  0
LINE
  8
0-2
  6
CONTINUOUS
 62
    3
 10
844.14297
 20
1988.5342
 11
844.30628
 21
1988.5382
  0
LINE
  8
0-2
  6
CONTINUOUS
 62
    3
 10
844.30628
 20
1988.5382
 11
844.46687
 21
1988.5451
  0
LINE
  8
0-2
  6
CONTINUOUS
 62
    3
 10
844.46687
 20
1988.5451
 11
844.62251
 21
1988.5555
  0
LINE
  8
0-2
  6
CONTINUOUS
 62
    3
 10
844.62251
 20
1988.5555
 11
844.77493
 21
1988.5694
  0
LINE
  8
0-2
  6
CONTINUOUS
 62
    3
 10
956.63209
 20
1988.3754
 11
957.12202
 21
1988.3417
  0
LINE
  8
0-2
  6
CONTINUOUS
 62
    3
 10
957.12202
 20
1988.3417
 11
957.61443
 21
1988.319
  0
LINE
  8
0-2
  6
CONTINUOUS
 62
    3
 10
957.61443
 20
1988.319
 11
958.11079
 21
1988.3051
  0
LINE
  8
0-2
  6
CONTINUOUS
 62
    3
 10
958.11079
 20
1988.3051
 11
958.60963
 21
1988.3016
  0
LINE
  8
0-2
  6
CONTINUOUS
 62
    3
 10
958.60963
 20
1988.3016
 11
959.11243
 21
1988.3071
  0
LINE
  8
0-2
  6
CONTINUOUS
 62
    3
 10
959.11243
 20
1988.3071
 11
959.6177
 21
1988.3209
  0
LINE
  8
0-2
  6
CONTINUOUS
 62
    3
 10
959.6177
 20
1988.3209
 11
960.12594
 21
1988.3462
  0
LINE
  8
0-2
  6
CONTINUOUS
 62
    3
 10
960.12594
 20
1988.3462
 11
960.63765
 21
1988.3793
  0
LINE
  8
0-2
  6
CONTINUOUS
 62
    3
 10
960.63765
 20
1988.3793
 11
961.15282
 21
1988.4239
  0
LINE
  8
0-2
  6
CONTINUOUS
 62
    3
 10
956.63209
 20
1137.3009
 11
957.12202
 21
1137.3335
  0
LINE
  8
0-2
  6
CONTINUOUS
 62
    3
 10
957.12202
 20
1137.3335
 11
957.61443
 21
1137.3563
  0
LINE
  8
0-2
  6
CONTINUOUS
 62
    3
 10
957.61443
 20
1137.3563
 11
958.11079
 21
1137.3701
  0
LINE
  8
0-2
  6
CONTINUOUS
 62
    3
 10
958.11079
 20
1137.3701
 11
958.60963
 21
1137.3741
  0
LINE
  8
0-2
  6
CONTINUOUS
 62
    3
 10
958.60963
 20
1137.3741
 11
959.11243
 21
1137.3687
  0
LINE
  8
0-2
  6
CONTINUOUS
 62
    3
 10
959.11243
 20
1137.3687
 11
959.6177
 21
1137.3543
  0
LINE
  8
0-2
  6
CONTINUOUS
 62
    3
 10
959.6177
 20
1137.3543
 11
960.12594
 21
1137.3296
  0
LINE
  8
0-2
  6
CONTINUOUS
 62
    3
 10
960.12594
 20
1137.3296
 11
960.63765
 21
1137.2954
  0
LINE
  8
0-2
  6
CONTINUOUS
 62
    3
 10
960.63765
 20
1137.2954
 11
961.15282
 21
1137.2519
  0
LINE
  8
0-2
  6
CONTINUOUS
 62
    3
 10
843.26654
 20
1137.1054
 11
843.44965
 21
1137.1197
  0
LINE
  8
0-2
  6
CONTINUOUS
 62
    3
 10
843.44965
 20
1137.1197
 11
843.62879
 21
1137.1306
  0
LINE
  8
0-2
  6
CONTINUOUS
 62
    3
 10
843.62879
 20
1137.1306
 11
843.80398
 21
1137.1375
  0
LINE
  8
0-2
  6
CONTINUOUS
 62
    3
 10
843.80398
 20
1137.1375
 11
843.97546
 21
1137.1409
  0
LINE
  8
0-2
  6
CONTINUOUS
 62
    3
 10
843.97546
 20
1137.1409
 11
844.14297
 21
1137.1409
  0
LINE
  8
0-2
  6
CONTINUOUS
 62
    3
 10
844.14297
 20
1137.1409
 11
844.30628
 21
1137.1375
  0
LINE
  8
0-2
  6
CONTINUOUS
 62
    3
 10
844.30628
 20
1137.1375
 11
844.46687
 21
1137.1306
  0
LINE
  8
0-2
  6
CONTINUOUS
 62
    3
 10
844.46687
 20
1137.1306
 11
844.62251
 21
1137.1197
  0
LINE
  8
0-2
  6
CONTINUOUS
 62
    3
 10
844.62251
 20
1137.1197
 11
844.77493
 21
1137.1054
  0
LINE
  8
0-2
  6
CONTINUOUS
 62
    3
 10
1450.039
 20
1128.1886
 11
1449.9172
 21
1129.1858
  0
LINE
  8
0-2
  6
CONTINUOUS
 62
    3
 10
1449.9172
 20
1129.1858
 11
1449.7881
 21
1130.0979
  0
LINE
  8
0-2
  6
CONTINUOUS
 62
    3
 10
1449.7881
 20
1130.0979
 11
1449.6525
 21
1130.9219
  0
LINE
  8
0-2
  6
CONTINUOUS
 62
    3
 10
1449.6525
 20
1130.9219
 11
1449.5094
 21
1131.6622
  0
LINE
  8
0-2
  6
CONTINUOUS
 62
    3
 10
1449.5094
 20
1131.6622
 11
1449.359
 21
1132.3145
  0
LINE
  8
0-2
  6
CONTINUOUS
 62
    3
 10
1449.359
 20
1132.3145
 11
1449.2026
 21
1132.8816
  0
LINE
  8
0-2
  6
CONTINUOUS
 62
    3
 10
1449.2026
 20
1132.8816
 11
1449.0383
 21
1133.3631
  0
LINE
  8
0-2
  6
CONTINUOUS
 62
    3
 10
1449.0383
 20
1133.3631
 11
1448.8671
 21
1133.7575
  0
LINE
  8
0-2
  6
CONTINUOUS
 62
    3
 10
1448.8671
 20
1133.7575
 11
1448.6884
 21
1134.0663
  0
LINE
  8
0-2
  6
CONTINUOUS
 62
    3
 10
1427.903
 20
1128.1886
 11
1427.8352
 21
1128.978
  0
LINE
  8
0-2
  6
CONTINUOUS
 62
    3
 10
1427.8352
 20
1128.978
 11
1427.7243
 21
1129.7247
  0
LINE
  8
0-2
  6
CONTINUOUS
 62
    3
 10
1427.7243
 20
1129.7247
 11
1427.5739
 21
1130.429
  0
LINE
  8
0-2
  6
CONTINUOUS
 62
    3
 10
1427.5739
 20
1130.429
 11
1427.3888
 21
1131.0895
  0
LINE
  8
0-2
  6
CONTINUOUS
 62
    3
 10
1427.3888
 20
1131.0895
 11
1427.1725
 21
1131.7062
  0
LINE
  8
0-2
  6
CONTINUOUS
 62
    3
 10
1427.1725
 20
1131.7062
 11
1426.9305
 21
1132.2788
  0
LINE
  8
0-2
  6
CONTINUOUS
 62
    3
 10
1426.9305
 20
1132.2788
 11
1426.6658
 21
1132.8083
  0
LINE
  8
0-2
  6
CONTINUOUS
 62
    3
 10
1426.6658
 20
1132.8083
 11
1426.3832
 21
1133.2928
  0
LINE
  8
0-2
  6
CONTINUOUS
 62
    3
 10
1426.3832
 20
1133.2928
 11
1426.0878
 21
1133.7341
  0
LINE
  8
0-2
  6
CONTINUOUS
 62
    3
 10
1426.0878
 20
1133.7341
 11
1425.7839
 21
1134.1302
  0
LINE
  8
0-2
  6
CONTINUOUS
 62
    3
 10
1425.7839
 20
1134.1302
 11
1425.4741
 21
1134.4804
  0
LINE
  8
0-2
  6
CONTINUOUS
 62
    3
 10
1425.4741
 20
1134.4804
 11
1425.1648
 21
1134.7859
  0
LINE
  8
0-2
  6
CONTINUOUS
 62
    3
 10
1425.1648
 20
1134.7859
 11
1424.859
 21
1135.0467
  0
LINE
  8
0-2
  6
CONTINUOUS
 62
    3
 10
1424.859
 20
1135.0467
 11
1424.5616
 21
1135.2615
  0
LINE
  8
0-2
  6
CONTINUOUS
 62
    3
 10
1397.5862
 20
1128.1886
 11
1397.3857
 21
1129.068
  0
LINE
  8
0-2
  6
CONTINUOUS
 62
    3
 10
1397.3857
 20
1129.068
 11
1397.1408
 21
1129.8905
  0
LINE
  8
0-2
  6
CONTINUOUS
 62
    3
 10
1397.1408
 20
1129.8905
 11
1396.8547
 21
1130.6586
  0
LINE
  8
0-2
  6
CONTINUOUS
 62
    3
 10
1396.8547
 20
1130.6586
 11
1396.5281
 21
1131.3702
  0
LINE
  8
0-2
  6
CONTINUOUS
 62
    3
 10
1396.5281
 20
1131.3702
 11
1396.1624
 21
1132.0284
  0
LINE
  8
0-2
  6
CONTINUOUS
 62
    3
 10
1396.1624
 20
1132.0284
 11
1395.7606
 21
1132.6322
  0
LINE
  8
0-2
  6
CONTINUOUS
 62
    3
 10
1395.7606
 20
1132.6322
 11
1395.3241
 21
1133.182
  0
LINE
  8
0-2
  6
CONTINUOUS
 62
    3
 10
1395.3241
 20
1133.182
 11
1394.8539
 21
1133.6788
  0
LINE
  8
0-2
  6
CONTINUOUS
 62
    3
 10
1394.8539
 20
1133.6788
 11
1394.3531
 21
1134.1218
  0
LINE
  8
0-2
  6
CONTINUOUS
 62
    3
 10
1394.3531
 20
1134.1218
 11
1393.8221
 21
1134.5132
  0
LINE
  8
0-2
  6
CONTINUOUS
 62
    3
 10
1393.8221
 20
1134.5132
 11
1393.2634
 21
1134.8521
  0
LINE
  8
0-2
  6
CONTINUOUS
 62
    3
 10
1393.2634
 20
1134.8521
 11
1392.6779
 21
1135.1396
  0
LINE
  8
0-2
  6
CONTINUOUS
 62
    3
 10
1392.6779
 20
1135.1396
 11
1392.0687
 21
1135.3748
  0
LINE
  8
0-2
  6
CONTINUOUS
 62
    3
 10
1392.0687
 20
1135.3748
 11
1391.4368
 21
1135.5607
  0
LINE
  8
0-2
  6
CONTINUOUS
 62
    3
 10
1450.039
 20
1128.1886
 11
1460.0004
 21
1128.1886
  0
LINE
  8
0-2
  6
CONTINUOUS
 62
    3
 10
1427.903
 20
1128.1886
 11
1443.6021
 21
1128.1886
  0
LINE
  8
0-2
  6
CONTINUOUS
 62
    3
 10
1397.5862
 20
1128.1886
 11
1418.6774
 21
1128.1886
  0
LINE
  8
0-2
  6
CONTINUOUS
 62
    3
 10
1385.7719
 20
1128.1886
 11
1467.6676
 21
1237.8376
  0
LINE
  8
0-2
  6
CONTINUOUS
 62
    3
 10
540.00032
 20
1259.7668
 11
1050
 21
1259.7668
  0
LINE
  8
0-2
  6
CONTINUOUS
 62
    3
 10
539.99982
 20
1237.8376
 11
1050
 21
1237.8376
  0
LINE
  8
0-2
  6
CONTINUOUS
 62
    3
 10
1050
 20
1295.1135
 11
1365.0003
 21
1295.1135
  0
LINE
  8
0-2
  6
CONTINUOUS
 62
    3
 10
540.00131
 20
1350.9084
 11
1050
 21
1350.9084
  0
LINE
  8
0-2
  6
CONTINUOUS
 62
    3
 10
540.00032
 20
1237.8376
 11
1050
 21
1237.8376
  0
LINE
  8
0-2
  6
CONTINUOUS
 62
    3
 10
1050
 20
1386.1275
 11
999.0314
 21
1399.418
  0
LINE
  8
0-2
  6
CONTINUOUS
 62
    3
 10
1469.9999
 20
1295.1135
 11
1050
 21
1295.1135
  0
LINE
  8
0-2
  6
CONTINUOUS
 62
    3
 10
1469.9999
 20
1280.4082
 11
1050
 21
1280.4082
  0
LINE
  8
0-2
  6
CONTINUOUS
 62
    3
 10
539.99982
 20
1774.7667
 11
1050
 21
1774.7667
  0
LINE
  8
0-2
  6
CONTINUOUS
 62
    3
 10
1469.9999
 20
1774.7667
 11
1560.0012
 21
1774.7667
  0
LINE
  8
0-2
  6
CONTINUOUS
 62
    3
 10
1469.9999
 20
1752.8376
 11
1560.0012
 21
1752.8376
  0
LINE
  8
0-2
  6
CONTINUOUS
 62
    3
 10
539.99982
 20
1752.8376
 11
1050
 21
1752.8376
  0
LINE
  8
0-2
  6
CONTINUOUS
 62
    3
 10
1469.9999
 20
1350.9084
 11
1560.0032
 21
1350.9084
  0
LINE
  8
0-2
  6
CONTINUOUS
 62
    3
 10
1469.9999
 20
1372.8375
 11
1560.0032
 21
1372.8375
  0
LINE
  8
0-2
  6
CONTINUOUS
 62
    3
 10
540.00131
 20
1372.8375
 11
1050
 21
1372.8375
  0
LINE
  8
0-2
  6
CONTINUOUS
 62
    3
 10
1345.5986
 20
1997.4861
 11
1371.1195
 21
1958.6727
  0
LINE
  8
0-2
  6
CONTINUOUS
 62
    3
 10
1398.3795
 20
1941.4157
 11
1359.7467
 21
1997.4861
  0
LINE
  8
0-2
  6
CONTINUOUS
 62
    3
 10
1385.7719
 20
1997.4861
 11
1453.9045
 21
1906.2654
  0
LINE
  8
0-2
  6
CONTINUOUS
 62
    3
 10
1050
 20
2137.8376
 11
1458.0293
 21
1903.6539
  0
LINE
  8
0-2
  6
CONTINUOUS
 62
    3
 10
1045.3402
 20
1903.6539
 11
1458.0293
 21
1903.6539
  0
LINE
  8
0-2
  6
CONTINUOUS
 62
    7
 10
1469.9999
 20
1817.5033
 11
1469.9999
 21
1295.1135
  0
LINE
  8
0-2
  6
CONTINUOUS
 62
    3
 10
1469.9999
 20
1817.5033
 11
1050
 21
1817.5033
  0
LINE
  8
0-2
  6
CONTINUOUS
 62
    3
 10
1469.9999
 20
1832.2092
 11
1050
 21
1832.2092
  0
LINE
  8
0-2
  6
CONTINUOUS
 62
    3
 10
1290.0003
 20
1747.7765
 11
1290.0003
 21
1364.8402
  0
LINE
  8
0-2
  6
CONTINUOUS
 62
    3
 10
1394.9999
 20
1747.7765
 11
1394.9999
 21
1364.8402
  0
LINE
  8
0-2
  6
CONTINUOUS
 62
    3
 10
1184.9997
 20
1747.7765
 11
1125
 21
1747.7765
  0
LINE
  8
0-2
  6
CONTINUOUS
 62
    3
 10
1184.9997
 20
1747.7765
 11
1184.9997
 21
1364.8402
  0
LINE
  8
0-2
  6
CONTINUOUS
 62
    3
 10
1184.9997
 20
1364.8402
 11
1125
 21
1364.8402
  0
LINE
  8
0-2
  6
CONTINUOUS
 62
    3
 10
1290.0003
 20
1747.7765
 11
1230.0001
 21
1747.7765
  0
LINE
  8
0-2
  6
CONTINUOUS
 62
    3
 10
1394.9999
 20
1747.7765
 11
1334.9997
 21
1747.7765
  0
LINE
  8
0-2
  6
CONTINUOUS
 62
    3
 10
1394.9999
 20
1364.8402
 11
1334.9997
 21
1364.8402
  0
LINE
  8
0-2
  6
CONTINUOUS
 62
    3
 10
1290.0003
 20
1364.8402
 11
1230.0001
 21
1364.8402
  0
LINE
  8
0-2
  6
DASHED1
 62
    3
 10
1149.9989
 20
1714.6319
 11
1050
 21
1714.6319
  0
LINE
  8
0-2
  6
CONTINUOUS
 62
    3
 10
1335.8217
 20
1295.1135
 11
1320.7457
 21
1324.5247
  0
LINE
  8
0-2
  6
CONTINUOUS
 62
    3
 10
1306.6436
 20
1295.1135
 11
1293.6228
 21
1324.5247
  0
LINE
  8
0-2
  6
CONTINUOUS
 62
    3
 10
1277.465
 20
1295.1135
 11
1266.3312
 21
1324.5247
  0
LINE
  8
0-2
  6
CONTINUOUS
 62
    3
 10
1071.9395
 20
1324.5247
 11
1073.2163
 21
1295.1135
  0
LINE
  8
0-2
  6
CONTINUOUS
 62
    3
 10
1102.3944
 20
1295.1135
 11
1099.9868
 21
1324.5247
  0
LINE
  8
0-2
  6
CONTINUOUS
 62
    3
 10
1131.573
 20
1295.1135
 11
1127.9574
 21
1324.5247
  0
LINE
  8
0-2
  6
CONTINUOUS
 62
    3
 10
1160.7516
 20
1295.1135
 11
1155.8434
 21
1324.5247
  0
LINE
  8
0-2
  6
CONTINUOUS
 62
    3
 10
1189.9302
 20
1295.1135
 11
1183.6353
 21
1324.5247
  0
LINE
  8
0-2
  6
CONTINUOUS
 62
    3
 10
1219.1083
 20
1295.1135
 11
1211.3224
 21
1324.5247
  0
LINE
  8
0-2
  6
CONTINUOUS
 62
    3
 10
1248.2864
 20
1295.1135
 11
1238.8931
 21
1324.5247
  0
LINE
  8
0-2
  6
CONTINUOUS
 62
    3
 10
1365.0003
 20
1295.1135
 11
1347.6775
 21
1324.5247
  0
LINE
  8
0-2
  6
CONTINUOUS
 62
    3
 10
1347.6775
 20
1324.5247
 11
1050
 21
1324.5247
  0
LINE
  8
0-2
  6
DASHED1
 62
    3
 10
1347.6775
 20
1324.5247
 11
1149.9989
 21
1714.6319
  0
LINE
  8
0-2
  6
CONTINUOUS
 62
    3
 10
1357.5
 20
1237.8376
 11
1560.0017
 21
1237.8376
  0
LINE
  8
0-2
  6
CONTINUOUS
 62
    3
 10
1357.5
 20
1259.7668
 11
1560.0017
 21
1259.7668
  0
LINE
  8
0-2
  6
CONTINUOUS
 62
    3
 10
1357.5
 20
1128.1886
 11
1385.7719
 21
1128.1886
  0
LINE
  8
0-2
  6
CONTINUOUS
 62
    3
 10
1435.2945
 20
1237.8376
 11
1359.7463
 21
1128.1886
  0
LINE
  8
0-2
  6
CONTINUOUS
 62
    3
 10
1357.5
 20
1146.2896
 11
1417.6956
 21
1237.8376
  0
LINE
  8
0-2
  6
CONTINUOUS
 62
    3
 10
742.50013
 20
1128.1886
 11
742.50013
 21
951.55388
  0
LINE
  8
0-2
  6
CONTINUOUS
 62
    3
 10
803.93499
 20
1128.1886
 11
803.93499
 21
951.5566
  0
LINE
  8
0-2
  6
CONTINUOUS
 62
    3
 10
843.93512
 20
1128.1886
 11
843.93512
 21
951.5566
  0
LINE
  8
0-8
  6
CONTINUOUS
 62
    7
 10
859.4595
 20
2137.8376
 11
310.00041
 21
2137.8376
  0
LINE
  8
0-1
  6
CENTER2
 62
    7
 10
1050
 20
2137.8376
 11
1050
 21
827.83768
  0
LINE
  8
0-2
  6
CONTINUOUS
 62
    3
 10
829.93506
 20
1108.8804
 11
829.8439
 21
1110.0228
  0
LINE
  8
0-2
  6
CONTINUOUS
 62
    3
 10
829.8439
 20
1110.0228
 11
829.57321
 21
1111.1305
  0
LINE
  8
0-2
  6
CONTINUOUS
 62
    3
 10
829.57321
 20
1111.1305
 11
829.13121
 21
1112.1699
  0
LINE
  8
0-2
  6
CONTINUOUS
 62
    3
 10
829.13121
 20
1112.1699
 11
828.53132
 21
1113.1093
  0
LINE
  8
0-2
  6
CONTINUOUS
 62
    3
 10
828.53132
 20
1113.1093
 11
827.79178
 21
1113.9202
  0
LINE
  8
0-2
  6
CONTINUOUS
 62
    3
 10
827.79178
 20
1113.9202
 11
826.93506
 21
1114.578
  0
LINE
  8
0-2
  6
CONTINUOUS
 62
    3
 10
826.93506
 20
1114.578
 11
825.98718
 21
1115.0626
  0
LINE
  8
0-2
  6
CONTINUOUS
 62
    3
 10
825.98718
 20
1115.0626
 11
824.97694
 21
1115.3594
  0
LINE
  8
0-2
  6
CONTINUOUS
 62
    3
 10
824.97694
 20
1115.3594
 11
823.93506
 21
1115.4594
  0
LINE
  8
0-2
  6
CONTINUOUS
 62
    3
 10
823.93506
 20
1115.4594
 11
822.89317
 21
1115.3594
  0
LINE
  8
0-2
  6
CONTINUOUS
 62
    3
 10
822.89317
 20
1115.3594
 11
821.88294
 21
1115.0626
  0
LINE
  8
0-2
  6
CONTINUOUS
 62
    3
 10
821.88294
 20
1115.0626
 11
820.93506
 21
1114.578
  0
LINE
  8
0-2
  6
CONTINUOUS
 62
    3
 10
820.93506
 20
1114.578
 11
820.07833
 21
1113.9202
  0
LINE
  8
0-2
  6
CONTINUOUS
 62
    3
 10
820.07833
 20
1113.9202
 11
819.33879
 21
1113.1093
  0
LINE
  8
0-2
  6
CONTINUOUS
 62
    3
 10
819.33879
 20
1113.1093
 11
818.7389
 21
1112.1699
  0
LINE
  8
0-2
  6
CONTINUOUS
 62
    3
 10
818.7389
 20
1112.1699
 11
818.2969
 21
1111.1305
  0
LINE
  8
0-2
  6
CONTINUOUS
 62
    3
 10
818.2969
 20
1111.1305
 11
818.02621
 21
1110.0228
  0
LINE
  8
0-2
  6
CONTINUOUS
 62
    3
 10
818.02621
 20
1110.0228
 11
817.93506
 21
1108.8804
  0
LINE
  8
0-2
  6
CONTINUOUS
 62
    3
 10
817.93506
 20
1108.8804
 11
818.02621
 21
1107.738
  0
LINE
  8
0-2
  6
CONTINUOUS
 62
    3
 10
818.02621
 20
1107.738
 11
818.2969
 21
1106.6303
  0
LINE
  8
0-2
  6
CONTINUOUS
 62
    3
 10
818.2969
 20
1106.6303
 11
818.7389
 21
1105.5909
  0
LINE
  8
0-2
  6
CONTINUOUS
 62
    3
 10
818.7389
 20
1105.5909
 11
819.33879
 21
1104.6515
  0
LINE
  8
0-2
  6
CONTINUOUS
 62
    3
 10
819.33879
 20
1104.6515
 11
820.07833
 21
1103.8406
  0
LINE
  8
0-2
  6
CONTINUOUS
 62
    3
 10
820.07833
 20
1103.8406
 11
820.93506
 21
1103.1829
  0
LINE
  8
0-2
  6
CONTINUOUS
 62
    3
 10
820.93506
 20
1103.1829
 11
821.88294
 21
1102.6982
  0
LINE
  8
0-2
  6
CONTINUOUS
 62
    3
 10
821.88294
 20
1102.6982
 11
822.89317
 21
1102.4014
  0
LINE
  8
0-2
  6
CONTINUOUS
 62
    3
 10
822.89317
 20
1102.4014
 11
823.93506
 21
1102.3015
  0
LINE
  8
0-2
  6
CONTINUOUS
 62
    3
 10
823.93506
 20
1102.3015
 11
824.97694
 21
1102.4014
  0
LINE
  8
0-2
  6
CONTINUOUS
 62
    3
 10
824.97694
 20
1102.4014
 11
825.98718
 21
1102.6982
  0
LINE
  8
0-2
  6
CONTINUOUS
 62
    3
 10
825.98718
 20
1102.6982
 11
826.93506
 21
1103.1829
  0
LINE
  8
0-2
  6
CONTINUOUS
 62
    3
 10
826.93506
 20
1103.1829
 11
827.79178
 21
1103.8406
  0
LINE
  8
0-2
  6
CONTINUOUS
 62
    3
 10
827.79178
 20
1103.8406
 11
828.53132
 21
1104.6515
  0
LINE
  8
0-2
  6
CONTINUOUS
 62
    3
 10
828.53132
 20
1104.6515
 11
829.13121
 21
1105.5909
  0
LINE
  8
0-2
  6
CONTINUOUS
 62
    3
 10
829.13121
 20
1105.5909
 11
829.57321
 21
1106.6303
  0
LINE
  8
0-2
  6
CONTINUOUS
 62
    3
 10
829.57321
 20
1106.6303
 11
829.8439
 21
1107.738
  0
LINE
  8
0-2
  6
CONTINUOUS
 62
    3
 10
829.8439
 20
1107.738
 11
829.93506
 21
1108.8804
  0
LINE
  8
0-2
  6
CONTINUOUS
 62
    3
 10
829.93506
 20
970.09282
 11
829.8439
 21
971.23524
  0
LINE
  8
0-2
  6
CONTINUOUS
 62
    3
 10
829.8439
 20
971.23524
 11
829.57321
 21
972.34295
  0
LINE
  8
0-2
  6
CONTINUOUS
 62
    3
 10
829.57321
 20
972.34295
 11
829.13121
 21
973.38229
  0
LINE
  8
0-2
  6
CONTINUOUS
 62
    3
 10
829.13121
 20
973.38229
 11
828.53132
 21
974.32168
  0
LINE
  8
0-2
  6
CONTINUOUS
 62
    3
 10
828.53132
 20
974.32168
 11
827.79178
 21
975.13258
  0
LINE
  8
0-2
  6
CONTINUOUS
 62
    3
 10
827.79178
 20
975.13258
 11
826.93506
 21
975.79035
  0
LINE
  8
0-2
  6
CONTINUOUS
 62
    3
 10
826.93506
 20
975.79035
 11
825.98718
 21
976.27501
  0
LINE
  8
0-2
  6
CONTINUOUS
 62
    3
 10
825.98718
 20
976.27501
 11
824.97694
 21
976.57182
  0
LINE
  8
0-2
  6
CONTINUOUS
 62
    3
 10
824.97694
 20
976.57182
 11
823.93506
 21
976.67176
  0
LINE
  8
0-2
  6
CONTINUOUS
 62
    3
 10
823.93506
 20
976.67176
 11
822.89317
 21
976.57182
  0
LINE
  8
0-2
  6
CONTINUOUS
 62
    3
 10
822.89317
 20
976.57182
 11
821.88294
 21
976.27501
  0
LINE
  8
0-2
  6
CONTINUOUS
 62
    3
 10
821.88294
 20
976.27501
 11
820.93506
 21
975.79035
  0
LINE
  8
0-2
  6
CONTINUOUS
 62
    3
 10
820.93506
 20
975.79035
 11
820.07833
 21
975.13258
  0
LINE
  8
0-2
  6
CONTINUOUS
 62
    3
 10
820.07833
 20
975.13258
 11
819.33879
 21
974.32168
  0
LINE
  8
0-2
  6
CONTINUOUS
 62
    3
 10
819.33879
 20
974.32168
 11
818.7389
 21
973.38229
  0
LINE
  8
0-2
  6
CONTINUOUS
 62
    3
 10
818.7389
 20
973.38229
 11
818.2969
 21
972.34295
  0
LINE
  8
0-2
  6
CONTINUOUS
 62
    3
 10
818.2969
 20
972.34295
 11
818.02621
 21
971.23524
  0
LINE
  8
0-2
  6
CONTINUOUS
 62
    3
 10
818.02621
 20
971.23524
 11
817.93506
 21
970.09282
  0
LINE
  8
0-2
  6
CONTINUOUS
 62
    3
 10
817.93506
 20
970.09282
 11
818.02621
 21
968.9504
  0
LINE
  8
0-2
  6
CONTINUOUS
 62
    3
 10
818.02621
 20
968.9504
 11
818.2969
 21
967.84269
  0
LINE
  8
0-2
  6
CONTINUOUS
 62
    3
 10
818.2969
 20
967.84269
 11
818.7389
 21
966.80334
  0
LINE
  8
0-2
  6
CONTINUOUS
 62
    3
 10
818.7389
 20
966.80334
 11
819.33879
 21
965.86395
  0
LINE
  8
0-2
  6
CONTINUOUS
 62
    3
 10
819.33879
 20
965.86395
 11
820.07833
 21
965.05305
  0
LINE
  8
0-2
  6
CONTINUOUS
 62
    3
 10
820.07833
 20
965.05305
 11
820.93506
 21
964.39528
  0
LINE
  8
0-2
  6
CONTINUOUS
 62
    3
 10
820.93506
 20
964.39528
 11
821.88294
 21
963.91063
  0
LINE
  8
0-2
  6
CONTINUOUS
 62
    3
 10
821.88294
 20
963.91063
 11
822.89317
 21
963.61382
  0
LINE
  8
0-2
  6
CONTINUOUS
 62
    3
 10
822.89317
 20
963.61382
 11
823.93506
 21
963.51387
  0
LINE
  8
0-2
  6
CONTINUOUS
 62
    3
 10
823.93506
 20
963.51387
 11
824.97694
 21
963.61382
  0
LINE
  8
0-2
  6
CONTINUOUS
 62
    3
 10
824.97694
 20
963.61382
 11
825.98718
 21
963.91063
  0
LINE
  8
0-2
  6
CONTINUOUS
 62
    3
 10
825.98718
 20
963.91063
 11
826.93506
 21
964.39528
  0
LINE
  8
0-2
  6
CONTINUOUS
 62
    3
 10
826.93506
 20
964.39528
 11
827.79178
 21
965.05305
  0
LINE
  8
0-2
  6
CONTINUOUS
 62
    3
 10
827.79178
 20
965.05305
 11
828.53132
 21
965.86395
  0
LINE
  8
0-2
  6
CONTINUOUS
 62
    3
 10
828.53132
 20
965.86395
 11
829.13121
 21
966.80334
  0
LINE
  8
0-2
  6
CONTINUOUS
 62
    3
 10
829.13121
 20
966.80334
 11
829.57321
 21
967.84269
  0
LINE
  8
0-2
  6
CONTINUOUS
 62
    3
 10
829.57321
 20
967.84269
 11
829.8439
 21
968.9504
  0
LINE
  8
0-2
  6
CONTINUOUS
 62
    3
 10
829.8439
 20
968.9504
 11
829.93506
 21
970.09282
  0
ARC
  8
0-2
  6
CONTINUOUS
 62
    3
 10
1357.5101
 20
945.18255
 40
6.3715979
 50
270
 51
90
  0
ARC
  8
0-2
  6
CONTINUOUS
 62
    3
 10
1357.5101
 20
894.20896
 40
6.3715979
 50
270
 51
90
  0
ARC
  8
0-2
  6
CONTINUOUS
 62
    3
 10
742.51028
 20
945.18255
 40
6.3715979
 50
90
 51
270
  0
ARC
  8
0-2
  6
CONTINUOUS
 62
    3
 10
742.51028
 20
894.20896
 40
6.3715979
 50
90
 51
270
  0
LINE
  8
0-2
  6
CONTINUOUS
 62
    3
 10
540.00131
 20
1372.8373
 11
538.2651
 21
1372.6707
  0
LINE
  8
0-2
  6
CONTINUOUS
 62
    3
 10
538.2651
 20
1372.6707
 11
536.58165
 21
1372.1761
  0
LINE
  8
0-2
  6
CONTINUOUS
 62
    3
 10
536.58165
 20
1372.1761
 11
535.00209
 21
1371.3684
  0
LINE
  8
0-2
  6
CONTINUOUS
 62
    3
 10
535.00209
 20
1371.3684
 11
533.57444
 21
1370.2721
  0
LINE
  8
0-2
  6
CONTINUOUS
 62
    3
 10
533.57444
 20
1370.2721
 11
532.34207
 21
1368.9207
  0
LINE
  8
0-2
  6
CONTINUOUS
 62
    3
 10
532.34207
 20
1368.9207
 11
531.34242
 21
1367.3551
  0
LINE
  8
0-2
  6
CONTINUOUS
 62
    3
 10
531.34242
 20
1367.3551
 11
530.60586
 21
1365.623
  0
LINE
  8
0-2
  6
CONTINUOUS
 62
    3
 10
530.60586
 20
1365.623
 11
530.15478
 21
1363.7769
  0
LINE
  8
0-2
  6
CONTINUOUS
 62
    3
 10
530.15478
 20
1363.7769
 11
530.00288
 21
1361.8729
  0
LINE
  8
0-2
  6
CONTINUOUS
 62
    3
 10
530.00288
 20
1361.8729
 11
530.15478
 21
1359.969
  0
LINE
  8
0-2
  6
CONTINUOUS
 62
    3
 10
530.15478
 20
1359.969
 11
530.60586
 21
1358.1229
  0
LINE
  8
0-2
  6
CONTINUOUS
 62
    3
 10
530.60586
 20
1358.1229
 11
531.34242
 21
1356.3907
  0
LINE
  8
0-2
  6
CONTINUOUS
 62
    3
 10
531.34242
 20
1356.3907
 11
532.34207
 21
1354.8251
  0
LINE
  8
0-2
  6
CONTINUOUS
 62
    3
 10
532.34207
 20
1354.8251
 11
533.57444
 21
1353.4737
  0
LINE
  8
0-2
  6
CONTINUOUS
 62
    3
 10
533.57444
 20
1353.4737
 11
535.00209
 21
1352.3775
  0
LINE
  8
0-2
  6
CONTINUOUS
 62
    3
 10
535.00209
 20
1352.3775
 11
536.58165
 21
1351.5698
  0
LINE
  8
0-2
  6
CONTINUOUS
 62
    3
 10
536.58165
 20
1351.5698
 11
538.2651
 21
1351.0751
  0
LINE
  8
0-2
  6
CONTINUOUS
 62
    3
 10
538.2651
 20
1351.0751
 11
540.00131
 21
1350.9085
  0
LINE
  8
0-2
  6
CONTINUOUS
 62
    3
 10
540.00032
 20
1259.7666
 11
538.26411
 21
1259.6
  0
LINE
  8
0-2
  6
CONTINUOUS
 62
    3
 10
538.26411
 20
1259.6
 11
536.58066
 21
1259.1054
  0
LINE
  8
0-2
  6
CONTINUOUS
 62
    3
 10
536.58066
 20
1259.1054
 11
535.00111
 21
1258.2976
  0
LINE
  8
0-2
  6
CONTINUOUS
 62
    3
 10
535.00111
 20
1258.2976
 11
533.57345
 21
1257.2014
  0
LINE
  8
0-2
  6
CONTINUOUS
 62
    3
 10
533.57345
 20
1257.2014
 11
532.34108
 21
1255.85
  0
LINE
  8
0-2
  6
CONTINUOUS
 62
    3
 10
532.34108
 20
1255.85
 11
531.34143
 21
1254.2844
  0
LINE
  8
0-2
  6
CONTINUOUS
 62
    3
 10
531.34143
 20
1254.2844
 11
530.60487
 21
1252.5522
  0
LINE
  8
0-2
  6
CONTINUOUS
 62
    3
 10
530.60487
 20
1252.5522
 11
530.15379
 21
1250.7061
  0
LINE
  8
0-2
  6
CONTINUOUS
 62
    3
 10
530.15379
 20
1250.7061
 11
530.00189
 21
1248.8022
  0
LINE
  8
0-2
  6
CONTINUOUS
 62
    3
 10
530.00189
 20
1248.8022
 11
530.15379
 21
1246.8983
  0
LINE
  8
0-2
  6
CONTINUOUS
 62
    3
 10
530.15379
 20
1246.8983
 11
530.60487
 21
1245.0522
  0
LINE
  8
0-2
  6
CONTINUOUS
 62
    3
 10
530.60487
 20
1245.0522
 11
531.34143
 21
1243.32
  0
LINE
  8
0-2
  6
CONTINUOUS
 62
    3
 10
531.34143
 20
1243.32
 11
532.34108
 21
1241.7544
  0
LINE
  8
0-2
  6
CONTINUOUS
 62
    3
 10
532.34108
 20
1241.7544
 11
533.57345
 21
1240.403
  0
LINE
  8
0-2
  6
CONTINUOUS
 62
    3
 10
533.57345
 20
1240.403
 11
535.00111
 21
1239.3068
  0
LINE
  8
0-2
  6
CONTINUOUS
 62
    3
 10
535.00111
 20
1239.3068
 11
536.58066
 21
1238.499
  0
LINE
  8
0-2
  6
CONTINUOUS
 62
    3
 10
536.58066
 20
1238.499
 11
538.26411
 21
1238.0044
  0
LINE
  8
0-2
  6
CONTINUOUS
 62
    3
 10
538.26411
 20
1238.0044
 11
540.00032
 21
1237.8378
  0
LINE
  8
0-2
  6
CONTINUOUS
 62
    3
 10
1560.0012
 20
1350.9085
 11
1561.7374
 21
1351.0751
  0
LINE
  8
0-2
  6
CONTINUOUS
 62
    3
 10
1561.7374
 20
1351.0751
 11
1563.4209
 21
1351.5698
  0
LINE
  8
0-2
  6
CONTINUOUS
 62
    3
 10
1563.4209
 20
1351.5698
 11
1565.0004
 21
1352.3775
  0
LINE
  8
0-2
  6
CONTINUOUS
 62
    3
 10
1565.0004
 20
1352.3775
 11
1566.4281
 21
1353.4737
  0
LINE
  8
0-2
  6
CONTINUOUS
 62
    3
 10
1566.4281
 20
1353.4737
 11
1567.6605
 21
1354.8251
  0
LINE
  8
0-2
  6
CONTINUOUS
 62
    3
 10
1567.6605
 20
1354.8251
 11
1568.6601
 21
1356.3907
  0
LINE
  8
0-2
  6
CONTINUOUS
 62
    3
 10
1568.6601
 20
1356.3907
 11
1569.3967
 21
1358.1229
  0
LINE
  8
0-2
  6
CONTINUOUS
 62
    3
 10
1569.3967
 20
1358.1229
 11
1569.8477
 21
1359.969
  0
LINE
  8
0-2
  6
CONTINUOUS
 62
    3
 10
1569.8477
 20
1359.969
 11
1569.9996
 21
1361.8729
  0
LINE
  8
0-2
  6
CONTINUOUS
 62
    3
 10
1569.9996
 20
1361.8729
 11
1569.8477
 21
1363.7769
  0
LINE
  8
0-2
  6
CONTINUOUS
 62
    3
 10
1569.8477
 20
1363.7769
 11
1569.3967
 21
1365.623
  0
LINE
  8
0-2
  6
CONTINUOUS
 62
    3
 10
1569.3967
 20
1365.623
 11
1568.6601
 21
1367.3551
  0
LINE
  8
0-2
  6
CONTINUOUS
 62
    3
 10
1568.6601
 20
1367.3551
 11
1567.6605
 21
1368.9207
  0
LINE
  8
0-2
  6
CONTINUOUS
 62
    3
 10
1567.6605
 20
1368.9207
 11
1566.4281
 21
1370.2721
  0
LINE
  8
0-2
  6
CONTINUOUS
 62
    3
 10
1566.4281
 20
1370.2721
 11
1565.0004
 21
1371.3684
  0
LINE
  8
0-2
  6
CONTINUOUS
 62
    3
 10
1565.0004
 20
1371.3684
 11
1563.4209
 21
1372.1761
  0
LINE
  8
0-2
  6
CONTINUOUS
 62
    3
 10
1563.4209
 20
1372.1761
 11
1561.7374
 21
1372.6707
  0
LINE
  8
0-2
  6
CONTINUOUS
 62
    3
 10
1561.7374
 20
1372.6707
 11
1560.0012
 21
1372.8373
  0
LINE
  8
0-2
  6
CONTINUOUS
 62
    3
 10
1560.0002
 20
1237.8378
 11
1561.7364
 21
1238.0044
  0
LINE
  8
0-2
  6
CONTINUOUS
 62
    3
 10
1561.7364
 20
1238.0044
 11
1563.4199
 21
1238.499
  0
LINE
  8
0-2
  6
CONTINUOUS
 62
    3
 10
1563.4199
 20
1238.499
 11
1564.9994
 21
1239.3068
  0
LINE
  8
0-2
  6
CONTINUOUS
 62
    3
 10
1564.9994
 20
1239.3068
 11
1566.4271
 21
1240.403
  0
LINE
  8
0-2
  6
CONTINUOUS
 62
    3
 10
1566.4271
 20
1240.403
 11
1567.6595
 21
1241.7544
  0
LINE
  8
0-2
  6
CONTINUOUS
 62
    3
 10
1567.6595
 20
1241.7544
 11
1568.6591
 21
1243.32
  0
LINE
  8
0-2
  6
CONTINUOUS
 62
    3
 10
1568.6591
 20
1243.32
 11
1569.3957
 21
1245.0522
  0
LINE
  8
0-2
  6
CONTINUOUS
 62
    3
 10
1569.3957
 20
1245.0522
 11
1569.8468
 21
1246.8983
  0
LINE
  8
0-2
  6
CONTINUOUS
 62
    3
 10
1569.8468
 20
1246.8983
 11
1569.9987
 21
1248.8022
  0
LINE
  8
0-2
  6
CONTINUOUS
 62
    3
 10
1569.9987
 20
1248.8022
 11
1569.8468
 21
1250.7061
  0
LINE
  8
0-2
  6
CONTINUOUS
 62
    3
 10
1569.8468
 20
1250.7061
 11
1569.3957
 21
1252.5522
  0
LINE
  8
0-2
  6
CONTINUOUS
 62
    3
 10
1569.3957
 20
1252.5522
 11
1568.6591
 21
1254.2844
  0
LINE
  8
0-2
  6
CONTINUOUS
 62
    3
 10
1568.6591
 20
1254.2844
 11
1567.6595
 21
1255.85
  0
LINE
  8
0-2
  6
CONTINUOUS
 62
    3
 10
1567.6595
 20
1255.85
 11
1566.4271
 21
1257.2014
  0
LINE
  8
0-2
  6
CONTINUOUS
 62
    3
 10
1566.4271
 20
1257.2014
 11
1564.9994
 21
1258.2976
  0
LINE
  8
0-2
  6
CONTINUOUS
 62
    3
 10
1564.9994
 20
1258.2976
 11
1563.4199
 21
1259.1054
  0
LINE
  8
0-2
  6
CONTINUOUS
 62
    3
 10
1563.4199
 20
1259.1054
 11
1561.7364
 21
1259.6
  0
LINE
  8
0-2
  6
CONTINUOUS
 62
    3
 10
1561.7364
 20
1259.6
 11
1560.0002
 21
1259.7666
  0
LINE
  8
0-2
  6
CONTINUOUS
 62
    3
 10
539.99982
 20
1887.8374
 11
538.26362
 21
1887.6709
  0
LINE
  8
0-2
  6
CONTINUOUS
 62
    3
 10
538.26362
 20
1887.6709
 11
536.58016
 21
1887.1762
  0
LINE
  8
0-2
  6
CONTINUOUS
 62
    3
 10
536.58016
 20
1887.1762
 11
535.00061
 21
1886.3685
  0
LINE
  8
0-2
  6
CONTINUOUS
 62
    3
 10
535.00061
 20
1886.3685
 11
533.57296
 21
1885.2723
  0
LINE
  8
0-2
  6
CONTINUOUS
 62
    3
 10
533.57296
 20
1885.2723
 11
532.34058
 21
1883.9208
  0
LINE
  8
0-2
  6
CONTINUOUS
 62
    3
 10
532.34058
 20
1883.9208
 11
531.34093
 21
1882.3552
  0
LINE
  8
0-2
  6
CONTINUOUS
 62
    3
 10
531.34093
 20
1882.3552
 11
530.60437
 21
1880.6231
  0
LINE
  8
0-2
  6
CONTINUOUS
 62
    3
 10
530.60437
 20
1880.6231
 11
530.15329
 21
1878.777
  0
LINE
  8
0-2
  6
CONTINUOUS
 62
    3
 10
530.15329
 20
1878.777
 11
530.0014
 21
1876.873
  0
LINE
  8
0-2
  6
CONTINUOUS
 62
    3
 10
530.0014
 20
1876.873
 11
530.15329
 21
1874.9691
  0
LINE
  8
0-2
  6
CONTINUOUS
 62
    3
 10
530.15329
 20
1874.9691
 11
530.60437
 21
1873.123
  0
LINE
  8
0-2
  6
CONTINUOUS
 62
    3
 10
530.60437
 20
1873.123
 11
531.34093
 21
1871.3908
  0
LINE
  8
0-2
  6
CONTINUOUS
 62
    3
 10
531.34093
 20
1871.3908
 11
532.34058
 21
1869.8253
  0
LINE
  8
0-2
  6
CONTINUOUS
 62
    3
 10
532.34058
 20
1869.8253
 11
533.57296
 21
1868.4738
  0
LINE
  8
0-2
  6
CONTINUOUS
 62
    3
 10
533.57296
 20
1868.4738
 11
535.00061
 21
1867.3776
  0
LINE
  8
0-2
  6
CONTINUOUS
 62
    3
 10
535.00061
 20
1867.3776
 11
536.58016
 21
1866.5699
  0
LINE
  8
0-2
  6
CONTINUOUS
 62
    3
 10
536.58016
 20
1866.5699
 11
538.26362
 21
1866.0752
  0
LINE
  8
0-2
  6
CONTINUOUS
 62
    3
 10
538.26362
 20
1866.0752
 11
539.99982
 21
1865.9086
  0
LINE
  8
0-2
  6
CONTINUOUS
 62
    3
 10
539.99982
 20
1774.7666
 11
538.26362
 21
1774.6
  0
LINE
  8
0-2
  6
CONTINUOUS
 62
    3
 10
538.26362
 20
1774.6
 11
536.58016
 21
1774.1053
  0
LINE
  8
0-2
  6
CONTINUOUS
 62
    3
 10
536.58016
 20
1774.1053
 11
535.00061
 21
1773.2976
  0
LINE
  8
0-2
  6
CONTINUOUS
 62
    3
 10
535.00061
 20
1773.2976
 11
533.57296
 21
1772.2014
  0
LINE
  8
0-2
  6
CONTINUOUS
 62
    3
 10
533.57296
 20
1772.2014
 11
532.34058
 21
1770.85
  0
LINE
  8
0-2
  6
CONTINUOUS
 62
    3
 10
532.34058
 20
1770.85
 11
531.34093
 21
1769.2844
  0
LINE
  8
0-2
  6
CONTINUOUS
 62
    3
 10
531.34093
 20
1769.2844
 11
530.60437
 21
1767.5522
  0
LINE
  8
0-2
  6
CONTINUOUS
 62
    3
 10
530.60437
 20
1767.5522
 11
530.15329
 21
1765.7061
  0
LINE
  8
0-2
  6
CONTINUOUS
 62
    3
 10
530.15329
 20
1765.7061
 11
530.0014
 21
1763.8022
  0
LINE
  8
0-2
  6
CONTINUOUS
 62
    3
 10
530.0014
 20
1763.8022
 11
530.15329
 21
1761.8982
  0
LINE
  8
0-2
  6
CONTINUOUS
 62
    3
 10
530.15329
 20
1761.8982
 11
530.60437
 21
1760.0521
  0
LINE
  8
0-2
  6
CONTINUOUS
 62
    3
 10
530.60437
 20
1760.0521
 11
531.34093
 21
1758.32
  0
LINE
  8
0-2
  6
CONTINUOUS
 62
    3
 10
531.34093
 20
1758.32
 11
532.34058
 21
1756.7544
  0
LINE
  8
0-2
  6
CONTINUOUS
 62
    3
 10
532.34058
 20
1756.7544
 11
533.57296
 21
1755.403
  0
LINE
  8
0-2
  6
CONTINUOUS
 62
    3
 10
533.57296
 20
1755.403
 11
535.00061
 21
1754.3068
  0
LINE
  8
0-2
  6
CONTINUOUS
 62
    3
 10
535.00061
 20
1754.3068
 11
536.58016
 21
1753.499
  0
LINE
  8
0-2
  6
CONTINUOUS
 62
    3
 10
536.58016
 20
1753.499
 11
538.26362
 21
1753.0044
  0
LINE
  8
0-2
  6
CONTINUOUS
 62
    3
 10
538.26362
 20
1753.0044
 11
539.99982
 21
1752.8378
  0
LINE
  8
0-2
  6
CONTINUOUS
 62
    3
 10
1560.0002
 20
1865.9086
 11
1561.7364
 21
1866.0752
  0
LINE
  8
0-2
  6
CONTINUOUS
 62
    3
 10
1561.7364
 20
1866.0752
 11
1563.4199
 21
1866.5699
  0
LINE
  8
0-2
  6
CONTINUOUS
 62
    3
 10
1563.4199
 20
1866.5699
 11
1564.9994
 21
1867.3776
  0
LINE
  8
0-2
  6
CONTINUOUS
 62
    3
 10
1564.9994
 20
1867.3776
 11
1566.4271
 21
1868.4738
  0
LINE
  8
0-2
  6
CONTINUOUS
 62
    3
 10
1566.4271
 20
1868.4738
 11
1567.6595
 21
1869.8253
  0
LINE
  8
0-2
  6
CONTINUOUS
 62
    3
 10
1567.6595
 20
1869.8253
 11
1568.6591
 21
1871.3908
  0
LINE
  8
0-2
  6
CONTINUOUS
 62
    3
 10
1568.6591
 20
1871.3908
 11
1569.3957
 21
1873.123
  0
LINE
  8
0-2
  6
CONTINUOUS
 62
    3
 10
1569.3957
 20
1873.123
 11
1569.8468
 21
1874.9691
  0
LINE
  8
0-2
  6
CONTINUOUS
 62
    3
 10
1569.8468
 20
1874.9691
 11
1569.9987
 21
1876.873
  0
LINE
  8
0-2
  6
CONTINUOUS
 62
    3
 10
1569.9987
 20
1876.873
 11
1569.8468
 21
1878.777
  0
LINE
  8
0-2
  6
CONTINUOUS
 62
    3
 10
1569.8468
 20
1878.777
 11
1569.3957
 21
1880.6231
  0
LINE
  8
0-2
  6
CONTINUOUS
 62
    3
 10
1569.3957
 20
1880.6231
 11
1568.6591
 21
1882.3552
  0
LINE
  8
0-2
  6
CONTINUOUS
 62
    3
 10
1568.6591
 20
1882.3552
 11
1567.6595
 21
1883.9208
  0
LINE
  8
0-2
  6
CONTINUOUS
 62
    3
 10
1567.6595
 20
1883.9208
 11
1566.4271
 21
1885.2723
  0
LINE
  8
0-2
  6
CONTINUOUS
 62
    3
 10
1566.4271
 20
1885.2723
 11
1564.9994
 21
1886.3685
  0
LINE
  8
0-2
  6
CONTINUOUS
 62
    3
 10
1564.9994
 20
1886.3685
 11
1563.4199
 21
1887.1762
  0
LINE
  8
0-2
  6
CONTINUOUS
 62
    3
 10
1563.4199
 20
1887.1762
 11
1561.7364
 21
1887.6709
  0
LINE
  8
0-2
  6
CONTINUOUS
 62
    3
 10
1561.7364
 20
1887.6709
 11
1560.0002
 21
1887.8374
  0
LINE
  8
0-2
  6
CONTINUOUS
 62
    3
 10
1560.0002
 20
1752.8378
 11
1561.7364
 21
1753.0044
  0
LINE
  8
0-2
  6
CONTINUOUS
 62
    3
 10
1561.7364
 20
1753.0044
 11
1563.4199
 21
1753.499
  0
LINE
  8
0-2
  6
CONTINUOUS
 62
    3
 10
1563.4199
 20
1753.499
 11
1564.9994
 21
1754.3068
  0
LINE
  8
0-2
  6
CONTINUOUS
 62
    3
 10
1564.9994
 20
1754.3068
 11
1566.4271
 21
1755.403
  0
LINE
  8
0-2
  6
CONTINUOUS
 62
    3
 10
1566.4271
 20
1755.403
 11
1567.6595
 21
1756.7544
  0
LINE
  8
0-2
  6
CONTINUOUS
 62
    3
 10
1567.6595
 20
1756.7544
 11
1568.6591
 21
1758.32
  0
LINE
  8
0-2
  6
CONTINUOUS
 62
    3
 10
1568.6591
 20
1758.32
 11
1569.3957
 21
1760.0521
  0
LINE
  8
0-2
  6
CONTINUOUS
 62
    3
 10
1569.3957
 20
1760.0521
 11
1569.8468
 21
1761.8982
  0
LINE
  8
0-2
  6
CONTINUOUS
 62
    3
 10
1569.8468
 20
1761.8982
 11
1569.9987
 21
1763.8022
  0
LINE
  8
0-2
  6
CONTINUOUS
 62
    3
 10
1569.9987
 20
1763.8022
 11
1569.8468
 21
1765.7061
  0
LINE
  8
0-2
  6
CONTINUOUS
 62
    3
 10
1569.8468
 20
1765.7061
 11
1569.3957
 21
1767.5522
  0
LINE
  8
0-2
  6
CONTINUOUS
 62
    3
 10
1569.3957
 20
1767.5522
 11
1568.6591
 21
1769.2844
  0
LINE
  8
0-2
  6
CONTINUOUS
 62
    3
 10
1568.6591
 20
1769.2844
 11
1567.6595
 21
1770.85
  0
LINE
  8
0-2
  6
CONTINUOUS
 62
    3
 10
1567.6595
 20
1770.85
 11
1566.4271
 21
1772.2014
  0
LINE
  8
0-2
  6
CONTINUOUS
 62
    3
 10
1566.4271
 20
1772.2014
 11
1564.9994
 21
1773.2976
  0
LINE
  8
0-2
  6
CONTINUOUS
 62
    3
 10
1564.9994
 20
1773.2976
 11
1563.4199
 21
1774.1053
  0
LINE
  8
0-2
  6
CONTINUOUS
 62
    3
 10
1563.4199
 20
1774.1053
 11
1561.7364
 21
1774.6
  0
LINE
  8
0-2
  6
CONTINUOUS
 62
    3
 10
1561.7364
 20
1774.6
 11
1560.0002
 21
1774.7666
  0
LINE
  8
0-2
  6
CONTINUOUS
 62
    3
 10
1009.0263
 20
1997.4869
 11
1009.5502
 21
1995.5742
  0
LINE
  8
0-2
  6
CONTINUOUS
 62
    3
 10
1009.5502
 20
1995.5742
 11
1010.3689
 21
1993.7903
  0
LINE
  8
0-2
  6
CONTINUOUS
 62
    3
 10
1010.3689
 20
1993.7903
 11
1011.4577
 21
1992.1893
  0
LINE
  8
0-2
  6
CONTINUOUS
 62
    3
 10
1011.4577
 20
1992.1893
 11
1012.7835
 21
1990.8201
  0
LINE
  8
0-2
  6
CONTINUOUS
 62
    3
 10
1012.7835
 20
1990.8201
 11
1014.306
 21
1989.7241
  0
LINE
  8
0-2
  6
CONTINUOUS
 62
    3
 10
1014.306
 20
1989.7241
 11
1015.9788
 21
1988.9346
  0
LINE
  8
0-2
  6
CONTINUOUS
 62
    3
 10
1015.9788
 20
1988.9346
 11
1017.7513
 21
1988.4757
  0
LINE
  8
0-2
  6
CONTINUOUS
 62
    3
 10
1017.7513
 20
1988.4757
 11
1019.5695
 21
1988.3613
  0
LINE
  8
0-2
  6
CONTINUOUS
 62
    3
 10
1019.5695
 20
1988.3613
 11
1021.3782
 21
1988.5949
  0
LINE
  8
0-2
  6
CONTINUOUS
 62
    3
 10
1021.3782
 20
1988.5949
 11
1023.1224
 21
1989.1694
  0
LINE
  8
0-2
  6
CONTINUOUS
 62
    3
 10
1023.1224
 20
1989.1694
 11
1024.7492
 21
1990.0672
  0
LINE
  8
0-2
  6
CONTINUOUS
 62
    3
 10
1024.7492
 20
1990.0672
 11
1026.2091
 21
1991.2612
  0
LINE
  8
0-2
  6
CONTINUOUS
 62
    3
 10
1026.2091
 20
1991.2612
 11
1027.4577
 21
1992.7151
  0
LINE
  8
0-2
  6
CONTINUOUS
 62
    3
 10
1027.4577
 20
1992.7151
 11
1028.4572
 21
1994.3846
  0
LINE
  8
0-2
  6
CONTINUOUS
 62
    3
 10
1028.4572
 20
1994.3846
 11
1029.1771
 21
1996.2191
  0
LINE
  8
0-2
  6
CONTINUOUS
 62
    3
 10
1029.1771
 20
1996.2191
 11
1029.4868
 21
1997.4869
  0
LINE
  8
0-2
  6
CONTINUOUS
 62
    3
 10
753.22482
 20
1784.8554
 11
753.13368
 21
1785.9978
  0
LINE
  8
0-2
  6
CONTINUOUS
 62
    3
 10
753.13368
 20
1785.9978
 11
752.86302
 21
1787.1055
  0
LINE
  8
0-2
  6
CONTINUOUS
 62
    3
 10
752.86302
 20
1787.1055
 11
752.42107
 21
1788.1448
  0
LINE
  8
0-2
  6
CONTINUOUS
 62
    3
 10
752.42107
 20
1788.1448
 11
751.82125
 21
1789.0842
  0
LINE
  8
0-2
  6
CONTINUOUS
 62
    3
 10
751.82125
 20
1789.0842
 11
751.08179
 21
1789.8951
  0
LINE
  8
0-2
  6
CONTINUOUS
 62
    3
 10
751.08179
 20
1789.8951
 11
750.22516
 21
1790.5529
  0
LINE
  8
0-2
  6
CONTINUOUS
 62
    3
 10
750.22516
 20
1790.5529
 11
749.27738
 21
1791.0375
  0
LINE
  8
0-2
  6
CONTINUOUS
 62
    3
 10
749.27738
 20
1791.0375
 11
748.26726
 21
1791.3344
  0
LINE
  8
0-2
  6
CONTINUOUS
 62
    3
 10
748.26726
 20
1791.3344
 11
747.22549
 21
1791.4343
  0
LINE
  8
0-2
  6
CONTINUOUS
 62
    3
 10
747.22549
 20
1791.4343
 11
746.18372
 21
1791.3344
  0
LINE
  8
0-2
  6
CONTINUOUS
 62
    3
 10
746.18372
 20
1791.3344
 11
745.1736
 21
1791.0375
  0
LINE
  8
0-2
  6
CONTINUOUS
 62
    3
 10
745.1736
 20
1791.0375
 11
744.22582
 21
1790.5529
  0
LINE
  8
0-2
  6
CONTINUOUS
 62
    3
 10
744.22582
 20
1790.5529
 11
743.36919
 21
1789.8951
  0
LINE
  8
0-2
  6
CONTINUOUS
 62
    3
 10
743.36919
 20
1789.8951
 11
742.62973
 21
1789.0842
  0
LINE
  8
0-2
  6
CONTINUOUS
 62
    3
 10
742.62973
 20
1789.0842
 11
742.02991
 21
1788.1448
  0
LINE
  8
0-2
  6
CONTINUOUS
 62
    3
 10
742.02991
 20
1788.1448
 11
741.58796
 21
1787.1055
  0
LINE
  8
0-2
  6
CONTINUOUS
 62
    3
 10
741.58796
 20
1787.1055
 11
741.3173
 21
1785.9978
  0
LINE
  8
0-2
  6
CONTINUOUS
 62
    3
 10
741.3173
 20
1785.9978
 11
741.22616
 21
1784.8554
  0
LINE
  8
0-2
  6
CONTINUOUS
 62
    3
 10
741.22616
 20
1784.8554
 11
741.3173
 21
1783.7129
  0
LINE
  8
0-2
  6
CONTINUOUS
 62
    3
 10
741.3173
 20
1783.7129
 11
741.58796
 21
1782.6052
  0
LINE
  8
0-2
  6
CONTINUOUS
 62
    3
 10
741.58796
 20
1782.6052
 11
742.02991
 21
1781.5659
  0
LINE
  8
0-2
  6
CONTINUOUS
 62
    3
 10
742.02991
 20
1781.5659
 11
742.62973
 21
1780.6265
  0
LINE
  8
0-2
  6
CONTINUOUS
 62
    3
 10
742.62973
 20
1780.6265
 11
743.36919
 21
1779.8156
  0
LINE
  8
0-2
  6
CONTINUOUS
 62
    3
 10
743.36919
 20
1779.8156
 11
744.22582
 21
1779.1578
  0
LINE
  8
0-2
  6
CONTINUOUS
 62
    3
 10
744.22582
 20
1779.1578
 11
745.1736
 21
1778.6732
  0
LINE
  8
0-2
  6
CONTINUOUS
 62
    3
 10
745.1736
 20
1778.6732
 11
746.18372
 21
1778.3764
  0
LINE
  8
0-2
  6
CONTINUOUS
 62
    3
 10
746.18372
 20
1778.3764
 11
747.22549
 21
1778.2764
  0
LINE
  8
0-2
  6
CONTINUOUS
 62
    3
 10
747.22549
 20
1778.2764
 11
748.26726
 21
1778.3764
  0
LINE
  8
0-2
  6
CONTINUOUS
 62
    3
 10
748.26726
 20
1778.3764
 11
749.27738
 21
1778.6732
  0
LINE
  8
0-2
  6
CONTINUOUS
 62
    3
 10
749.27738
 20
1778.6732
 11
750.22516
 21
1779.1578
  0
LINE
  8
0-2
  6
CONTINUOUS
 62
    3
 10
750.22516
 20
1779.1578
 11
751.08179
 21
1779.8156
  0
LINE
  8
0-2
  6
CONTINUOUS
 62
    3
 10
751.08179
 20
1779.8156
 11
751.82125
 21
1780.6265
  0
LINE
  8
0-2
  6
CONTINUOUS
 62
    3
 10
751.82125
 20
1780.6265
 11
752.42107
 21
1781.5659
  0
LINE
  8
0-2
  6
CONTINUOUS
 62
    3
 10
752.42107
 20
1781.5659
 11
752.86302
 21
1782.6052
  0
LINE
  8
0-2
  6
CONTINUOUS
 62
    3
 10
752.86302
 20
1782.6052
 11
753.13368
 21
1783.7129
  0
LINE
  8
0-2
  6
CONTINUOUS
 62
    3
 10
753.13368
 20
1783.7129
 11
753.22482
 21
1784.8554
  0
LINE
  8
0-2
  6
CONTINUOUS
 62
    3
 10
753.22482
 20
1844.9394
 11
753.13368
 21
1846.0819
  0
LINE
  8
0-2
  6
CONTINUOUS
 62
    3
 10
753.13368
 20
1846.0819
 11
752.86302
 21
1847.1896
  0
LINE
  8
0-2
  6
CONTINUOUS
 62
    3
 10
752.86302
 20
1847.1896
 11
752.42107
 21
1848.2289
  0
LINE
  8
0-2
  6
CONTINUOUS
 62
    3
 10
752.42107
 20
1848.2289
 11
751.82125
 21
1849.1683
  0
LINE
  8
0-2
  6
CONTINUOUS
 62
    3
 10
751.82125
 20
1849.1683
 11
751.08179
 21
1849.9792
  0
LINE
  8
0-2
  6
CONTINUOUS
 62
    3
 10
751.08179
 20
1849.9792
 11
750.22516
 21
1850.637
  0
LINE
  8
0-2
  6
CONTINUOUS
 62
    3
 10
750.22516
 20
1850.637
 11
749.27738
 21
1851.1216
  0
LINE
  8
0-2
  6
CONTINUOUS
 62
    3
 10
749.27738
 20
1851.1216
 11
748.26726
 21
1851.4184
  0
LINE
  8
0-2
  6
CONTINUOUS
 62
    3
 10
748.26726
 20
1851.4184
 11
747.22549
 21
1851.5184
  0
LINE
  8
0-2
  6
CONTINUOUS
 62
    3
 10
747.22549
 20
1851.5184
 11
746.18372
 21
1851.4184
  0
LINE
  8
0-2
  6
CONTINUOUS
 62
    3
 10
746.18372
 20
1851.4184
 11
745.1736
 21
1851.1216
  0
LINE
  8
0-2
  6
CONTINUOUS
 62
    3
 10
745.1736
 20
1851.1216
 11
744.22582
 21
1850.637
  0
LINE
  8
0-2
  6
CONTINUOUS
 62
    3
 10
744.22582
 20
1850.637
 11
743.36919
 21
1849.9792
  0
LINE
  8
0-2
  6
CONTINUOUS
 62
    3
 10
743.36919
 20
1849.9792
 11
742.62973
 21
1849.1683
  0
LINE
  8
0-2
  6
CONTINUOUS
 62
    3
 10
742.62973
 20
1849.1683
 11
742.02991
 21
1848.2289
  0
LINE
  8
0-2
  6
CONTINUOUS
 62
    3
 10
742.02991
 20
1848.2289
 11
741.58796
 21
1847.1896
  0
LINE
  8
0-2
  6
CONTINUOUS
 62
    3
 10
741.58796
 20
1847.1896
 11
741.3173
 21
1846.0819
  0
LINE
  8
0-2
  6
CONTINUOUS
 62
    3
 10
741.3173
 20
1846.0819
 11
741.22616
 21
1844.9394
  0
LINE
  8
0-2
  6
CONTINUOUS
 62
    3
 10
741.22616
 20
1844.9394
 11
741.3173
 21
1843.797
  0
LINE
  8
0-2
  6
CONTINUOUS
 62
    3
 10
741.3173
 20
1843.797
 11
741.58796
 21
1842.6893
  0
LINE
  8
0-2
  6
CONTINUOUS
 62
    3
 10
741.58796
 20
1842.6893
 11
742.02991
 21
1841.65
  0
LINE
  8
0-2
  6
CONTINUOUS
 62
    3
 10
742.02991
 20
1841.65
 11
742.62973
 21
1840.7106
  0
LINE
  8
0-2
  6
CONTINUOUS
 62
    3
 10
742.62973
 20
1840.7106
 11
743.36919
 21
1839.8997
  0
LINE
  8
0-2
  6
CONTINUOUS
 62
    3
 10
743.36919
 20
1839.8997
 11
744.22582
 21
1839.2419
  0
LINE
  8
0-2
  6
CONTINUOUS
 62
    3
 10
744.22582
 20
1839.2419
 11
745.1736
 21
1838.7573
  0
LINE
  8
0-2
  6
CONTINUOUS
 62
    3
 10
745.1736
 20
1838.7573
 11
746.18372
 21
1838.4605
  0
LINE
  8
0-2
  6
CONTINUOUS
 62
    3
 10
746.18372
 20
1838.4605
 11
747.22549
 21
1838.3605
  0
LINE
  8
0-2
  6
CONTINUOUS
 62
    3
 10
747.22549
 20
1838.3605
 11
748.26726
 21
1838.4605
  0
LINE
  8
0-2
  6
CONTINUOUS
 62
    3
 10
748.26726
 20
1838.4605
 11
749.27738
 21
1838.7573
  0
LINE
  8
0-2
  6
CONTINUOUS
 62
    3
 10
749.27738
 20
1838.7573
 11
750.22516
 21
1839.2419
  0
LINE
  8
0-2
  6
CONTINUOUS
 62
    3
 10
750.22516
 20
1839.2419
 11
751.08179
 21
1839.8997
  0
LINE
  8
0-2
  6
CONTINUOUS
 62
    3
 10
751.08179
 20
1839.8997
 11
751.82125
 21
1840.7106
  0
LINE
  8
0-2
  6
CONTINUOUS
 62
    3
 10
751.82125
 20
1840.7106
 11
752.42107
 21
1841.65
  0
LINE
  8
0-2
  6
CONTINUOUS
 62
    3
 10
752.42107
 20
1841.65
 11
752.86302
 21
1842.6893
  0
LINE
  8
0-2
  6
CONTINUOUS
 62
    3
 10
752.86302
 20
1842.6893
 11
753.13368
 21
1843.797
  0
LINE
  8
0-2
  6
CONTINUOUS
 62
    3
 10
753.13368
 20
1843.797
 11
753.22482
 21
1844.9394
  0
LINE
  8
0-2
  6
CONTINUOUS
 62
    3
 10
753.22482
 20
1339.3292
 11
753.13368
 21
1340.4716
  0
LINE
  8
0-2
  6
CONTINUOUS
 62
    3
 10
753.13368
 20
1340.4716
 11
752.86302
 21
1341.5793
  0
LINE
  8
0-2
  6
CONTINUOUS
 62
    3
 10
752.86302
 20
1341.5793
 11
752.42107
 21
1342.6186
  0
LINE
  8
0-2
  6
CONTINUOUS
 62
    3
 10
752.42107
 20
1342.6186
 11
751.82125
 21
1343.558
  0
LINE
  8
0-2
  6
CONTINUOUS
 62
    3
 10
751.82125
 20
1343.558
 11
751.08179
 21
1344.3689
  0
LINE
  8
0-2
  6
CONTINUOUS
 62
    3
 10
751.08179
 20
1344.3689
 11
750.22516
 21
1345.0267
  0
LINE
  8
0-2
  6
CONTINUOUS
 62
    3
 10
750.22516
 20
1345.0267
 11
749.27738
 21
1345.5114
  0
LINE
  8
0-2
  6
CONTINUOUS
 62
    3
 10
749.27738
 20
1345.5114
 11
748.26726
 21
1345.8082
  0
LINE
  8
0-2
  6
CONTINUOUS
 62
    3
 10
748.26726
 20
1345.8082
 11
747.22549
 21
1345.9081
  0
LINE
  8
0-2
  6
CONTINUOUS
 62
    3
 10
747.22549
 20
1345.9081
 11
746.18372
 21
1345.8082
  0
LINE
  8
0-2
  6
CONTINUOUS
 62
    3
 10
746.18372
 20
1345.8082
 11
745.1736
 21
1345.5114
  0
LINE
  8
0-2
  6
CONTINUOUS
 62
    3
 10
745.1736
 20
1345.5114
 11
744.22582
 21
1345.0267
  0
LINE
  8
0-2
  6
CONTINUOUS
 62
    3
 10
744.22582
 20
1345.0267
 11
743.36919
 21
1344.3689
  0
LINE
  8
0-2
  6
CONTINUOUS
 62
    3
 10
743.36919
 20
1344.3689
 11
742.62973
 21
1343.558
  0
LINE
  8
0-2
  6
CONTINUOUS
 62
    3
 10
742.62973
 20
1343.558
 11
742.02991
 21
1342.6186
  0
LINE
  8
0-2
  6
CONTINUOUS
 62
    3
 10
742.02991
 20
1342.6186
 11
741.58796
 21
1341.5793
  0
LINE
  8
0-2
  6
CONTINUOUS
 62
    3
 10
741.58796
 20
1341.5793
 11
741.3173
 21
1340.4716
  0
LINE
  8
0-2
  6
CONTINUOUS
 62
    3
 10
741.3173
 20
1340.4716
 11
741.22616
 21
1339.3292
  0
LINE
  8
0-2
  6
CONTINUOUS
 62
    3
 10
741.22616
 20
1339.3292
 11
741.3173
 21
1338.1868
  0
LINE
  8
0-2
  6
CONTINUOUS
 62
    3
 10
741.3173
 20
1338.1868
 11
741.58796
 21
1337.079
  0
LINE
  8
0-2
  6
CONTINUOUS
 62
    3
 10
741.58796
 20
1337.079
 11
742.02991
 21
1336.0397
  0
LINE
  8
0-2
  6
CONTINUOUS
 62
    3
 10
742.02991
 20
1336.0397
 11
742.62973
 21
1335.1003
  0
LINE
  8
0-2
  6
CONTINUOUS
 62
    3
 10
742.62973
 20
1335.1003
 11
743.36919
 21
1334.2894
  0
LINE
  8
0-2
  6
CONTINUOUS
 62
    3
 10
743.36919
 20
1334.2894
 11
744.22582
 21
1333.6316
  0
LINE
  8
0-2
  6
CONTINUOUS
 62
    3
 10
744.22582
 20
1333.6316
 11
745.1736
 21
1333.147
  0
LINE
  8
0-2
  6
CONTINUOUS
 62
    3
 10
745.1736
 20
1333.147
 11
746.18372
 21
1332.8502
  0
LINE
  8
0-2
  6
CONTINUOUS
 62
    3
 10
746.18372
 20
1332.8502
 11
747.22549
 21
1332.7502
  0
LINE
  8
0-2
  6
CONTINUOUS
 62
    3
 10
747.22549
 20
1332.7502
 11
748.26726
 21
1332.8502
  0
LINE
  8
0-2
  6
CONTINUOUS
 62
    3
 10
748.26726
 20
1332.8502
 11
749.27738
 21
1333.147
  0
LINE
  8
0-2
  6
CONTINUOUS
 62
    3
 10
749.27738
 20
1333.147
 11
750.22516
 21
1333.6316
  0
LINE
  8
0-2
  6
CONTINUOUS
 62
    3
 10
750.22516
 20
1333.6316
 11
751.08179
 21
1334.2894
  0
LINE
  8
0-2
  6
CONTINUOUS
 62
    3
 10
751.08179
 20
1334.2894
 11
751.82125
 21
1335.1003
  0
LINE
  8
0-2
  6
CONTINUOUS
 62
    3
 10
751.82125
 20
1335.1003
 11
752.42107
 21
1336.0397
  0
LINE
  8
0-2
  6
CONTINUOUS
 62
    3
 10
752.42107
 20
1336.0397
 11
752.86302
 21
1337.079
  0
LINE
  8
0-2
  6
CONTINUOUS
 62
    3
 10
752.86302
 20
1337.079
 11
753.13368
 21
1338.1868
  0
LINE
  8
0-2
  6
CONTINUOUS
 62
    3
 10
753.13368
 20
1338.1868
 11
753.22482
 21
1339.3292
  0
LINE
  8
0-2
  6
CONTINUOUS
 62
    3
 10
753.22482
 20
1280.7363
 11
753.13368
 21
1281.8787
  0
LINE
  8
0-2
  6
CONTINUOUS
 62
    3
 10
753.13368
 20
1281.8787
 11
752.86302
 21
1282.9864
  0
LINE
  8
0-2
  6
CONTINUOUS
 62
    3
 10
752.86302
 20
1282.9864
 11
752.42107
 21
1284.0258
  0
LINE
  8
0-2
  6
CONTINUOUS
 62
    3
 10
752.42107
 20
1284.0258
 11
751.82125
 21
1284.9651
  0
LINE
  8
0-2
  6
CONTINUOUS
 62
    3
 10
751.82125
 20
1284.9651
 11
751.08179
 21
1285.776
  0
LINE
  8
0-2
  6
CONTINUOUS
 62
    3
 10
751.08179
 20
1285.776
 11
750.22516
 21
1286.4338
  0
LINE
  8
0-2
  6
CONTINUOUS
 62
    3
 10
750.22516
 20
1286.4338
 11
749.27738
 21
1286.9185
  0
LINE
  8
0-2
  6
CONTINUOUS
 62
    3
 10
749.27738
 20
1286.9185
 11
748.26726
 21
1287.2153
  0
LINE
  8
0-2
  6
CONTINUOUS
 62
    3
 10
748.26726
 20
1287.2153
 11
747.22549
 21
1287.3152
  0
LINE
  8
0-2
  6
CONTINUOUS
 62
    3
 10
747.22549
 20
1287.3152
 11
746.18372
 21
1287.2153
  0
LINE
  8
0-2
  6
CONTINUOUS
 62
    3
 10
746.18372
 20
1287.2153
 11
745.1736
 21
1286.9185
  0
LINE
  8
0-2
  6
CONTINUOUS
 62
    3
 10
745.1736
 20
1286.9185
 11
744.22582
 21
1286.4338
  0
LINE
  8
0-2
  6
CONTINUOUS
 62
    3
 10
744.22582
 20
1286.4338
 11
743.36919
 21
1285.776
  0
LINE
  8
0-2
  6
CONTINUOUS
 62
    3
 10
743.36919
 20
1285.776
 11
742.62973
 21
1284.9651
  0
LINE
  8
0-2
  6
CONTINUOUS
 62
    3
 10
742.62973
 20
1284.9651
 11
742.02991
 21
1284.0258
  0
LINE
  8
0-2
  6
CONTINUOUS
 62
    3
 10
742.02991
 20
1284.0258
 11
741.58796
 21
1282.9864
  0
LINE
  8
0-2
  6
CONTINUOUS
 62
    3
 10
741.58796
 20
1282.9864
 11
741.3173
 21
1281.8787
  0
LINE
  8
0-2
  6
CONTINUOUS
 62
    3
 10
741.3173
 20
1281.8787
 11
741.22616
 21
1280.7363
  0
LINE
  8
0-2
  6
CONTINUOUS
 62
    3
 10
741.22616
 20
1280.7363
 11
741.3173
 21
1279.5939
  0
LINE
  8
0-2
  6
CONTINUOUS
 62
    3
 10
741.3173
 20
1279.5939
 11
741.58796
 21
1278.4862
  0
LINE
  8
0-2
  6
CONTINUOUS
 62
    3
 10
741.58796
 20
1278.4862
 11
742.02991
 21
1277.4468
  0
LINE
  8
0-2
  6
CONTINUOUS
 62
    3
 10
742.02991
 20
1277.4468
 11
742.62973
 21
1276.5074
  0
LINE
  8
0-2
  6
CONTINUOUS
 62
    3
 10
742.62973
 20
1276.5074
 11
743.36919
 21
1275.6965
  0
LINE
  8
0-2
  6
CONTINUOUS
 62
    3
 10
743.36919
 20
1275.6965
 11
744.22582
 21
1275.0388
  0
LINE
  8
0-2
  6
CONTINUOUS
 62
    3
 10
744.22582
 20
1275.0388
 11
745.1736
 21
1274.5541
  0
LINE
  8
0-2
  6
CONTINUOUS
 62
    3
 10
745.1736
 20
1274.5541
 11
746.18372
 21
1274.2573
  0
LINE
  8
0-2
  6
CONTINUOUS
 62
    3
 10
746.18372
 20
1274.2573
 11
747.22549
 21
1274.1573
  0
LINE
  8
0-2
  6
CONTINUOUS
 62
    3
 10
747.22549
 20
1274.1573
 11
748.26726
 21
1274.2573
  0
LINE
  8
0-2
  6
CONTINUOUS
 62
    3
 10
748.26726
 20
1274.2573
 11
749.27738
 21
1274.5541
  0
LINE
  8
0-2
  6
CONTINUOUS
 62
    3
 10
749.27738
 20
1274.5541
 11
750.22516
 21
1275.0388
  0
LINE
  8
0-2
  6
CONTINUOUS
 62
    3
 10
750.22516
 20
1275.0388
 11
751.08179
 21
1275.6965
  0
LINE
  8
0-2
  6
CONTINUOUS
 62
    3
 10
751.08179
 20
1275.6965
 11
751.82125
 21
1276.5074
  0
LINE
  8
0-2
  6
CONTINUOUS
 62
    3
 10
751.82125
 20
1276.5074
 11
752.42107
 21
1277.4468
  0
LINE
  8
0-2
  6
CONTINUOUS
 62
    3
 10
752.42107
 20
1277.4468
 11
752.86302
 21
1278.4862
  0
LINE
  8
0-2
  6
CONTINUOUS
 62
    3
 10
752.86302
 20
1278.4862
 11
753.13368
 21
1279.5939
  0
LINE
  8
0-2
  6
CONTINUOUS
 62
    3
 10
753.13368
 20
1279.5939
 11
753.22482
 21
1280.7363
  0
LINE
  8
0-2
  6
CONTINUOUS
 62
    3
 10
1029.4868
 20
1128.1888
 11
1028.963
 21
1130.1015
  0
LINE
  8
0-2
  6
CONTINUOUS
 62
    3
 10
1028.963
 20
1130.1015
 11
1028.1442
 21
1131.8855
  0
LINE
  8
0-2
  6
CONTINUOUS
 62
    3
 10
1028.1442
 20
1131.8855
 11
1027.0554
 21
1133.4864
  0
LINE
  8
0-2
  6
CONTINUOUS
 62
    3
 10
1027.0554
 20
1133.4864
 11
1025.7297
 21
1134.8557
  0
LINE
  8
0-2
  6
CONTINUOUS
 62
    3
 10
1025.7297
 20
1134.8557
 11
1024.2072
 21
1135.9517
  0
LINE
  8
0-2
  6
CONTINUOUS
 62
    3
 10
1024.2072
 20
1135.9517
 11
1022.5344
 21
1136.7411
  0
LINE
  8
0-2
  6
CONTINUOUS
 62
    3
 10
1022.5344
 20
1136.7411
 11
1020.7619
 21
1137.2
  0
LINE
  8
0-2
  6
CONTINUOUS
 62
    3
 10
1020.7619
 20
1137.2
 11
1018.9437
 21
1137.3144
  0
LINE
  8
0-2
  6
CONTINUOUS
 62
    3
 10
1018.9437
 20
1137.3144
 11
1017.135
 21
1137.0808
  0
LINE
  8
0-2
  6
CONTINUOUS
 62
    3
 10
1017.135
 20
1137.0808
 11
1015.3908
 21
1136.5064
  0
LINE
  8
0-2
  6
CONTINUOUS
 62
    3
 10
1015.3908
 20
1136.5064
 11
1013.764
 21
1135.6085
  0
LINE
  8
0-2
  6
CONTINUOUS
 62
    3
 10
1013.764
 20
1135.6085
 11
1012.3041
 21
1134.4145
  0
LINE
  8
0-2
  6
CONTINUOUS
 62
    3
 10
1012.3041
 20
1134.4145
 11
1011.0555
 21
1132.9607
  0
LINE
  8
0-2
  6
CONTINUOUS
 62
    3
 10
1011.0555
 20
1132.9607
 11
1010.056
 21
1131.2911
  0
LINE
  8
0-2
  6
CONTINUOUS
 62
    3
 10
1010.056
 20
1131.2911
 11
1009.3361
 21
1129.4566
  0
LINE
  8
0-2
  6
CONTINUOUS
 62
    3
 10
1009.3361
 20
1129.4566
 11
1009.0263
 21
1128.1888
  0
LINE
  8
0-2
  6
CONTINUOUS
 62
    3
 10
1470.0004
 20
1280.4083
 11
1471.3052
 21
1280.4926
  0
LINE
  8
0-2
  6
CONTINUOUS
 62
    3
 10
1471.3052
 20
1280.4926
 11
1472.5752
 21
1280.7978
  0
LINE
  8
0-2
  6
CONTINUOUS
 62
    3
 10
1472.5752
 20
1280.7978
 11
1473.7719
 21
1281.3145
  0
LINE
  8
0-2
  6
CONTINUOUS
 62
    3
 10
1473.7719
 20
1281.3145
 11
1474.8589
 21
1282.0271
  0
LINE
  8
0-2
  6
CONTINUOUS
 62
    3
 10
1474.8589
 20
1282.0271
 11
1475.8032
 21
1282.9138
  0
LINE
  8
0-2
  6
CONTINUOUS
 62
    3
 10
1475.8032
 20
1282.9138
 11
1476.576
 21
1283.9479
  0
LINE
  8
0-2
  6
CONTINUOUS
 62
    3
 10
1476.576
 20
1283.9479
 11
1477.1539
 21
1285.0978
  0
LINE
  8
0-2
  6
CONTINUOUS
 62
    3
 10
1477.1539
 20
1285.0978
 11
1477.5194
 21
1286.3286
  0
LINE
  8
0-2
  6
CONTINUOUS
 62
    3
 10
1477.5194
 20
1286.3286
 11
1477.6613
 21
1287.6029
  0
LINE
  8
0-2
  6
CONTINUOUS
 62
    3
 10
1477.6613
 20
1287.6029
 11
1477.5753
 21
1288.882
  0
LINE
  8
0-2
  6
CONTINUOUS
 62
    3
 10
1477.5753
 20
1288.882
 11
1477.264
 21
1290.127
  0
LINE
  8
0-2
  6
CONTINUOUS
 62
    3
 10
1477.264
 20
1290.127
 11
1476.7369
 21
1291.3002
  0
LINE
  8
0-2
  6
CONTINUOUS
 62
    3
 10
1476.7369
 20
1291.3002
 11
1476.01
 21
1292.3657
  0
LINE
  8
0-2
  6
CONTINUOUS
 62
    3
 10
1476.01
 20
1292.3657
 11
1475.1054
 21
1293.2914
  0
LINE
  8
0-2
  6
CONTINUOUS
 62
    3
 10
1475.1054
 20
1293.2914
 11
1474.0506
 21
1294.049
  0
LINE
  8
0-2
  6
CONTINUOUS
 62
    3
 10
1474.0506
 20
1294.049
 11
1472.8776
 21
1294.6155
  0
LINE
  8
0-2
  6
CONTINUOUS
 62
    3
 10
1472.8776
 20
1294.6155
 11
1471.6221
 21
1294.9738
  0
LINE
  8
0-2
  6
CONTINUOUS
 62
    3
 10
1471.6221
 20
1294.9738
 11
1470.3222
 21
1295.1129
  0
LINE
  8
0-2
  6
CONTINUOUS
 62
    3
 10
1470.3222
 20
1295.1129
 11
1470.0004
 21
1295.1129
  0
LINE
  8
0-2
  6
CONTINUOUS
 62
    3
 10
1470.0004
 20
1817.504
 11
1471.3052
 21
1817.5883
  0
LINE
  8
0-2
  6
CONTINUOUS
 62
    3
 10
1471.3052
 20
1817.5883
 11
1472.5752
 21
1817.8934
  0
LINE
  8
0-2
  6
CONTINUOUS
 62
    3
 10
1472.5752
 20
1817.8934
 11
1473.7719
 21
1818.4101
  0
LINE
  8
0-2
  6
CONTINUOUS
 62
    3
 10
1473.7719
 20
1818.4101
 11
1474.8589
 21
1819.1227
  0
LINE
  8
0-2
  6
CONTINUOUS
 62
    3
 10
1474.8589
 20
1819.1227
 11
1475.8032
 21
1820.0095
  0
LINE
  8
0-2
  6
CONTINUOUS
 62
    3
 10
1475.8032
 20
1820.0095
 11
1476.576
 21
1821.0435
  0
LINE
  8
0-2
  6
CONTINUOUS
 62
    3
 10
1476.576
 20
1821.0435
 11
1477.1539
 21
1822.1934
  0
LINE
  8
0-2
  6
CONTINUOUS
 62
    3
 10
1477.1539
 20
1822.1934
 11
1477.5194
 21
1823.4242
  0
LINE
  8
0-2
  6
CONTINUOUS
 62
    3
 10
1477.5194
 20
1823.4242
 11
1477.6613
 21
1824.6985
  0
LINE
  8
0-2
  6
CONTINUOUS
 62
    3
 10
1477.6613
 20
1824.6985
 11
1477.5753
 21
1825.9776
  0
LINE
  8
0-2
  6
CONTINUOUS
 62
    3
 10
1477.5753
 20
1825.9776
 11
1477.264
 21
1827.2226
  0
LINE
  8
0-2
  6
CONTINUOUS
 62
    3
 10
1477.264
 20
1827.2226
 11
1476.7369
 21
1828.3958
  0
LINE
  8
0-2
  6
CONTINUOUS
 62
    3
 10
1476.7369
 20
1828.3958
 11
1476.01
 21
1829.4614
  0
LINE
  8
0-2
  6
CONTINUOUS
 62
    3
 10
1476.01
 20
1829.4614
 11
1475.1054
 21
1830.387
  0
LINE
  8
0-2
  6
CONTINUOUS
 62
    3
 10
1475.1054
 20
1830.387
 11
1474.0506
 21
1831.1446
  0
LINE
  8
0-2
  6
CONTINUOUS
 62
    3
 10
1474.0506
 20
1831.1446
 11
1472.8776
 21
1831.7112
  0
LINE
  8
0-2
  6
CONTINUOUS
 62
    3
 10
1472.8776
 20
1831.7112
 11
1471.6221
 21
1832.0694
  0
LINE
  8
0-2
  6
CONTINUOUS
 62
    3
 10
1471.6221
 20
1832.0694
 11
1470.3222
 21
1832.2085
  0
LINE
  8
0-2
  6
CONTINUOUS
 62
    3
 10
1470.3222
 20
1832.2085
 11
1470.0004
 21
1832.2085
  0
LINE
  8
0-2
  6
CONTINUOUS
 62
    3
 10
1364.9998
 20
1280.4083
 11
1366.3046
 21
1280.4926
  0
LINE
  8
0-2
  6
CONTINUOUS
 62
    3
 10
1366.3046
 20
1280.4926
 11
1367.5746
 21
1280.7978
  0
LINE
  8
0-2
  6
CONTINUOUS
 62
    3
 10
1367.5746
 20
1280.7978
 11
1368.7713
 21
1281.3145
  0
LINE
  8
0-2
  6
CONTINUOUS
 62
    3
 10
1368.7713
 20
1281.3145
 11
1369.8583
 21
1282.0271
  0
LINE
  8
0-2
  6
CONTINUOUS
 62
    3
 10
1369.8583
 20
1282.0271
 11
1370.8026
 21
1282.9138
  0
LINE
  8
0-2
  6
CONTINUOUS
 62
    3
 10
1370.8026
 20
1282.9138
 11
1371.5754
 21
1283.9479
  0
LINE
  8
0-2
  6
CONTINUOUS
 62
    3
 10
1371.5754
 20
1283.9479
 11
1372.1533
 21
1285.0978
  0
LINE
  8
0-2
  6
CONTINUOUS
 62
    3
 10
1372.1533
 20
1285.0978
 11
1372.5188
 21
1286.3286
  0
LINE
  8
0-2
  6
CONTINUOUS
 62
    3
 10
1372.5188
 20
1286.3286
 11
1372.6607
 21
1287.6029
  0
LINE
  8
0-2
  6
CONTINUOUS
 62
    3
 10
1372.6607
 20
1287.6029
 11
1372.5747
 21
1288.882
  0
LINE
  8
0-2
  6
CONTINUOUS
 62
    3
 10
1372.5747
 20
1288.882
 11
1372.2634
 21
1290.127
  0
LINE
  8
0-2
  6
CONTINUOUS
 62
    3
 10
1372.2634
 20
1290.127
 11
1371.7363
 21
1291.3002
  0
LINE
  8
0-2
  6
CONTINUOUS
 62
    3
 10
1371.7363
 20
1291.3002
 11
1371.0094
 21
1292.3657
  0
LINE
  8
0-2
  6
CONTINUOUS
 62
    3
 10
1371.0094
 20
1292.3657
 11
1370.1048
 21
1293.2914
  0
LINE
  8
0-2
  6
CONTINUOUS
 62
    3
 10
1370.1048
 20
1293.2914
 11
1369.05
 21
1294.049
  0
LINE
  8
0-2
  6
CONTINUOUS
 62
    3
 10
1369.05
 20
1294.049
 11
1367.877
 21
1294.6155
  0
LINE
  8
0-2
  6
CONTINUOUS
 62
    3
 10
1367.877
 20
1294.6155
 11
1366.6215
 21
1294.9738
  0
LINE
  8
0-2
  6
CONTINUOUS
 62
    3
 10
1366.6215
 20
1294.9738
 11
1365.3216
 21
1295.1129
  0
LINE
  8
0-2
  6
CONTINUOUS
 62
    3
 10
1365.3216
 20
1295.1129
 11
1364.9998
 21
1295.1129
  0
TEXT
  8
0-d
 10
254.9998
 20
157.4999
 40
25
 41
1
 50
0
  1
図
  0
TEXT
  8
0-d
 10
254.9998
 20
97.49997
 40
25
 41
1
 50
0
  1
番
  0
TEXT
  8
0-d
 10
655.00046
 20
157.4999
 40
25
 41
1
 50
0
  1
承
  0
TEXT
  8
0-d
 10
655.00046
 20
97.49997
 40
25
 41
1
 50
0
  1
認
  0
TEXT
  8
0-d
 10
1020.0003
 20
237.49996
 40
25
 41
1
 50
0
  1
尺
  0
TEXT
  8
0-d
 10
1020.0003
 20
197.49979
 40
25
 41
1
 50
0.0000762
  1
度
  0
TEXT
  8
0-d
 10
855.00014
 20
157.4999
 40
25
 41
1
 50
0
  1
製
  0
TEXT
  8
0-d
 10
855.00014
 20
97.49997
 40
25
 41
1
 50
0
  1
図
  0
TEXT
  8
0-d
 10
1555.0001
 20
237.49996
 40
25
 41
1
 50
0
  1
日
  0
TEXT
  8
0-d
 10
1555.0001
 20
197.49979
 40
25
 41
1
 50
0.0000762
  1
付
  0
TEXT
  8
0-d
 10
1111.4263
 20
163.48226
 40
20
 41
1
 50
0
  1
株式
  0
TEXT
  8
0-d
 10
1111.4263
 20
141.85181
 40
20
 41
1
 50
0.0000152
  1
会社
  0
TEXT
  8
0-d
 10
1174.2247
 20
143.24712
 40
40
 41
1
 50
0
  1
スズキベンチレーター
  0
TEXT
  8
0-d
 10
1237.9182
 20
94.024183
 40
20
 41
1
 50
0
  1
TEL(054)296-7000  FAX(054)296-7001
  0
TEXT
  8
0-d
 10
1084.349
 20
210.10066
 40
40
 41
1
 50
0
  1
１／１０
  0
TEXT
  8
0-8
 10
286.6411
 20
834.26765
 40
30
 41
1
 50
90
  1
60
  0
TEXT
  8
0-8
 10
298.00057
 20
1487.3368
 40
30
 41
1
 50
90
  1
1,250
  0
TEXT
  8
0-8
 10
1000.9463
 20
660.5767
 40
30
 41
1
 50
0
  1
820*820
  0
TEXT
  8
0-d
 10
1503.2373
 20
1006.5276
 40
30
 41
1
 50
0
  1
網、水平付け
  0
TEXT
  8
0-d
 10
308.45927
 20
140.30214
 40
30
 41
1
 50
0
  1
60-D11c
  0
TEXT
  8
0-8
 10
959.4336
 20
2361.1773
 40
30
 41
1
 50
0
  1
1,020φ
  0
TEXT
  8
0-d
 10
255.00006
 20
2792.7014
 40
50
 41
1
 50
0
  1
ＡＳ－６００　自然回転  架台型（網付）断面
  0
TEXT
  8
0-d
 10
254.22259
 20
216.12386
 40
30
 41
1
 50
0
  1
ＡＳ－６００　自然回転  架台型（網付）断面
  0
TEXT
  8
0-d
 10
1235.6794
 20
118.64593
 40
20
 41
1
 50
0
  1
〒421-2114　静岡市葵区安倍口新田１５２番地
  0
POINT
  8
0-8
 62
    2
 10
310.00041
 20
887.83788
  0
POINT
  8
0-8
 62
    2
 10
310.00041
 20
2137.8376
  0
POINT
  8
0-8
 62
    2
 10
310.00041
 20
887.83837
  0
POINT
  8
0-8
 62
    2
 10
539.99982
 20
2337.8375
  0
POINT
  8
0-8
 62
    2
 10
1560.0002
 20
2337.8375
  0
POINT
  8
0-8
 62
    2
 10
310.00041
 20
887.83689
  0
POINT
  8
0-8
 62
    2
 10
310.00041
 20
887.83788
  0
POINT
  8
0-8
 62
    2
 10
310.00041
 20
887.83689
  0
POINT
  8
0-8
 62
    2
 10
310.00041
 20
887.83788
  0
POINT
  8
0-8
 62
    2
 10
310.00041
 20
827.83762
  0
POINT
  8
0-8
 62
    2
 10
640.00016
 20
622.48284
  0
POINT
  8
0-8
 62
    2
 10
1459.9999
 20
622.48284
  0
POINT
  8
0-d
 62
    2
 10
1273.4797
 20
1101.6672
  0
ENDSEC
  0
EOF
