  0
SECTION
  2
HEADER
  9
$EXTMIN
 10
0
 20
0
  9
$EXTMAX
 10
4200
 20
2970
  0
ENDSEC
  0
SECTION
  2
TABLES
  0
TABLE
  2
LTYPE
 70
     9
  0
LTYPE
  2
CONTINUOUS
 70
    64
  3
実線
 72
    65
 73
     0
 40
0.0
  0
LTYPE
  2
DASHED1
 70
    64
  3
--  --  --  --  --  --  --  --  
 72
    65
 73
     2
 40
2.5
 49
1.25
 49
-1.25
  0
LTYPE
  2
DASHED2
 70
    64
  3
----    ----    ----    ----    
 72
    65
 73
     2
 40
5.0
 49
2.5
 49
-2.5
  0
LTYPE
  2
DASHED3
 70
    64
  3
------  ------  ------  ------  
 72
    65
 73
     2
 40
5.0
 49
3.75
 49
-1.25
  0
LTYPE
  2
CENTER1
 70
    64
  3
----- - ----- - ----- - ----- - 
 72
    65
 73
     4
 40
10.0
 49
6.25
 49
-1.25
 49
1.25
 49
-1.25
  0
LTYPE
  2
CENTER2
 70
    64
  3
----------  --  ----------  --  
 72
    65
 73
     4
 40
20.0
 49
12.5
 49
-2.5
 49
2.5
 49
-2.5
  0
LTYPE
  2
PHANTOM1
 70
    64
  3
--- - - --- - - --- - - --- - - 
 72
    65
 73
     6
 40
10.0
 49
3.25
 49
-1.25
 49
1.25
 49
-1.25
 49
1.25
 49
-1.25
  0
LTYPE
  2
PHANTOM2
 70
    64
  3
--------  -  -  --------  -  -  
 72
    65
 73
     6
 40
20.0
 49
10.0
 49
-2.5
 49
1.25
 49
-2.5
 49
1.25
 49
-2.5
  0
LTYPE
  2
DOT
 70
    64
  3
-   -   -   -   -   -   -   -   
 72
    65
 73
     2
 40
2.5
 49
0.625
 49
-1.875
  0
ENDTAB
  0
TABLE
  2
STYLE
 70
    1
  0
STYLE
  2
STANDARD
 70
    64
 40
0.0
 41
1.0
 42
0.0
 50
0.0
 71
     0
  3
TXT
  4
BIGFONT
  0
ENDTAB
  0
TABLE
  2
LAYER
 70
    4
  0
LAYER
  2
0-2
 70
   64
 62
    7
  6
CONTINUOUS
  0
LAYER
  2
0-8
 70
   64
 62
    7
  6
CONTINUOUS
  0
LAYER
  2
0-d
 70
   64
 62
    7
  6
CONTINUOUS
  0
LAYER
  2
ADD_LINE
 70
   64
 62
    7
  6
CONTINUOUS
  0
ENDTAB
  0
ENDSEC
  0
SECTION
  2
ENTITIES
  0
LINE
  8
0-d
  6
CONTINUOUS
 62
    7
 10
250.00006
 20
2757.7013
 11
1850.0001
 21
2757.7013
  0
LINE
  8
0-d
  6
CONTINUOUS
 62
    7
 10
250.00006
 20
2767.7016
 11
1850.0001
 21
2767.7016
  0
LINE
  8
0-d
  6
CONTINUOUS
 62
    7
 10
249.99969
 20
189.99989
 11
1850.0005
 21
189.99989
  0
LINE
  8
0-d
  6
CONTINUOUS
 62
    7
 10
249.99969
 20
89.999806
 11
249.99969
 21
269.99991
  0
LINE
  8
0-d
  6
CONTINUOUS
 62
    7
 10
249.99969
 20
89.999806
 11
1850.0005
 21
89.999806
  0
LINE
  8
0-d
  6
CONTINUOUS
 62
    7
 10
1850.0005
 20
269.99991
 11
1850.0005
 21
89.999806
  0
LINE
  8
0-d
  6
CONTINUOUS
 62
    7
 10
249.99969
 20
269.99991
 11
1850.0005
 21
269.99991
  0
LINE
  8
0-d
  6
CONTINUOUS
 62
    7
 10
1050
 20
269.99991
 11
1050
 21
89.999806
  0
LINE
  8
0-d
  6
CONTINUOUS
 62
    7
 10
650.00019
 20
89.999806
 11
650.00019
 21
189.99989
  0
LINE
  8
0-d
  6
CONTINUOUS
 62
    7
 10
1050
 20
189.99989
 11
1050
 21
269.99991
  0
LINE
  8
0-d
  6
CONTINUOUS
 62
    7
 10
849.99981
 20
89.999806
 11
849.99981
 21
189.99989
  0
LINE
  8
0-d
  6
CONTINUOUS
 62
    7
 10
285.00002
 20
89.999806
 11
285.00002
 21
189.99989
  0
LINE
  8
0-d
  6
CONTINUOUS
 62
    7
 10
685.00006
 20
89.999806
 11
685.00006
 21
189.99989
  0
LINE
  8
0-d
  6
CONTINUOUS
 62
    7
 10
885.00018
 20
89.999806
 11
885.00018
 21
189.99989
  0
LINE
  8
0-d
  6
CONTINUOUS
 62
    7
 10
1015
 20
189.99989
 11
1015
 21
269.99991
  0
LINE
  8
0-d
  6
CONTINUOUS
 62
    7
 10
1550.0004
 20
189.99989
 11
1550.0004
 21
269.99991
  0
LINE
  8
0-d
  6
CONTINUOUS
 62
    7
 10
1585.0002
 20
189.99989
 11
1585.0002
 21
269.99991
  0
LINE
  8
0-8
  6
CONTINUOUS
 62
    7
 10
538.64868
 20
2262.3661
 11
1558.6502
 21
2262.3661
  0
LINE
  8
0-8
  6
CONTINUOUS
 62
    7
 10
1558.6502
 20
2089.6667
 11
1558.6502
 21
2262.3661
  0
LINE
  8
0-8
  6
CONTINUOUS
 62
    7
 10
538.64868
 20
2262.3661
 11
538.64868
 21
2089.6667
  0
LINE
  8
0-2
  6
CONTINUOUS
 62
    3
 10
538.64985
 20
1350.9081
 11
538.64868
 21
1259.7664
  0
LINE
  8
0-2
  6
CONTINUOUS
 62
    3
 10
538.64831
 20
1865.9074
 11
1558.6498
 21
1865.9074
  0
LINE
  8
0-2
  6
CONTINUOUS
 62
    3
 10
538.64831
 20
1887.8377
 11
1558.6498
 21
1887.8377
  0
LINE
  8
0-2
  6
CONTINUOUS
 62
    3
 10
538.64831
 20
1865.9074
 11
538.64831
 21
1774.7665
  0
LINE
  8
0-2
  6
CONTINUOUS
 62
    3
 10
538.64868
 20
1237.8375
 11
638.64877
 21
1128.1883
  0
LINE
  8
0-2
  6
CONTINUOUS
 62
    3
 10
1048.6485
 20
2137.8376
 11
797.97874
 21
2003.2714
  0
LINE
  8
0-2
  6
CONTINUOUS
 62
    3
 10
538.64831
 20
1887.8377
 11
638.64877
 21
1997.4857
  0
LINE
  8
0-2
  6
CONTINUOUS
 62
    3
 10
959.80142
 20
1988.4235
 11
960.62429
 21
1988.664
  0
LINE
  8
0-2
  6
CONTINUOUS
 62
    3
 10
960.62429
 20
1988.664
 11
961.39778
 21
1988.9936
  0
LINE
  8
0-2
  6
CONTINUOUS
 62
    3
 10
961.39778
 20
1988.9936
 11
962.12117
 21
1989.4026
  0
LINE
  8
0-2
  6
CONTINUOUS
 62
    3
 10
962.12117
 20
1989.4026
 11
962.79668
 21
1989.8866
  0
LINE
  8
0-2
  6
CONTINUOUS
 62
    3
 10
962.79668
 20
1989.8866
 11
963.42469
 21
1990.4404
  0
LINE
  8
0-2
  6
CONTINUOUS
 62
    3
 10
963.42469
 20
1990.4404
 11
964.00629
 21
1991.0558
  0
LINE
  8
0-2
  6
CONTINUOUS
 62
    3
 10
964.00629
 20
1991.0558
 11
964.54225
 21
1991.7268
  0
LINE
  8
0-2
  6
CONTINUOUS
 62
    3
 10
964.54225
 20
1991.7268
 11
965.03366
 21
1992.4491
  0
LINE
  8
0-2
  6
CONTINUOUS
 62
    3
 10
965.03366
 20
1992.4491
 11
965.48165
 21
1993.2144
  0
LINE
  8
0-2
  6
CONTINUOUS
 62
    3
 10
965.48165
 20
1993.2144
 11
965.88622
 21
1994.0176
  0
LINE
  8
0-2
  6
CONTINUOUS
 62
    3
 10
965.88622
 20
1994.0176
 11
966.2481
 21
1994.8535
  0
LINE
  8
0-2
  6
CONTINUOUS
 62
    3
 10
966.2481
 20
1994.8535
 11
966.57026
 21
1995.7131
  0
LINE
  8
0-2
  6
CONTINUOUS
 62
    3
 10
966.57026
 20
1995.7131
 11
966.85123
 21
1996.5935
  0
LINE
  8
0-2
  6
CONTINUOUS
 62
    3
 10
966.85123
 20
1996.5935
 11
967.09323
 21
1997.4857
  0
LINE
  8
0-2
  6
CONTINUOUS
 62
    3
 10
955.2807
 20
1988.3752
 11
954.32904
 21
1988.7108
  0
LINE
  8
0-2
  6
CONTINUOUS
 62
    3
 10
954.32904
 20
1988.7108
 11
953.43603
 21
1989.1064
  0
LINE
  8
0-2
  6
CONTINUOUS
 62
    3
 10
953.43603
 20
1989.1064
 11
952.60092
 21
1989.5607
  0
LINE
  8
0-2
  6
CONTINUOUS
 62
    3
 10
952.60092
 20
1989.5607
 11
951.82334
 21
1990.0692
  0
LINE
  8
0-2
  6
CONTINUOUS
 62
    3
 10
951.82334
 20
1990.0692
 11
951.10292
 21
1990.6289
  0
LINE
  8
0-2
  6
CONTINUOUS
 62
    3
 10
951.10292
 20
1990.6289
 11
950.43818
 21
1991.2376
  0
LINE
  8
0-2
  6
CONTINUOUS
 62
    3
 10
950.43818
 20
1991.2376
 11
949.82947
 21
1991.8924
  0
LINE
  8
0-2
  6
CONTINUOUS
 62
    3
 10
949.82947
 20
1991.8924
 11
949.27608
 21
1992.5894
  0
LINE
  8
0-2
  6
CONTINUOUS
 62
    3
 10
949.27608
 20
1992.5894
 11
948.77649
 21
1993.325
  0
LINE
  8
0-2
  6
CONTINUOUS
 62
    3
 10
948.77649
 20
1993.325
 11
948.3311
 21
1994.097
  0
LINE
  8
0-2
  6
CONTINUOUS
 62
    3
 10
948.3311
 20
1994.097
 11
947.93916
 21
1994.9025
  0
LINE
  8
0-2
  6
CONTINUOUS
 62
    3
 10
947.93916
 20
1994.9025
 11
947.59843
 21
1995.7368
  0
LINE
  8
0-2
  6
CONTINUOUS
 62
    3
 10
947.59843
 20
1995.7368
 11
947.31041
 21
1996.6001
  0
LINE
  8
0-2
  6
CONTINUOUS
 62
    3
 10
947.31041
 20
1996.6001
 11
947.07361
 21
1997.4857
  0
LINE
  8
0-2
  6
CONTINUOUS
 62
    3
 10
907.81568
 20
1997.4857
 11
906.89371
 21
1996.0145
  0
LINE
  8
0-2
  6
CONTINUOUS
 62
    3
 10
906.89371
 20
1996.0145
 11
905.96099
 21
1994.7057
  0
LINE
  8
0-2
  6
CONTINUOUS
 62
    3
 10
905.96099
 20
1994.7057
 11
905.02158
 21
1993.55
  0
LINE
  8
0-2
  6
CONTINUOUS
 62
    3
 10
905.02158
 20
1993.55
 11
904.07847
 21
1992.5382
  0
LINE
  8
0-2
  6
CONTINUOUS
 62
    3
 10
904.07847
 20
1992.5382
 11
903.13572
 21
1991.6615
  0
LINE
  8
0-2
  6
CONTINUOUS
 62
    3
 10
903.13572
 20
1991.6615
 11
902.19669
 21
1990.9125
  0
LINE
  8
0-2
  6
CONTINUOUS
 62
    3
 10
902.19669
 20
1990.9125
 11
901.26582
 21
1990.2808
  0
LINE
  8
0-2
  6
CONTINUOUS
 62
    3
 10
901.26582
 20
1990.2808
 11
900.34609
 21
1989.756
  0
LINE
  8
0-2
  6
CONTINUOUS
 62
    3
 10
900.34609
 20
1989.756
 11
899.44083
 21
1989.3306
  0
LINE
  8
0-2
  6
CONTINUOUS
 62
    3
 10
899.44083
 20
1989.3306
 11
898.5545
 21
1988.9958
  0
LINE
  8
0-2
  6
CONTINUOUS
 62
    3
 10
898.5545
 20
1988.9958
 11
897.69081
 21
1988.742
  0
LINE
  8
0-2
  6
CONTINUOUS
 62
    3
 10
897.69081
 20
1988.742
 11
896.85273
 21
1988.5593
  0
LINE
  8
0-2
  6
CONTINUOUS
 62
    3
 10
896.85273
 20
1988.5593
 11
896.04397
 21
1988.4398
  0
LINE
  8
0-2
  6
CONTINUOUS
 62
    3
 10
896.04397
 20
1988.4398
 11
895.26899
 21
1988.3752
  0
LINE
  8
0-2
  6
CONTINUOUS
 62
    3
 10
888.67237
 20
1997.4857
 11
888.69946
 21
1996.4279
  0
LINE
  8
0-2
  6
CONTINUOUS
 62
    3
 10
888.69946
 20
1996.4279
 11
888.78297
 21
1995.4488
  0
LINE
  8
0-2
  6
CONTINUOUS
 62
    3
 10
888.78297
 20
1995.4488
 11
888.92513
 21
1994.5469
  0
LINE
  8
0-2
  6
CONTINUOUS
 62
    3
 10
888.92513
 20
1994.5469
 11
889.12964
 21
1993.7155
  0
LINE
  8
0-2
  6
CONTINUOUS
 62
    3
 10
889.12964
 20
1993.7155
 11
889.39873
 21
1992.9516
  0
LINE
  8
0-2
  6
CONTINUOUS
 62
    3
 10
889.39873
 20
1992.9516
 11
889.73648
 21
1992.2516
  0
LINE
  8
0-2
  6
CONTINUOUS
 62
    3
 10
889.73648
 20
1992.2516
 11
890.14587
 21
1991.6095
  0
LINE
  8
0-2
  6
CONTINUOUS
 62
    3
 10
890.14587
 20
1991.6095
 11
890.62912
 21
1991.0201
  0
LINE
  8
0-2
  6
CONTINUOUS
 62
    3
 10
890.62912
 20
1991.0201
 11
891.19032
 21
1990.4812
  0
LINE
  8
0-2
  6
CONTINUOUS
 62
    3
 10
891.19032
 20
1990.4812
 11
891.83205
 21
1989.9876
  0
LINE
  8
0-2
  6
CONTINUOUS
 62
    3
 10
891.83205
 20
1989.9876
 11
892.55804
 21
1989.534
  0
LINE
  8
0-2
  6
CONTINUOUS
 62
    3
 10
892.55804
 20
1989.534
 11
893.37014
 21
1989.1176
  0
LINE
  8
0-2
  6
CONTINUOUS
 62
    3
 10
893.37014
 20
1989.1176
 11
894.27317
 21
1988.7316
  0
LINE
  8
0-2
  6
CONTINUOUS
 62
    3
 10
894.27317
 20
1988.7316
 11
895.26899
 21
1988.3752
  0
LINE
  8
0-2
  6
CONTINUOUS
 62
    3
 10
833.73367
 20
1997.4857
 11
834.20393
 21
1996.2431
  0
LINE
  8
0-2
  6
CONTINUOUS
 62
    3
 10
834.20393
 20
1996.2431
 11
834.69386
 21
1995.1148
  0
LINE
  8
0-2
  6
CONTINUOUS
 62
    3
 10
834.69386
 20
1995.1148
 11
835.20198
 21
1994.097
  0
LINE
  8
0-2
  6
CONTINUOUS
 62
    3
 10
835.20198
 20
1994.097
 11
835.7294
 21
1993.1825
  0
LINE
  8
0-2
  6
CONTINUOUS
 62
    3
 10
835.7294
 20
1993.1825
 11
836.275
 21
1992.3682
  0
LINE
  8
0-2
  6
CONTINUOUS
 62
    3
 10
836.275
 20
1992.3682
 11
836.83805
 21
1991.6466
  0
LINE
  8
0-2
  6
CONTINUOUS
 62
    3
 10
836.83805
 20
1991.6466
 11
837.41743
 21
1991.0127
  0
LINE
  8
0-2
  6
CONTINUOUS
 62
    3
 10
837.41743
 20
1991.0127
 11
838.01426
 21
1990.4619
  0
LINE
  8
0-2
  6
CONTINUOUS
 62
    3
 10
838.01426
 20
1990.4619
 11
838.62667
 21
1989.9868
  0
LINE
  8
0-2
  6
CONTINUOUS
 62
    3
 10
838.62667
 20
1989.9868
 11
839.25505
 21
1989.5837
  0
LINE
  8
0-2
  6
CONTINUOUS
 62
    3
 10
839.25505
 20
1989.5837
 11
839.89901
 21
1989.2452
  0
LINE
  8
0-2
  6
CONTINUOUS
 62
    3
 10
839.89901
 20
1989.2452
 11
840.5567
 21
1988.9676
  0
LINE
  8
0-2
  6
CONTINUOUS
 62
    3
 10
840.5567
 20
1988.9676
 11
841.22924
 21
1988.7434
  0
LINE
  8
0-2
  6
CONTINUOUS
 62
    3
 10
841.22924
 20
1988.7434
 11
841.91515
 21
1988.569
  0
LINE
  8
0-2
  6
CONTINUOUS
 62
    3
 10
843.42354
 20
1988.569
 11
844.13914
 21
1988.7175
  0
LINE
  8
0-2
  6
CONTINUOUS
 62
    3
 10
844.13914
 20
1988.7175
 11
844.84879
 21
1988.9557
  0
LINE
  8
0-2
  6
CONTINUOUS
 62
    3
 10
844.84879
 20
1988.9557
 11
845.55251
 21
1989.2801
  0
LINE
  8
0-2
  6
CONTINUOUS
 62
    3
 10
845.55251
 20
1989.2801
 11
846.25029
 21
1989.6936
  0
LINE
  8
0-2
  6
CONTINUOUS
 62
    3
 10
846.25029
 20
1989.6936
 11
846.94251
 21
1990.1932
  0
LINE
  8
0-2
  6
CONTINUOUS
 62
    3
 10
846.94251
 20
1990.1932
 11
847.62878
 21
1990.7826
  0
LINE
  8
0-2
  6
CONTINUOUS
 62
    3
 10
847.62878
 20
1990.7826
 11
848.30949
 21
1991.4596
  0
LINE
  8
0-2
  6
CONTINUOUS
 62
    3
 10
848.30949
 20
1991.4596
 11
848.98426
 21
1992.2242
  0
LINE
  8
0-2
  6
CONTINUOUS
 62
    3
 10
848.98426
 20
1992.2242
 11
849.65309
 21
1993.0764
  0
LINE
  8
0-2
  6
CONTINUOUS
 62
    3
 10
783.44709
 20
1997.4857
 11
783.58368
 21
1996.5378
  0
LINE
  8
0-2
  6
CONTINUOUS
 62
    3
 10
783.58368
 20
1996.5378
 11
783.77668
 21
1995.6559
  0
LINE
  8
0-2
  6
CONTINUOUS
 62
    3
 10
783.77668
 20
1995.6559
 11
784.02202
 21
1994.8364
  0
LINE
  8
0-2
  6
CONTINUOUS
 62
    3
 10
784.02202
 20
1994.8364
 11
784.31598
 21
1994.077
  0
LINE
  8
0-2
  6
CONTINUOUS
 62
    3
 10
784.31598
 20
1994.077
 11
784.65299
 21
1993.3748
  0
LINE
  8
0-2
  6
CONTINUOUS
 62
    3
 10
784.65299
 20
1993.3748
 11
785.03046
 21
1992.7282
  0
LINE
  8
0-2
  6
CONTINUOUS
 62
    3
 10
785.03046
 20
1992.7282
 11
785.44393
 21
1992.1344
  0
LINE
  8
0-2
  6
CONTINUOUS
 62
    3
 10
785.44393
 20
1992.1344
 11
785.88933
 21
1991.5917
  0
LINE
  8
0-2
  6
CONTINUOUS
 62
    3
 10
785.88933
 20
1991.5917
 11
786.36441
 21
1991.0981
  0
LINE
  8
0-2
  6
CONTINUOUS
 62
    3
 10
786.36441
 20
1991.0981
 11
786.8651
 21
1990.6519
  0
LINE
  8
0-2
  6
CONTINUOUS
 62
    3
 10
786.8651
 20
1990.6519
 11
787.38881
 21
1990.2518
  0
LINE
  8
0-2
  6
CONTINUOUS
 62
    3
 10
787.38881
 20
1990.2518
 11
787.93367
 21
1989.8963
  0
LINE
  8
0-2
  6
CONTINUOUS
 62
    3
 10
787.93367
 20
1989.8963
 11
788.49524
 21
1989.5837
  0
LINE
  8
0-2
  6
CONTINUOUS
 62
    3
 10
788.49524
 20
1989.5837
 11
789.07388
 21
1989.3143
  0
LINE
  8
0-2
  6
CONTINUOUS
 62
    3
 10
789.07388
 20
1989.3143
 11
789.66513
 21
1989.0849
  0
LINE
  8
0-2
  6
CONTINUOUS
 62
    3
 10
789.66513
 20
1989.0849
 11
790.26901
 21
1988.8956
  0
LINE
  8
0-2
  6
CONTINUOUS
 62
    3
 10
790.26901
 20
1988.8956
 11
790.88365
 21
1988.7471
  0
LINE
  8
0-2
  6
CONTINUOUS
 62
    3
 10
790.88365
 20
1988.7471
 11
791.50646
 21
1988.6395
  0
LINE
  8
0-2
  6
CONTINUOUS
 62
    3
 10
791.50646
 20
1988.6395
 11
792.13817
 21
1988.569
  0
LINE
  8
0-2
  6
CONTINUOUS
 62
    3
 10
792.2974
 20
1988.5779
 11
792.65334
 21
1988.6158
  0
LINE
  8
0-2
  6
CONTINUOUS
 62
    3
 10
792.65334
 20
1988.6158
 11
793.00223
 21
1988.6714
  0
LINE
  8
0-2
  6
CONTINUOUS
 62
    3
 10
793.00223
 20
1988.6714
 11
793.34592
 21
1988.7434
  0
LINE
  8
0-2
  6
CONTINUOUS
 62
    3
 10
793.34592
 20
1988.7434
 11
793.68257
 21
1988.8333
  0
LINE
  8
0-2
  6
CONTINUOUS
 62
    3
 10
793.68257
 20
1988.8333
 11
794.01401
 21
1988.9387
  0
LINE
  8
0-2
  6
CONTINUOUS
 62
    3
 10
794.01401
 20
1988.9387
 11
794.33878
 21
1989.0611
  0
LINE
  8
0-2
  6
CONTINUOUS
 62
    3
 10
794.33878
 20
1989.0611
 11
794.6576
 21
1989.2
  0
LINE
  8
0-2
  6
CONTINUOUS
 62
    3
 10
794.6576
 20
1989.2
 11
794.96975
 21
1989.3566
  0
LINE
  8
0-2
  6
CONTINUOUS
 62
    3
 10
794.96975
 20
1989.3566
 11
795.2767
 21
1989.5296
  0
LINE
  8
0-2
  6
CONTINUOUS
 62
    3
 10
648.60995
 20
1997.4857
 11
648.73169
 21
1996.4895
  0
LINE
  8
0-2
  6
CONTINUOUS
 62
    3
 10
648.73169
 20
1996.4895
 11
648.86049
 21
1995.578
  0
LINE
  8
0-2
  6
CONTINUOUS
 62
    3
 10
648.86049
 20
1995.578
 11
648.9967
 21
1994.7533
  0
LINE
  8
0-2
  6
CONTINUOUS
 62
    3
 10
648.9967
 20
1994.7533
 11
649.13923
 21
1994.0132
  0
LINE
  8
0-2
  6
CONTINUOUS
 62
    3
 10
649.13923
 20
1994.0132
 11
649.28917
 21
1993.3607
  0
LINE
  8
0-2
  6
CONTINUOUS
 62
    3
 10
649.28917
 20
1993.3607
 11
649.44655
 21
1992.7935
  0
LINE
  8
0-2
  6
CONTINUOUS
 62
    3
 10
649.44655
 20
1992.7935
 11
649.61023
 21
1992.3125
  0
LINE
  8
0-2
  6
CONTINUOUS
 62
    3
 10
649.61023
 20
1992.3125
 11
649.78207
 21
1991.9176
  0
LINE
  8
0-2
  6
CONTINUOUS
 62
    3
 10
649.78207
 20
1991.9176
 11
649.96023
 21
1991.6095
  0
LINE
  8
0-2
  6
CONTINUOUS
 62
    3
 10
670.74555
 20
1997.4857
 11
670.81347
 21
1996.6974
  0
LINE
  8
0-2
  6
CONTINUOUS
 62
    3
 10
670.81347
 20
1996.6974
 11
670.92482
 21
1995.9506
  0
LINE
  8
0-2
  6
CONTINUOUS
 62
    3
 10
670.92482
 20
1995.9506
 11
671.0744
 21
1995.2469
  0
LINE
  8
0-2
  6
CONTINUOUS
 62
    3
 10
671.0744
 20
1995.2469
 11
671.25998
 21
1994.5862
  0
LINE
  8
0-2
  6
CONTINUOUS
 62
    3
 10
671.25998
 20
1994.5862
 11
671.47599
 21
1993.9694
  0
LINE
  8
0-2
  6
CONTINUOUS
 62
    3
 10
671.47599
 20
1993.9694
 11
671.71836
 21
1993.3963
  0
LINE
  8
0-2
  6
CONTINUOUS
 62
    3
 10
671.71836
 20
1993.3963
 11
671.98337
 21
1992.867
  0
LINE
  8
0-2
  6
CONTINUOUS
 62
    3
 10
671.98337
 20
1992.867
 11
672.26545
 21
1992.3823
  0
LINE
  8
0-2
  6
CONTINUOUS
 62
    3
 10
672.26545
 20
1992.3823
 11
672.56089
 21
1991.9413
  0
LINE
  8
0-2
  6
CONTINUOUS
 62
    3
 10
672.56089
 20
1991.9413
 11
672.86524
 21
1991.5457
  0
LINE
  8
0-2
  6
CONTINUOUS
 62
    3
 10
672.86524
 20
1991.5457
 11
673.17405
 21
1991.1953
  0
LINE
  8
0-2
  6
CONTINUOUS
 62
    3
 10
673.17405
 20
1991.1953
 11
673.48434
 21
1990.8895
  0
LINE
  8
0-2
  6
CONTINUOUS
 62
    3
 10
673.48434
 20
1990.8895
 11
673.79017
 21
1990.6289
  0
LINE
  8
0-2
  6
CONTINUOUS
 62
    3
 10
673.79017
 20
1990.6289
 11
674.08747
 21
1990.4129
  0
LINE
  8
0-2
  6
CONTINUOUS
 62
    3
 10
701.06225
 20
1997.4857
 11
701.26267
 21
1996.6076
  0
LINE
  8
0-2
  6
CONTINUOUS
 62
    3
 10
701.26267
 20
1996.6076
 11
701.50764
 21
1995.7851
  0
LINE
  8
0-2
  6
CONTINUOUS
 62
    3
 10
701.50764
 20
1995.7851
 11
701.79418
 21
1995.0168
  0
LINE
  8
0-2
  6
CONTINUOUS
 62
    3
 10
701.79418
 20
1995.0168
 11
702.12154
 21
1994.3049
  0
LINE
  8
0-2
  6
CONTINUOUS
 62
    3
 10
702.12154
 20
1994.3049
 11
702.48676
 21
1993.6465
  0
LINE
  8
0-2
  6
CONTINUOUS
 62
    3
 10
702.48676
 20
1993.6465
 11
702.88798
 21
1993.043
  0
LINE
  8
0-2
  6
CONTINUOUS
 62
    3
 10
702.88798
 20
1993.043
 11
703.32447
 21
1992.4936
  0
LINE
  8
0-2
  6
CONTINUOUS
 62
    3
 10
703.32447
 20
1992.4936
 11
703.79473
 21
1991.997
  0
LINE
  8
0-2
  6
CONTINUOUS
 62
    3
 10
703.79473
 20
1991.997
 11
704.29579
 21
1991.5531
  0
LINE
  8
0-2
  6
CONTINUOUS
 62
    3
 10
704.29579
 20
1991.5531
 11
704.82692
 21
1991.1619
  0
LINE
  8
0-2
  6
CONTINUOUS
 62
    3
 10
704.82692
 20
1991.1619
 11
705.38552
 21
1990.8227
  0
LINE
  8
0-2
  6
CONTINUOUS
 62
    3
 10
705.38552
 20
1990.8227
 11
705.97047
 21
1990.5361
  0
LINE
  8
0-2
  6
CONTINUOUS
 62
    3
 10
705.97047
 20
1990.5361
 11
706.57991
 21
1990.3001
  0
LINE
  8
0-2
  6
CONTINUOUS
 62
    3
 10
706.57991
 20
1990.3001
 11
707.21162
 21
1990.1152
  0
LINE
  8
0-2
  6
CONTINUOUS
 62
    3
 10
738.88491
 20
1997.4857
 11
739.18889
 21
1996.5653
  0
LINE
  8
0-2
  6
CONTINUOUS
 62
    3
 10
739.18889
 20
1996.5653
 11
739.54521
 21
1995.7116
  0
LINE
  8
0-2
  6
CONTINUOUS
 62
    3
 10
739.54521
 20
1995.7116
 11
739.94903
 21
1994.9247
  0
LINE
  8
0-2
  6
CONTINUOUS
 62
    3
 10
739.94903
 20
1994.9247
 11
740.39627
 21
1994.2062
  0
LINE
  8
0-2
  6
CONTINUOUS
 62
    3
 10
740.39627
 20
1994.2062
 11
740.88286
 21
1993.5559
  0
LINE
  8
0-2
  6
CONTINUOUS
 62
    3
 10
740.88286
 20
1993.5559
 11
741.40397
 21
1992.9724
  0
LINE
  8
0-2
  6
CONTINUOUS
 62
    3
 10
741.40397
 20
1992.9724
 11
741.95477
 21
1992.4558
  0
LINE
  8
0-2
  6
CONTINUOUS
 62
    3
 10
741.95477
 20
1992.4558
 11
742.53081
 21
1992.0059
  0
LINE
  8
0-2
  6
CONTINUOUS
 62
    3
 10
742.53081
 20
1992.0059
 11
743.12764
 21
1991.6214
  0
LINE
  8
0-2
  6
CONTINUOUS
 62
    3
 10
743.12764
 20
1991.6214
 11
743.73931
 21
1991.3015
  0
LINE
  8
0-2
  6
CONTINUOUS
 62
    3
 10
743.73931
 20
1991.3015
 11
744.36137
 21
1991.0446
  0
LINE
  8
0-2
  6
CONTINUOUS
 62
    3
 10
744.36137
 20
1991.0446
 11
744.98901
 21
1990.8487
  0
LINE
  8
0-2
  6
CONTINUOUS
 62
    3
 10
744.98901
 20
1990.8487
 11
745.61589
 21
1990.7128
  0
LINE
  8
0-2
  6
CONTINUOUS
 62
    3
 10
745.61589
 20
1990.7128
 11
746.23759
 21
1990.6349
  0
LINE
  8
0-2
  6
CONTINUOUS
 62
    3
 10
746.23759
 20
1990.6349
 11
746.84777
 21
1990.6104
  0
LINE
  8
0-2
  6
CONTINUOUS
 62
    3
 10
746.84777
 20
1990.6104
 11
747.44052
 21
1990.6401
  0
LINE
  8
0-2
  6
CONTINUOUS
 62
    3
 10
747.44052
 20
1990.6401
 11
748.01099
 21
1990.718
  0
LINE
  8
0-2
  6
CONTINUOUS
 62
    3
 10
748.01099
 20
1990.718
 11
748.55288
 21
1990.8427
  0
LINE
  8
0-2
  6
CONTINUOUS
 62
    3
 10
748.55288
 20
1990.8427
 11
749.06026
 21
1991.0112
  0
LINE
  8
0-2
  6
CONTINUOUS
 62
    3
 10
648.60995
 20
1997.4857
 11
638.64877
 21
1997.4857
  0
LINE
  8
0-2
  6
CONTINUOUS
 62
    3
 10
551.03948
 20
1887.8377
 11
648.60995
 21
1997.4857
  0
LINE
  8
0-2
  6
CONTINUOUS
 62
    3
 10
655.04623
 20
1997.4857
 11
559.04576
 21
1887.8377
  0
LINE
  8
0-2
  6
CONTINUOUS
 62
    3
 10
578.57433
 20
1887.8377
 11
670.74555
 21
1997.4857
  0
LINE
  8
0-2
  6
CONTINUOUS
 62
    3
 10
670.74555
 20
1997.4857
 11
655.04623
 21
1997.4857
  0
LINE
  8
0-2
  6
CONTINUOUS
 62
    3
 10
679.9711
 20
1997.4857
 11
590.04948
 21
1887.8377
  0
LINE
  8
0-2
  6
CONTINUOUS
 62
    3
 10
701.06225
 20
1997.4857
 11
679.9711
 21
1997.4857
  0
LINE
  8
0-2
  6
CONTINUOUS
 62
    3
 10
616.28454
 20
1887.8377
 11
701.06225
 21
1997.4857
  0
LINE
  8
0-2
  6
CONTINUOUS
 62
    3
 10
712.87663
 20
1997.4857
 11
630.98061
 21
1887.8377
  0
LINE
  8
0-2
  6
CONTINUOUS
 62
    3
 10
738.90199
 20
1997.4857
 11
712.87663
 21
1997.4857
  0
LINE
  8
0-2
  6
CONTINUOUS
 62
    3
 10
663.3539
 20
1887.8377
 11
738.90199
 21
1997.4857
  0
LINE
  8
0-2
  6
CONTINUOUS
 62
    3
 10
753.0506
 20
1997.4857
 11
680.95356
 21
1887.8377
  0
LINE
  8
0-2
  6
CONTINUOUS
 62
    3
 10
783.44709
 20
1997.4857
 11
753.0506
 21
1997.4857
  0
LINE
  8
0-2
  6
CONTINUOUS
 62
    3
 10
718.76434
 20
1887.8377
 11
783.44709
 21
1997.4857
  0
LINE
  8
0-2
  6
CONTINUOUS
 62
    3
 10
799.62298
 20
1997.4857
 11
738.88491
 21
1887.8377
  0
LINE
  8
0-2
  6
CONTINUOUS
 62
    3
 10
833.73367
 20
1997.4857
 11
799.62298
 21
1997.4857
  0
LINE
  8
0-2
  6
CONTINUOUS
 62
    3
 10
781.31552
 20
1887.8377
 11
833.73367
 21
1997.4857
  0
LINE
  8
0-2
  6
CONTINUOUS
 62
    3
 10
851.58646
 20
1997.4857
 11
803.52238
 21
1887.8377
  0
LINE
  8
0-2
  6
CONTINUOUS
 62
    3
 10
888.67237
 20
1997.4857
 11
851.58646
 21
1997.4857
  0
LINE
  8
0-2
  6
CONTINUOUS
 62
    3
 10
849.65309
 20
1887.8377
 11
888.67237
 21
1997.4857
  0
LINE
  8
0-2
  6
CONTINUOUS
 62
    3
 10
873.46558
 20
1887.8377
 11
907.81568
 21
1997.4857
  0
LINE
  8
0-2
  6
CONTINUOUS
 62
    3
 10
947.07361
 20
1997.4857
 11
907.81568
 21
1997.4857
  0
LINE
  8
0-2
  6
CONTINUOUS
 62
    3
 10
947.07361
 20
1997.4857
 11
922.2987
 21
1887.8377
  0
LINE
  8
0-2
  6
CONTINUOUS
 62
    3
 10
947.20166
 20
1887.8377
 11
967.09323
 21
1997.4857
  0
LINE
  8
0-2
  6
CONTINUOUS
 62
    3
 10
1007.6739
 20
1997.4857
 11
967.09323
 21
1997.4857
  0
LINE
  8
0-2
  6
CONTINUOUS
 62
    3
 10
1007.6739
 20
1997.4857
 11
997.67976
 21
1887.8377
  0
LINE
  8
0-2
  6
CONTINUOUS
 62
    3
 10
1028.1367
 20
1997.4857
 11
1023.1335
 21
1887.8377
  0
LINE
  8
0-2
  6
CONTINUOUS
 62
    3
 10
1048.6485
 20
1997.4857
 11
1028.1367
 21
1997.4857
  0
LINE
  8
0-2
  6
CONTINUOUS
 62
    3
 10
997.67976
 20
1752.8376
 11
997.67976
 21
1372.8377
  0
LINE
  8
0-2
  6
CONTINUOUS
 62
    3
 10
947.20166
 20
1752.8376
 11
947.20166
 21
1372.8377
  0
LINE
  8
0-2
  6
CONTINUOUS
 62
    3
 10
849.65309
 20
1752.8376
 11
849.65309
 21
1372.8377
  0
LINE
  8
0-2
  6
CONTINUOUS
 62
    3
 10
803.52238
 20
1752.8376
 11
803.52238
 21
1372.8377
  0
LINE
  8
0-2
  6
CONTINUOUS
 62
    3
 10
718.76434
 20
1752.8376
 11
718.76434
 21
1372.8377
  0
LINE
  8
0-2
  6
CONTINUOUS
 62
    3
 10
680.95356
 20
1752.8376
 11
680.95356
 21
1372.8377
  0
LINE
  8
0-2
  6
CONTINUOUS
 62
    3
 10
616.28454
 20
1752.8376
 11
616.28454
 21
1372.8377
  0
LINE
  8
0-2
  6
CONTINUOUS
 62
    3
 10
947.20166
 20
1372.8377
 11
849.65309
 21
1399.418
  0
LINE
  8
0-2
  6
CONTINUOUS
 62
    3
 10
680.95356
 20
1372.8377
 11
616.28454
 21
1399.418
  0
LINE
  8
0-2
  6
CONTINUOUS
 62
    3
 10
735.87369
 20
1752.8376
 11
735.87369
 21
1372.8377
  0
LINE
  8
0-2
  6
CONTINUOUS
 62
    3
 10
755.87438
 20
1752.8376
 11
755.87438
 21
1372.8377
  0
LINE
  8
0-2
  6
CONTINUOUS
 62
    3
 10
803.52238
 20
1372.8377
 11
755.87438
 21
1387.7799
  0
LINE
  8
0-2
  6
CONTINUOUS
 62
    3
 10
735.87369
 20
1394.0525
 11
718.76434
 21
1399.418
  0
LINE
  8
0-2
  6
CONTINUOUS
 62
    3
 10
538.64831
 20
1259.7671
 11
538.64831
 21
1350.9096
  0
LINE
  8
0-2
  6
CONTINUOUS
 62
    3
 10
538.64831
 20
1237.8375
 11
638.64877
 21
1128.1883
  0
LINE
  8
0-2
  6
CONTINUOUS
 62
    3
 10
959.80142
 20
1137.2515
 11
960.62429
 21
1137.0096
  0
LINE
  8
0-2
  6
CONTINUOUS
 62
    3
 10
960.62429
 20
1137.0096
 11
961.39778
 21
1136.6814
  0
LINE
  8
0-2
  6
CONTINUOUS
 62
    3
 10
961.39778
 20
1136.6814
 11
962.12117
 21
1136.2721
  0
LINE
  8
0-2
  6
CONTINUOUS
 62
    3
 10
962.12117
 20
1136.2721
 11
962.79668
 21
1135.7878
  0
LINE
  8
0-2
  6
CONTINUOUS
 62
    3
 10
962.79668
 20
1135.7878
 11
963.42469
 21
1135.2344
  0
LINE
  8
0-2
  6
CONTINUOUS
 62
    3
 10
963.42469
 20
1135.2344
 11
964.00629
 21
1134.6192
  0
LINE
  8
0-2
  6
CONTINUOUS
 62
    3
 10
964.00629
 20
1134.6192
 11
964.54225
 21
1133.9477
  0
LINE
  8
0-2
  6
CONTINUOUS
 62
    3
 10
964.54225
 20
1133.9477
 11
965.03366
 21
1133.2261
  0
LINE
  8
0-2
  6
CONTINUOUS
 62
    3
 10
965.03366
 20
1133.2261
 11
965.48165
 21
1132.4606
  0
LINE
  8
0-2
  6
CONTINUOUS
 62
    3
 10
965.48165
 20
1132.4606
 11
965.88622
 21
1131.6569
  0
LINE
  8
0-2
  6
CONTINUOUS
 62
    3
 10
965.88622
 20
1131.6569
 11
966.2481
 21
1130.8215
  0
LINE
  8
0-2
  6
CONTINUOUS
 62
    3
 10
966.2481
 20
1130.8215
 11
966.57026
 21
1129.9615
  0
LINE
  8
0-2
  6
CONTINUOUS
 62
    3
 10
966.57026
 20
1129.9615
 11
966.85123
 21
1129.0817
  0
LINE
  8
0-2
  6
CONTINUOUS
 62
    3
 10
966.85123
 20
1129.0817
 11
967.09323
 21
1128.1883
  0
LINE
  8
0-2
  6
CONTINUOUS
 62
    3
 10
955.2807
 20
1137.3006
 11
954.32904
 21
1136.964
  0
LINE
  8
0-2
  6
CONTINUOUS
 62
    3
 10
954.32904
 20
1136.964
 11
953.43603
 21
1136.5681
  0
LINE
  8
0-2
  6
CONTINUOUS
 62
    3
 10
953.43603
 20
1136.5681
 11
952.60092
 21
1136.1148
  0
LINE
  8
0-2
  6
CONTINUOUS
 62
    3
 10
952.60092
 20
1136.1148
 11
951.82334
 21
1135.6052
  0
LINE
  8
0-2
  6
CONTINUOUS
 62
    3
 10
951.82334
 20
1135.6052
 11
951.10292
 21
1135.0458
  0
LINE
  8
0-2
  6
CONTINUOUS
 62
    3
 10
951.10292
 20
1135.0458
 11
950.43818
 21
1134.4361
  0
LINE
  8
0-2
  6
CONTINUOUS
 62
    3
 10
950.43818
 20
1134.4361
 11
949.82947
 21
1133.782
  0
LINE
  8
0-2
  6
CONTINUOUS
 62
    3
 10
949.82947
 20
1133.782
 11
949.27608
 21
1133.0861
  0
LINE
  8
0-2
  6
CONTINUOUS
 62
    3
 10
949.27608
 20
1133.0861
 11
948.77649
 21
1132.3502
  0
LINE
  8
0-2
  6
CONTINUOUS
 62
    3
 10
948.77649
 20
1132.3502
 11
948.3311
 21
1131.5777
  0
LINE
  8
0-2
  6
CONTINUOUS
 62
    3
 10
948.3311
 20
1131.5777
 11
947.93916
 21
1130.7722
  0
LINE
  8
0-2
  6
CONTINUOUS
 62
    3
 10
947.93916
 20
1130.7722
 11
947.59843
 21
1129.9377
  0
LINE
  8
0-2
  6
CONTINUOUS
 62
    3
 10
947.59843
 20
1129.9377
 11
947.31041
 21
1129.075
  0
LINE
  8
0-2
  6
CONTINUOUS
 62
    3
 10
947.31041
 20
1129.075
 11
947.07361
 21
1128.1883
  0
LINE
  8
0-2
  6
CONTINUOUS
 62
    3
 10
907.81568
 20
1128.1883
 11
906.89371
 21
1129.6607
  0
LINE
  8
0-2
  6
CONTINUOUS
 62
    3
 10
906.89371
 20
1129.6607
 11
905.96099
 21
1130.9695
  0
LINE
  8
0-2
  6
CONTINUOUS
 62
    3
 10
905.96099
 20
1130.9695
 11
905.02158
 21
1132.1252
  0
LINE
  8
0-2
  6
CONTINUOUS
 62
    3
 10
905.02158
 20
1132.1252
 11
904.07847
 21
1133.1366
  0
LINE
  8
0-2
  6
CONTINUOUS
 62
    3
 10
904.07847
 20
1133.1366
 11
903.13572
 21
1134.0131
  0
LINE
  8
0-2
  6
CONTINUOUS
 62
    3
 10
903.13572
 20
1134.0131
 11
902.19669
 21
1134.7619
  0
LINE
  8
0-2
  6
CONTINUOUS
 62
    3
 10
902.19669
 20
1134.7619
 11
901.26582
 21
1135.3947
  0
LINE
  8
0-2
  6
CONTINUOUS
 62
    3
 10
901.26582
 20
1135.3947
 11
900.34609
 21
1135.9188
  0
LINE
  8
0-2
  6
CONTINUOUS
 62
    3
 10
900.34609
 20
1135.9188
 11
899.44083
 21
1136.3444
  0
LINE
  8
0-2
  6
CONTINUOUS
 62
    3
 10
899.44083
 20
1136.3444
 11
898.5545
 21
1136.6789
  0
LINE
  8
0-2
  6
CONTINUOUS
 62
    3
 10
898.5545
 20
1136.6789
 11
897.69081
 21
1136.9328
  0
LINE
  8
0-2
  6
CONTINUOUS
 62
    3
 10
897.69081
 20
1136.9328
 11
896.85273
 21
1137.1154
  0
LINE
  8
0-2
  6
CONTINUOUS
 62
    3
 10
896.85273
 20
1137.1154
 11
896.04397
 21
1137.2342
  0
LINE
  8
0-2
  6
CONTINUOUS
 62
    3
 10
896.04397
 20
1137.2342
 11
895.26899
 21
1137.3006
  0
LINE
  8
0-2
  6
CONTINUOUS
 62
    3
 10
888.67237
 20
1128.1883
 11
888.69946
 21
1129.2468
  0
LINE
  8
0-2
  6
CONTINUOUS
 62
    3
 10
888.69946
 20
1129.2468
 11
888.78297
 21
1130.2263
  0
LINE
  8
0-2
  6
CONTINUOUS
 62
    3
 10
888.78297
 20
1130.2263
 11
888.92513
 21
1131.1283
  0
LINE
  8
0-2
  6
CONTINUOUS
 62
    3
 10
888.92513
 20
1131.1283
 11
889.12964
 21
1131.9593
  0
LINE
  8
0-2
  6
CONTINUOUS
 62
    3
 10
889.12964
 20
1131.9593
 11
889.39873
 21
1132.7224
  0
LINE
  8
0-2
  6
CONTINUOUS
 62
    3
 10
889.39873
 20
1132.7224
 11
889.73648
 21
1133.4235
  0
LINE
  8
0-2
  6
CONTINUOUS
 62
    3
 10
889.73648
 20
1133.4235
 11
890.14587
 21
1134.065
  0
LINE
  8
0-2
  6
CONTINUOUS
 62
    3
 10
890.14587
 20
1134.065
 11
890.62912
 21
1134.6544
  0
LINE
  8
0-2
  6
CONTINUOUS
 62
    3
 10
890.62912
 20
1134.6544
 11
891.19032
 21
1135.1928
  0
LINE
  8
0-2
  6
CONTINUOUS
 62
    3
 10
891.19032
 20
1135.1928
 11
891.83205
 21
1135.6872
  0
LINE
  8
0-2
  6
CONTINUOUS
 62
    3
 10
891.83205
 20
1135.6872
 11
892.55804
 21
1136.1405
  0
LINE
  8
0-2
  6
CONTINUOUS
 62
    3
 10
892.55804
 20
1136.1405
 11
893.37014
 21
1136.5578
  0
LINE
  8
0-2
  6
CONTINUOUS
 62
    3
 10
893.37014
 20
1136.5578
 11
894.27317
 21
1136.9429
  0
LINE
  8
0-2
  6
CONTINUOUS
 62
    3
 10
894.27317
 20
1136.9429
 11
895.26899
 21
1137.3006
  0
LINE
  8
0-2
  6
CONTINUOUS
 62
    3
 10
833.73367
 20
1128.1883
 11
834.20393
 21
1129.4319
  0
LINE
  8
0-2
  6
CONTINUOUS
 62
    3
 10
834.20393
 20
1129.4319
 11
834.69386
 21
1130.5604
  0
LINE
  8
0-2
  6
CONTINUOUS
 62
    3
 10
834.69386
 20
1130.5604
 11
835.20198
 21
1131.5777
  0
LINE
  8
0-2
  6
CONTINUOUS
 62
    3
 10
835.20198
 20
1131.5777
 11
835.7294
 21
1132.4919
  0
LINE
  8
0-2
  6
CONTINUOUS
 62
    3
 10
835.7294
 20
1132.4919
 11
836.275
 21
1133.3063
  0
LINE
  8
0-2
  6
CONTINUOUS
 62
    3
 10
836.275
 20
1133.3063
 11
836.83805
 21
1134.0277
  0
LINE
  8
0-2
  6
CONTINUOUS
 62
    3
 10
836.83805
 20
1134.0277
 11
837.41743
 21
1134.6618
  0
LINE
  8
0-2
  6
CONTINUOUS
 62
    3
 10
837.41743
 20
1134.6618
 11
838.01426
 21
1135.2132
  0
LINE
  8
0-2
  6
CONTINUOUS
 62
    3
 10
838.01426
 20
1135.2132
 11
838.62667
 21
1135.6882
  0
LINE
  8
0-2
  6
CONTINUOUS
 62
    3
 10
838.62667
 20
1135.6882
 11
839.25505
 21
1136.0916
  0
LINE
  8
0-2
  6
CONTINUOUS
 62
    3
 10
839.25505
 20
1136.0916
 11
839.89901
 21
1136.4291
  0
LINE
  8
0-2
  6
CONTINUOUS
 62
    3
 10
839.89901
 20
1136.4291
 11
840.5567
 21
1136.7076
  0
LINE
  8
0-2
  6
CONTINUOUS
 62
    3
 10
840.5567
 20
1136.7076
 11
841.22924
 21
1136.9308
  0
LINE
  8
0-2
  6
CONTINUOUS
 62
    3
 10
841.22924
 20
1136.9308
 11
841.91515
 21
1137.105
  0
LINE
  8
0-2
  6
CONTINUOUS
 62
    3
 10
843.42354
 20
1137.105
 11
844.13914
 21
1136.9561
  0
LINE
  8
0-2
  6
CONTINUOUS
 62
    3
 10
844.13914
 20
1136.9561
 11
844.84879
 21
1136.7194
  0
LINE
  8
0-2
  6
CONTINUOUS
 62
    3
 10
844.84879
 20
1136.7194
 11
845.55251
 21
1136.3939
  0
LINE
  8
0-2
  6
CONTINUOUS
 62
    3
 10
845.55251
 20
1136.3939
 11
846.25029
 21
1135.9811
  0
LINE
  8
0-2
  6
CONTINUOUS
 62
    3
 10
846.25029
 20
1135.9811
 11
846.94251
 21
1135.4813
  0
LINE
  8
0-2
  6
CONTINUOUS
 62
    3
 10
846.94251
 20
1135.4813
 11
847.62878
 21
1134.8925
  0
LINE
  8
0-2
  6
CONTINUOUS
 62
    3
 10
847.62878
 20
1134.8925
 11
848.30949
 21
1134.2155
  0
LINE
  8
0-2
  6
CONTINUOUS
 62
    3
 10
848.30949
 20
1134.2155
 11
848.98426
 21
1133.4503
  0
LINE
  8
0-2
  6
CONTINUOUS
 62
    3
 10
848.98426
 20
1133.4503
 11
849.65309
 21
1132.5983
  0
LINE
  8
0-2
  6
CONTINUOUS
 62
    3
 10
783.44709
 20
1128.1883
 11
783.58368
 21
1129.1366
  0
LINE
  8
0-2
  6
CONTINUOUS
 62
    3
 10
783.58368
 20
1129.1366
 11
783.77668
 21
1130.0183
  0
LINE
  8
0-2
  6
CONTINUOUS
 62
    3
 10
783.77668
 20
1130.0183
 11
784.02202
 21
1130.8388
  0
LINE
  8
0-2
  6
CONTINUOUS
 62
    3
 10
784.02202
 20
1130.8388
 11
784.31598
 21
1131.5975
  0
LINE
  8
0-2
  6
CONTINUOUS
 62
    3
 10
784.31598
 20
1131.5975
 11
784.65299
 21
1132.2997
  0
LINE
  8
0-2
  6
CONTINUOUS
 62
    3
 10
784.65299
 20
1132.2997
 11
785.03046
 21
1132.9465
  0
LINE
  8
0-2
  6
CONTINUOUS
 62
    3
 10
785.03046
 20
1132.9465
 11
785.44393
 21
1133.5404
  0
LINE
  8
0-2
  6
CONTINUOUS
 62
    3
 10
785.44393
 20
1133.5404
 11
785.88933
 21
1134.0833
  0
LINE
  8
0-2
  6
CONTINUOUS
 62
    3
 10
785.88933
 20
1134.0833
 11
786.36441
 21
1134.5767
  0
LINE
  8
0-2
  6
CONTINUOUS
 62
    3
 10
786.36441
 20
1134.5767
 11
786.8651
 21
1135.0226
  0
LINE
  8
0-2
  6
CONTINUOUS
 62
    3
 10
786.8651
 20
1135.0226
 11
787.38881
 21
1135.4224
  0
LINE
  8
0-2
  6
CONTINUOUS
 62
    3
 10
787.38881
 20
1135.4224
 11
787.93367
 21
1135.7792
  0
LINE
  8
0-2
  6
CONTINUOUS
 62
    3
 10
787.93367
 20
1135.7792
 11
788.49524
 21
1136.091
  0
LINE
  8
0-2
  6
CONTINUOUS
 62
    3
 10
788.49524
 20
1136.091
 11
789.07388
 21
1136.3612
  0
LINE
  8
0-2
  6
CONTINUOUS
 62
    3
 10
789.07388
 20
1136.3612
 11
789.66513
 21
1136.5898
  0
LINE
  8
0-2
  6
CONTINUOUS
 62
    3
 10
789.66513
 20
1136.5898
 11
790.26901
 21
1136.7784
  0
LINE
  8
0-2
  6
CONTINUOUS
 62
    3
 10
790.26901
 20
1136.7784
 11
790.88365
 21
1136.9269
  0
LINE
  8
0-2
  6
CONTINUOUS
 62
    3
 10
790.88365
 20
1136.9269
 11
791.50646
 21
1137.0352
  0
LINE
  8
0-2
  6
CONTINUOUS
 62
    3
 10
791.50646
 20
1137.0352
 11
792.13817
 21
1137.105
  0
LINE
  8
0-2
  6
CONTINUOUS
 62
    3
 10
792.2974
 20
1137.0976
 11
792.65334
 21
1137.0585
  0
LINE
  8
0-2
  6
CONTINUOUS
 62
    3
 10
792.65334
 20
1137.0585
 11
793.00223
 21
1137.0026
  0
LINE
  8
0-2
  6
CONTINUOUS
 62
    3
 10
793.00223
 20
1137.0026
 11
793.34592
 21
1136.9313
  0
LINE
  8
0-2
  6
CONTINUOUS
 62
    3
 10
793.34592
 20
1136.9313
 11
793.68257
 21
1136.8422
  0
LINE
  8
0-2
  6
CONTINUOUS
 62
    3
 10
793.68257
 20
1136.8422
 11
794.01401
 21
1136.7363
  0
LINE
  8
0-2
  6
CONTINUOUS
 62
    3
 10
794.01401
 20
1136.7363
 11
794.33878
 21
1136.6136
  0
LINE
  8
0-2
  6
CONTINUOUS
 62
    3
 10
794.33878
 20
1136.6136
 11
794.6576
 21
1136.474
  0
LINE
  8
0-2
  6
CONTINUOUS
 62
    3
 10
794.6576
 20
1136.474
 11
794.96975
 21
1136.3177
  0
LINE
  8
0-2
  6
CONTINUOUS
 62
    3
 10
794.96975
 20
1136.3177
 11
795.2767
 21
1136.1444
  0
LINE
  8
0-2
  6
CONTINUOUS
 62
    3
 10
648.60995
 20
1128.1883
 11
648.73169
 21
1129.1855
  0
LINE
  8
0-2
  6
CONTINUOUS
 62
    3
 10
648.73169
 20
1129.1855
 11
648.86049
 21
1130.0971
  0
LINE
  8
0-2
  6
CONTINUOUS
 62
    3
 10
648.86049
 20
1130.0971
 11
648.9967
 21
1130.9215
  0
LINE
  8
0-2
  6
CONTINUOUS
 62
    3
 10
648.9967
 20
1130.9215
 11
649.13923
 21
1131.6608
  0
LINE
  8
0-2
  6
CONTINUOUS
 62
    3
 10
649.13923
 20
1131.6608
 11
649.28917
 21
1132.3141
  0
LINE
  8
0-2
  6
CONTINUOUS
 62
    3
 10
649.28917
 20
1132.3141
 11
649.44655
 21
1132.8812
  0
LINE
  8
0-2
  6
CONTINUOUS
 62
    3
 10
649.44655
 20
1132.8812
 11
649.61023
 21
1133.3622
  0
LINE
  8
0-2
  6
CONTINUOUS
 62
    3
 10
649.61023
 20
1133.3622
 11
649.78207
 21
1133.7572
  0
LINE
  8
0-2
  6
CONTINUOUS
 62
    3
 10
649.78207
 20
1133.7572
 11
649.96023
 21
1134.065
  0
LINE
  8
0-2
  6
CONTINUOUS
 62
    3
 10
670.74555
 20
1128.1883
 11
670.81347
 21
1128.9786
  0
LINE
  8
0-2
  6
CONTINUOUS
 62
    3
 10
670.81347
 20
1128.9786
 11
670.92482
 21
1129.7249
  0
LINE
  8
0-2
  6
CONTINUOUS
 62
    3
 10
670.92482
 20
1129.7249
 11
671.0744
 21
1130.4286
  0
LINE
  8
0-2
  6
CONTINUOUS
 62
    3
 10
671.0744
 20
1130.4286
 11
671.25998
 21
1131.0893
  0
LINE
  8
0-2
  6
CONTINUOUS
 62
    3
 10
671.25998
 20
1131.0893
 11
671.47599
 21
1131.706
  0
LINE
  8
0-2
  6
CONTINUOUS
 62
    3
 10
671.47599
 20
1131.706
 11
671.71836
 21
1132.2784
  0
LINE
  8
0-2
  6
CONTINUOUS
 62
    3
 10
671.71836
 20
1132.2784
 11
671.98337
 21
1132.8081
  0
LINE
  8
0-2
  6
CONTINUOUS
 62
    3
 10
671.98337
 20
1132.8081
 11
672.26545
 21
1133.2921
  0
LINE
  8
0-2
  6
CONTINUOUS
 62
    3
 10
672.26545
 20
1133.2921
 11
672.56089
 21
1133.7334
  0
LINE
  8
0-2
  6
CONTINUOUS
 62
    3
 10
672.56089
 20
1133.7334
 11
672.86524
 21
1134.1288
  0
LINE
  8
0-2
  6
CONTINUOUS
 62
    3
 10
672.86524
 20
1134.1288
 11
673.17405
 21
1134.4802
  0
LINE
  8
0-2
  6
CONTINUOUS
 62
    3
 10
673.17405
 20
1134.4802
 11
673.48434
 21
1134.7856
  0
LINE
  8
0-2
  6
CONTINUOUS
 62
    3
 10
673.48434
 20
1134.7856
 11
673.79017
 21
1135.0463
  0
LINE
  8
0-2
  6
CONTINUOUS
 62
    3
 10
673.79017
 20
1135.0463
 11
674.08747
 21
1135.2611
  0
LINE
  8
0-2
  6
CONTINUOUS
 62
    3
 10
701.06225
 20
1128.1883
 11
701.26267
 21
1129.0677
  0
LINE
  8
0-2
  6
CONTINUOUS
 62
    3
 10
701.26267
 20
1129.0677
 11
701.50764
 21
1129.8902
  0
LINE
  8
0-2
  6
CONTINUOUS
 62
    3
 10
701.50764
 20
1129.8902
 11
701.79418
 21
1130.6578
  0
LINE
  8
0-2
  6
CONTINUOUS
 62
    3
 10
701.79418
 20
1130.6578
 11
702.12154
 21
1131.3699
  0
LINE
  8
0-2
  6
CONTINUOUS
 62
    3
 10
702.12154
 20
1131.3699
 11
702.48676
 21
1132.028
  0
LINE
  8
0-2
  6
CONTINUOUS
 62
    3
 10
702.48676
 20
1132.028
 11
702.88798
 21
1132.6318
  0
LINE
  8
0-2
  6
CONTINUOUS
 62
    3
 10
702.88798
 20
1132.6318
 11
703.32447
 21
1133.1816
  0
LINE
  8
0-2
  6
CONTINUOUS
 62
    3
 10
703.32447
 20
1133.1816
 11
703.79473
 21
1133.6775
  0
LINE
  8
0-2
  6
CONTINUOUS
 62
    3
 10
703.79473
 20
1133.6775
 11
704.29579
 21
1134.1214
  0
LINE
  8
0-2
  6
CONTINUOUS
 62
    3
 10
704.29579
 20
1134.1214
 11
704.82692
 21
1134.5128
  0
LINE
  8
0-2
  6
CONTINUOUS
 62
    3
 10
704.82692
 20
1134.5128
 11
705.38552
 21
1134.8513
  0
LINE
  8
0-2
  6
CONTINUOUS
 62
    3
 10
705.38552
 20
1134.8513
 11
705.97047
 21
1135.1384
  0
LINE
  8
0-2
  6
CONTINUOUS
 62
    3
 10
705.97047
 20
1135.1384
 11
706.57991
 21
1135.3744
  0
LINE
  8
0-2
  6
CONTINUOUS
 62
    3
 10
706.57991
 20
1135.3744
 11
707.21162
 21
1135.5607
  0
LINE
  8
0-2
  6
CONTINUOUS
 62
    3
 10
738.88491
 20
1128.1883
 11
739.18889
 21
1129.1102
  0
LINE
  8
0-2
  6
CONTINUOUS
 62
    3
 10
739.18889
 20
1129.1102
 11
739.54521
 21
1129.9624
  0
LINE
  8
0-2
  6
CONTINUOUS
 62
    3
 10
739.54521
 20
1129.9624
 11
739.94903
 21
1130.7493
  0
LINE
  8
0-2
  6
CONTINUOUS
 62
    3
 10
739.94903
 20
1130.7493
 11
740.39627
 21
1131.4678
  0
LINE
  8
0-2
  6
CONTINUOUS
 62
    3
 10
740.39627
 20
1131.4678
 11
740.88286
 21
1132.1196
  0
LINE
  8
0-2
  6
CONTINUOUS
 62
    3
 10
740.88286
 20
1132.1196
 11
741.40397
 21
1132.7031
  0
LINE
  8
0-2
  6
CONTINUOUS
 62
    3
 10
741.40397
 20
1132.7031
 11
741.95477
 21
1133.2193
  0
LINE
  8
0-2
  6
CONTINUOUS
 62
    3
 10
741.95477
 20
1133.2193
 11
742.53081
 21
1133.6691
  0
LINE
  8
0-2
  6
CONTINUOUS
 62
    3
 10
742.53081
 20
1133.6691
 11
743.12764
 21
1134.0531
  0
LINE
  8
0-2
  6
CONTINUOUS
 62
    3
 10
743.12764
 20
1134.0531
 11
743.73931
 21
1134.3729
  0
LINE
  8
0-2
  6
CONTINUOUS
 62
    3
 10
743.73931
 20
1134.3729
 11
744.36137
 21
1134.6301
  0
LINE
  8
0-2
  6
CONTINUOUS
 62
    3
 10
744.36137
 20
1134.6301
 11
744.98901
 21
1134.8266
  0
LINE
  8
0-2
  6
CONTINUOUS
 62
    3
 10
744.98901
 20
1134.8266
 11
745.61589
 21
1134.9616
  0
LINE
  8
0-2
  6
CONTINUOUS
 62
    3
 10
745.61589
 20
1134.9616
 11
746.23759
 21
1135.0404
  0
LINE
  8
0-2
  6
CONTINUOUS
 62
    3
 10
746.23759
 20
1135.0404
 11
746.84777
 21
1135.0641
  0
LINE
  8
0-2
  6
CONTINUOUS
 62
    3
 10
746.84777
 20
1135.0641
 11
747.44052
 21
1135.0349
  0
LINE
  8
0-2
  6
CONTINUOUS
 62
    3
 10
747.44052
 20
1135.0349
 11
748.01099
 21
1134.9567
  0
LINE
  8
0-2
  6
CONTINUOUS
 62
    3
 10
748.01099
 20
1134.9567
 11
748.55288
 21
1134.8315
  0
LINE
  8
0-2
  6
CONTINUOUS
 62
    3
 10
748.55288
 20
1134.8315
 11
749.06026
 21
1134.6628
  0
LINE
  8
0-2
  6
CONTINUOUS
 62
    3
 10
648.60995
 20
1128.1883
 11
638.64877
 21
1128.1883
  0
LINE
  8
0-2
  6
CONTINUOUS
 62
    3
 10
551.03948
 20
1237.8375
 11
648.60995
 21
1128.1883
  0
LINE
  8
0-2
  6
CONTINUOUS
 62
    3
 10
655.04623
 20
1128.1883
 11
559.04576
 21
1237.8375
  0
LINE
  8
0-2
  6
CONTINUOUS
 62
    3
 10
578.57433
 20
1237.8375
 11
670.74555
 21
1128.1883
  0
LINE
  8
0-2
  6
CONTINUOUS
 62
    3
 10
670.74555
 20
1128.1883
 11
655.04623
 21
1128.1883
  0
LINE
  8
0-2
  6
CONTINUOUS
 62
    3
 10
679.9711
 20
1128.1883
 11
590.04948
 21
1237.8375
  0
LINE
  8
0-2
  6
CONTINUOUS
 62
    3
 10
701.06225
 20
1128.1883
 11
679.9711
 21
1128.1883
  0
LINE
  8
0-2
  6
CONTINUOUS
 62
    3
 10
616.28454
 20
1237.8375
 11
701.06225
 21
1128.1883
  0
LINE
  8
0-2
  6
CONTINUOUS
 62
    3
 10
712.87663
 20
1128.1883
 11
630.98061
 21
1237.8375
  0
LINE
  8
0-2
  6
CONTINUOUS
 62
    3
 10
738.90199
 20
1128.1883
 11
712.87663
 21
1128.1883
  0
LINE
  8
0-2
  6
CONTINUOUS
 62
    3
 10
663.3539
 20
1237.8375
 11
738.90199
 21
1128.1883
  0
LINE
  8
0-2
  6
CONTINUOUS
 62
    3
 10
753.0506
 20
1128.1883
 11
680.95356
 21
1237.8375
  0
LINE
  8
0-2
  6
CONTINUOUS
 62
    3
 10
783.44709
 20
1128.1883
 11
753.0506
 21
1128.1883
  0
LINE
  8
0-2
  6
CONTINUOUS
 62
    3
 10
718.76434
 20
1237.8375
 11
783.44709
 21
1128.1883
  0
LINE
  8
0-2
  6
CONTINUOUS
 62
    3
 10
799.62298
 20
1128.1883
 11
738.88491
 21
1237.8375
  0
LINE
  8
0-2
  6
CONTINUOUS
 62
    3
 10
833.73367
 20
1128.1883
 11
799.62298
 21
1128.1883
  0
LINE
  8
0-2
  6
CONTINUOUS
 62
    3
 10
851.58646
 20
1128.1883
 11
803.52238
 21
1237.8375
  0
LINE
  8
0-2
  6
CONTINUOUS
 62
    3
 10
888.67237
 20
1128.1883
 11
851.58646
 21
1128.1883
  0
LINE
  8
0-2
  6
CONTINUOUS
 62
    3
 10
849.65309
 20
1237.8375
 11
888.67237
 21
1128.1883
  0
LINE
  8
0-2
  6
CONTINUOUS
 62
    3
 10
873.46558
 20
1237.8375
 11
907.81568
 21
1128.1883
  0
LINE
  8
0-2
  6
CONTINUOUS
 62
    3
 10
947.07361
 20
1128.1883
 11
907.81568
 21
1128.1883
  0
LINE
  8
0-2
  6
CONTINUOUS
 62
    3
 10
947.07361
 20
1128.1883
 11
922.2987
 21
1237.8375
  0
LINE
  8
0-2
  6
CONTINUOUS
 62
    3
 10
947.20166
 20
1237.8375
 11
967.09323
 21
1128.1883
  0
LINE
  8
0-2
  6
CONTINUOUS
 62
    3
 10
1007.6739
 20
1128.1883
 11
967.09323
 21
1128.1883
  0
LINE
  8
0-2
  6
CONTINUOUS
 62
    3
 10
1007.6739
 20
1128.1883
 11
997.67976
 21
1237.8375
  0
LINE
  8
0-2
  6
CONTINUOUS
 62
    3
 10
1028.1367
 20
1128.1883
 11
1023.1335
 21
1237.8375
  0
LINE
  8
0-2
  6
CONTINUOUS
 62
    3
 10
1048.6485
 20
1128.1883
 11
1028.1367
 21
1128.1883
  0
LINE
  8
0-2
  6
CONTINUOUS
 62
    3
 10
781.31552
 20
1237.8375
 11
833.73367
 21
1128.1883
  0
LINE
  8
0-2
  6
CONTINUOUS
 62
    3
 10
842.58361
 20
1128.1883
 11
842.58361
 21
951.55549
  0
LINE
  8
0-8
  6
CONTINUOUS
 62
    7
 10
308.64884
 20
887.83788
 11
308.64884
 21
2137.8376
  0
LINE
  8
0-2
  6
CONTINUOUS
 62
    3
 10
841.91515
 20
1988.569
 11
842.09813
 21
1988.5556
  0
LINE
  8
0-2
  6
CONTINUOUS
 62
    3
 10
842.09813
 20
1988.5556
 11
842.2774
 21
1988.5452
  0
LINE
  8
0-2
  6
CONTINUOUS
 62
    3
 10
842.2774
 20
1988.5452
 11
842.45259
 21
1988.5378
  0
LINE
  8
0-2
  6
CONTINUOUS
 62
    3
 10
842.45259
 20
1988.5378
 11
842.62406
 21
1988.5341
  0
LINE
  8
0-2
  6
CONTINUOUS
 62
    3
 10
842.62406
 20
1988.5341
 11
842.79146
 21
1988.5341
  0
LINE
  8
0-2
  6
CONTINUOUS
 62
    3
 10
842.79146
 20
1988.5341
 11
842.95477
 21
1988.5378
  0
LINE
  8
0-2
  6
CONTINUOUS
 62
    3
 10
842.95477
 20
1988.5378
 11
843.11548
 21
1988.5452
  0
LINE
  8
0-2
  6
CONTINUOUS
 62
    3
 10
843.11548
 20
1988.5452
 11
843.27099
 21
1988.5556
  0
LINE
  8
0-2
  6
CONTINUOUS
 62
    3
 10
843.27099
 20
1988.5556
 11
843.42354
 21
1988.569
  0
LINE
  8
0-2
  6
CONTINUOUS
 62
    3
 10
955.2807
 20
1988.3752
 11
955.77063
 21
1988.3418
  0
LINE
  8
0-2
  6
CONTINUOUS
 62
    3
 10
955.77063
 20
1988.3418
 11
956.26279
 21
1988.3188
  0
LINE
  8
0-2
  6
CONTINUOUS
 62
    3
 10
956.26279
 20
1988.3188
 11
956.7594
 21
1988.3047
  0
LINE
  8
0-2
  6
CONTINUOUS
 62
    3
 10
956.7594
 20
1988.3047
 11
957.25824
 21
1988.3018
  0
LINE
  8
0-2
  6
CONTINUOUS
 62
    3
 10
957.25824
 20
1988.3018
 11
957.76079
 21
1988.307
  0
LINE
  8
0-2
  6
CONTINUOUS
 62
    3
 10
957.76079
 20
1988.307
 11
958.26631
 21
1988.3211
  0
LINE
  8
0-2
  6
CONTINUOUS
 62
    3
 10
958.26631
 20
1988.3211
 11
958.77442
 21
1988.3463
  0
LINE
  8
0-2
  6
CONTINUOUS
 62
    3
 10
958.77442
 20
1988.3463
 11
959.28625
 21
1988.379
  0
LINE
  8
0-2
  6
CONTINUOUS
 62
    3
 10
959.28625
 20
1988.379
 11
959.80142
 21
1988.4235
  0
LINE
  8
0-2
  6
CONTINUOUS
 62
    3
 10
955.2807
 20
1137.3006
 11
955.77063
 21
1137.3332
  0
LINE
  8
0-2
  6
CONTINUOUS
 62
    3
 10
955.77063
 20
1137.3332
 11
956.26279
 21
1137.3559
  0
LINE
  8
0-2
  6
CONTINUOUS
 62
    3
 10
956.26279
 20
1137.3559
 11
956.7594
 21
1137.3698
  0
LINE
  8
0-2
  6
CONTINUOUS
 62
    3
 10
956.7594
 20
1137.3698
 11
957.25824
 21
1137.3737
  0
LINE
  8
0-2
  6
CONTINUOUS
 62
    3
 10
957.25824
 20
1137.3737
 11
957.76079
 21
1137.3684
  0
LINE
  8
0-2
  6
CONTINUOUS
 62
    3
 10
957.76079
 20
1137.3684
 11
958.26631
 21
1137.3539
  0
LINE
  8
0-2
  6
CONTINUOUS
 62
    3
 10
958.26631
 20
1137.3539
 11
958.77442
 21
1137.3292
  0
LINE
  8
0-2
  6
CONTINUOUS
 62
    3
 10
958.77442
 20
1137.3292
 11
959.28625
 21
1137.295
  0
LINE
  8
0-2
  6
CONTINUOUS
 62
    3
 10
959.28625
 20
1137.295
 11
959.80142
 21
1137.2515
  0
LINE
  8
0-2
  6
CONTINUOUS
 62
    3
 10
841.91515
 20
1137.105
 11
842.09813
 21
1137.1195
  0
LINE
  8
0-2
  6
CONTINUOUS
 62
    3
 10
842.09813
 20
1137.1195
 11
842.2774
 21
1137.1303
  0
LINE
  8
0-2
  6
CONTINUOUS
 62
    3
 10
842.2774
 20
1137.1303
 11
842.45259
 21
1137.1373
  0
LINE
  8
0-2
  6
CONTINUOUS
 62
    3
 10
842.45259
 20
1137.1373
 11
842.62406
 21
1137.1406
  0
LINE
  8
0-2
  6
CONTINUOUS
 62
    3
 10
842.62406
 20
1137.1406
 11
842.79146
 21
1137.1406
  0
LINE
  8
0-2
  6
CONTINUOUS
 62
    3
 10
842.79146
 20
1137.1406
 11
842.95477
 21
1137.1373
  0
LINE
  8
0-2
  6
CONTINUOUS
 62
    3
 10
842.95477
 20
1137.1373
 11
843.11548
 21
1137.1303
  0
LINE
  8
0-2
  6
CONTINUOUS
 62
    3
 10
843.11548
 20
1137.1303
 11
843.27099
 21
1137.1195
  0
LINE
  8
0-2
  6
CONTINUOUS
 62
    3
 10
843.27099
 20
1137.1195
 11
843.42354
 21
1137.105
  0
LINE
  8
0-2
  6
CONTINUOUS
 62
    3
 10
538.64868
 20
1259.7664
 11
1048.6485
 21
1259.7664
  0
LINE
  8
0-2
  6
CONTINUOUS
 62
    3
 10
538.64831
 20
1237.8375
 11
1048.6485
 21
1237.8375
  0
LINE
  8
0-2
  6
CONTINUOUS
 62
    3
 10
538.64985
 20
1350.9081
 11
1048.6485
 21
1350.9081
  0
LINE
  8
0-2
  6
CONTINUOUS
 62
    3
 10
538.64868
 20
1237.8375
 11
1048.6485
 21
1237.8375
  0
LINE
  8
0-2
  6
CONTINUOUS
 62
    3
 10
538.64831
 20
1774.7665
 11
1048.6485
 21
1774.7665
  0
LINE
  8
0-2
  6
CONTINUOUS
 62
    3
 10
538.64831
 20
1752.8376
 11
1048.6485
 21
1752.8376
  0
LINE
  8
0-2
  6
CONTINUOUS
 62
    3
 10
538.64985
 20
1372.8377
 11
1048.6485
 21
1372.8377
  0
LINE
  8
0-8
  6
CONTINUOUS
 62
    7
 10
897.3486
 20
2137.8376
 11
308.64884
 21
2137.8376
  0
LINE
  8
0-8
  6
CONTINUOUS
 62
    7
 10
585.91253
 20
887.83912
 11
308.64884
 21
887.83912
  0
LINE
  8
0-8
  6
CONTINUOUS
 62
    7
 10
551.59696
 20
887.83912
 11
308.64884
 21
887.83912
  0
LINE
  8
0-8
  6
CONTINUOUS
 62
    7
 10
551.59622
 20
887.83912
 11
308.64884
 21
887.83912
  0
LINE
  8
0-8
  6
CONTINUOUS
 62
    7
 10
551.59622
 20
887.83788
 11
308.64884
 21
887.83788
  0
LINE
  8
0-8
  6
CONTINUOUS
 62
    7
 10
537.52926
 20
887.83949
 11
308.64884
 21
887.83949
  0
LINE
  8
0-8
  6
CONTINUOUS
 62
    7
 10
537.52926
 20
887.83788
 11
308.64884
 21
887.83788
  0
LINE
  8
0-2
  6
CONTINUOUS
 62
    3
 10
741.15864
 20
900.5819
 11
1356.1584
 21
900.5819
  0
LINE
  8
0-2
  6
CONTINUOUS
 62
    3
 10
741.15864
 20
887.83924
 11
1356.1584
 21
887.83924
  0
LINE
  8
0-2
  6
CONTINUOUS
 62
    3
 10
741.15864
 20
938.81209
 11
741.15864
 21
900.5819
  0
LINE
  8
0-2
  6
CONTINUOUS
 62
    3
 10
741.15864
 20
938.81209
 11
1356.1584
 21
938.81209
  0
LINE
  8
0-2
  6
CONTINUOUS
 62
    3
 10
741.14862
 20
1128.1883
 11
741.14862
 21
951.55549
  0
LINE
  8
0-2
  6
CONTINUOUS
 62
    3
 10
802.58409
 20
1128.1883
 11
802.58409
 21
951.55549
  0
LINE
  8
0-2
  6
CONTINUOUS
 62
    3
 10
741.15678
 20
951.55549
 11
1356.1584
 21
951.55549
  0
LINE
  8
0-8
  6
CONTINUOUS
 62
    7
 10
741.14862
 20
868.39727
 11
741.14862
 21
783.54706
  0
LINE
  8
0-8
  6
CONTINUOUS
 62
    7
 10
741.14862
 20
783.54706
 11
1356.1484
 21
783.54681
  0
LINE
  8
0-8
  6
CONTINUOUS
 62
    7
 10
1356.1484
 20
868.39727
 11
1356.1484
 21
783.54681
  0
LINE
  8
0-2
  6
CONTINUOUS
 62
    3
 10
1356.1584
 20
938.81259
 11
1356.1584
 21
900.5819
  0
LINE
  8
0-2
  6
CONTINUOUS
 62
    3
 10
1558.6472
 20
1350.9081
 11
1558.6483
 21
1259.7664
  0
LINE
  8
0-2
  6
CONTINUOUS
 62
    3
 10
1558.6487
 20
1865.9074
 11
1558.6487
 21
1774.7665
  0
LINE
  8
0-2
  6
CONTINUOUS
 62
    3
 10
1558.6483
 20
1237.8375
 11
1458.6483
 21
1128.1883
  0
LINE
  8
0-2
  6
CONTINUOUS
 62
    3
 10
1048.6485
 20
2137.8376
 11
1299.3183
 21
2003.2714
  0
LINE
  8
0-2
  6
CONTINUOUS
 62
    3
 10
1558.6487
 20
1887.8377
 11
1458.6483
 21
1997.4857
  0
LINE
  8
0-2
  6
CONTINUOUS
 62
    3
 10
1137.4956
 20
1988.4235
 11
1136.6727
 21
1988.664
  0
LINE
  8
0-2
  6
CONTINUOUS
 62
    3
 10
1136.6727
 20
1988.664
 11
1135.8992
 21
1988.9936
  0
LINE
  8
0-2
  6
CONTINUOUS
 62
    3
 10
1135.8992
 20
1988.9936
 11
1135.1758
 21
1989.4026
  0
LINE
  8
0-2
  6
CONTINUOUS
 62
    3
 10
1135.1758
 20
1989.4026
 11
1134.5003
 21
1989.8866
  0
LINE
  8
0-2
  6
CONTINUOUS
 62
    3
 10
1134.5003
 20
1989.8866
 11
1133.8723
 21
1990.4404
  0
LINE
  8
0-2
  6
CONTINUOUS
 62
    3
 10
1133.8723
 20
1990.4404
 11
1133.2907
 21
1991.0558
  0
LINE
  8
0-2
  6
CONTINUOUS
 62
    3
 10
1133.2907
 20
1991.0558
 11
1132.7548
 21
1991.7268
  0
LINE
  8
0-2
  6
CONTINUOUS
 62
    3
 10
1132.7548
 20
1991.7268
 11
1132.2634
 21
1992.4491
  0
LINE
  8
0-2
  6
CONTINUOUS
 62
    3
 10
1132.2634
 20
1992.4491
 11
1131.8154
 21
1993.2144
  0
LINE
  8
0-2
  6
CONTINUOUS
 62
    3
 10
1131.8154
 20
1993.2144
 11
1131.4108
 21
1994.0176
  0
LINE
  8
0-2
  6
CONTINUOUS
 62
    3
 10
1131.4108
 20
1994.0176
 11
1131.0489
 21
1994.8535
  0
LINE
  8
0-2
  6
CONTINUOUS
 62
    3
 10
1131.0489
 20
1994.8535
 11
1130.7268
 21
1995.7131
  0
LINE
  8
0-2
  6
CONTINUOUS
 62
    3
 10
1130.7268
 20
1995.7131
 11
1130.4458
 21
1996.5935
  0
LINE
  8
0-2
  6
CONTINUOUS
 62
    3
 10
1130.4458
 20
1996.5935
 11
1130.2038
 21
1997.4857
  0
LINE
  8
0-2
  6
CONTINUOUS
 62
    3
 10
1142.0163
 20
1988.3752
 11
1142.968
 21
1988.7108
  0
LINE
  8
0-2
  6
CONTINUOUS
 62
    3
 10
1142.968
 20
1988.7108
 11
1143.861
 21
1989.1064
  0
LINE
  8
0-2
  6
CONTINUOUS
 62
    3
 10
1143.861
 20
1989.1064
 11
1144.6961
 21
1989.5607
  0
LINE
  8
0-2
  6
CONTINUOUS
 62
    3
 10
1144.6961
 20
1989.5607
 11
1145.4737
 21
1990.0692
  0
LINE
  8
0-2
  6
CONTINUOUS
 62
    3
 10
1145.4737
 20
1990.0692
 11
1146.1941
 21
1990.6289
  0
LINE
  8
0-2
  6
CONTINUOUS
 62
    3
 10
1146.1941
 20
1990.6289
 11
1146.8588
 21
1991.2376
  0
LINE
  8
0-2
  6
CONTINUOUS
 62
    3
 10
1146.8588
 20
1991.2376
 11
1147.4675
 21
1991.8924
  0
LINE
  8
0-2
  6
CONTINUOUS
 62
    3
 10
1147.4675
 20
1991.8924
 11
1148.0209
 21
1992.5894
  0
LINE
  8
0-2
  6
CONTINUOUS
 62
    3
 10
1148.0209
 20
1992.5894
 11
1148.5205
 21
1993.325
  0
LINE
  8
0-2
  6
CONTINUOUS
 62
    3
 10
1148.5205
 20
1993.325
 11
1148.9659
 21
1994.097
  0
LINE
  8
0-2
  6
CONTINUOUS
 62
    3
 10
1148.9659
 20
1994.097
 11
1149.3579
 21
1994.9025
  0
LINE
  8
0-2
  6
CONTINUOUS
 62
    3
 10
1149.3579
 20
1994.9025
 11
1149.6986
 21
1995.7368
  0
LINE
  8
0-2
  6
CONTINUOUS
 62
    3
 10
1149.6986
 20
1995.7368
 11
1149.9866
 21
1996.6001
  0
LINE
  8
0-2
  6
CONTINUOUS
 62
    3
 10
1149.9866
 20
1996.6001
 11
1150.2234
 21
1997.4857
  0
LINE
  8
0-2
  6
CONTINUOUS
 62
    3
 10
1189.4813
 20
1997.4857
 11
1190.4033
 21
1996.0145
  0
LINE
  8
0-2
  6
CONTINUOUS
 62
    3
 10
1190.4033
 20
1996.0145
 11
1191.336
 21
1994.7057
  0
LINE
  8
0-2
  6
CONTINUOUS
 62
    3
 10
1191.336
 20
1994.7057
 11
1192.2754
 21
1993.55
  0
LINE
  8
0-2
  6
CONTINUOUS
 62
    3
 10
1192.2754
 20
1993.55
 11
1193.2186
 21
1992.5382
  0
LINE
  8
0-2
  6
CONTINUOUS
 62
    3
 10
1193.2186
 20
1992.5382
 11
1194.1613
 21
1991.6615
  0
LINE
  8
0-2
  6
CONTINUOUS
 62
    3
 10
1194.1613
 20
1991.6615
 11
1195.1003
 21
1990.9125
  0
LINE
  8
0-2
  6
CONTINUOUS
 62
    3
 10
1195.1003
 20
1990.9125
 11
1196.0312
 21
1990.2808
  0
LINE
  8
0-2
  6
CONTINUOUS
 62
    3
 10
1196.0312
 20
1990.2808
 11
1196.9509
 21
1989.756
  0
LINE
  8
0-2
  6
CONTINUOUS
 62
    3
 10
1196.9509
 20
1989.756
 11
1197.8562
 21
1989.3306
  0
LINE
  8
0-2
  6
CONTINUOUS
 62
    3
 10
1197.8562
 20
1989.3306
 11
1198.7425
 21
1988.9958
  0
LINE
  8
0-2
  6
CONTINUOUS
 62
    3
 10
1198.7425
 20
1988.9958
 11
1199.6062
 21
1988.742
  0
LINE
  8
0-2
  6
CONTINUOUS
 62
    3
 10
1199.6062
 20
1988.742
 11
1200.4443
 21
1988.5593
  0
LINE
  8
0-2
  6
CONTINUOUS
 62
    3
 10
1200.4443
 20
1988.5593
 11
1201.253
 21
1988.4398
  0
LINE
  8
0-2
  6
CONTINUOUS
 62
    3
 10
1201.253
 20
1988.4398
 11
1202.028
 21
1988.3752
  0
LINE
  8
0-2
  6
CONTINUOUS
 62
    3
 10
1208.6247
 20
1997.4857
 11
1208.5976
 21
1996.4279
  0
LINE
  8
0-2
  6
CONTINUOUS
 62
    3
 10
1208.5976
 20
1996.4279
 11
1208.514
 21
1995.4488
  0
LINE
  8
0-2
  6
CONTINUOUS
 62
    3
 10
1208.514
 20
1995.4488
 11
1208.3719
 21
1994.5469
  0
LINE
  8
0-2
  6
CONTINUOUS
 62
    3
 10
1208.3719
 20
1994.5469
 11
1208.1674
 21
1993.7155
  0
LINE
  8
0-2
  6
CONTINUOUS
 62
    3
 10
1208.1674
 20
1993.7155
 11
1207.8983
 21
1992.9516
  0
LINE
  8
0-2
  6
CONTINUOUS
 62
    3
 10
1207.8983
 20
1992.9516
 11
1207.5605
 21
1992.2516
  0
LINE
  8
0-2
  6
CONTINUOUS
 62
    3
 10
1207.5605
 20
1992.2516
 11
1207.1511
 21
1991.6095
  0
LINE
  8
0-2
  6
CONTINUOUS
 62
    3
 10
1207.1511
 20
1991.6095
 11
1206.6679
 21
1991.0201
  0
LINE
  8
0-2
  6
CONTINUOUS
 62
    3
 10
1206.6679
 20
1991.0201
 11
1206.1067
 21
1990.4812
  0
LINE
  8
0-2
  6
CONTINUOUS
 62
    3
 10
1206.1067
 20
1990.4812
 11
1205.465
 21
1989.9876
  0
LINE
  8
0-2
  6
CONTINUOUS
 62
    3
 10
1205.465
 20
1989.9876
 11
1204.739
 21
1989.534
  0
LINE
  8
0-2
  6
CONTINUOUS
 62
    3
 10
1204.739
 20
1989.534
 11
1203.9269
 21
1989.1176
  0
LINE
  8
0-2
  6
CONTINUOUS
 62
    3
 10
1203.9269
 20
1989.1176
 11
1203.0238
 21
1988.7316
  0
LINE
  8
0-2
  6
CONTINUOUS
 62
    3
 10
1203.0238
 20
1988.7316
 11
1202.028
 21
1988.3752
  0
LINE
  8
0-2
  6
CONTINUOUS
 62
    3
 10
1263.5633
 20
1997.4857
 11
1263.0931
 21
1996.2431
  0
LINE
  8
0-2
  6
CONTINUOUS
 62
    3
 10
1263.0931
 20
1996.2431
 11
1262.6032
 21
1995.1148
  0
LINE
  8
0-2
  6
CONTINUOUS
 62
    3
 10
1262.6032
 20
1995.1148
 11
1262.095
 21
1994.097
  0
LINE
  8
0-2
  6
CONTINUOUS
 62
    3
 10
1262.095
 20
1994.097
 11
1261.5676
 21
1993.1825
  0
LINE
  8
0-2
  6
CONTINUOUS
 62
    3
 10
1261.5676
 20
1993.1825
 11
1261.022
 21
1992.3682
  0
LINE
  8
0-2
  6
CONTINUOUS
 62
    3
 10
1261.022
 20
1992.3682
 11
1260.459
 21
1991.6466
  0
LINE
  8
0-2
  6
CONTINUOUS
 62
    3
 10
1260.459
 20
1991.6466
 11
1259.8796
 21
1991.0127
  0
LINE
  8
0-2
  6
CONTINUOUS
 62
    3
 10
1259.8796
 20
1991.0127
 11
1259.2828
 21
1990.4619
  0
LINE
  8
0-2
  6
CONTINUOUS
 62
    3
 10
1259.2828
 20
1990.4619
 11
1258.6703
 21
1989.9868
  0
LINE
  8
0-2
  6
CONTINUOUS
 62
    3
 10
1258.6703
 20
1989.9868
 11
1258.042
 21
1989.5837
  0
LINE
  8
0-2
  6
CONTINUOUS
 62
    3
 10
1258.042
 20
1989.5837
 11
1257.398
 21
1989.2452
  0
LINE
  8
0-2
  6
CONTINUOUS
 62
    3
 10
1257.398
 20
1989.2452
 11
1256.7403
 21
1988.9676
  0
LINE
  8
0-2
  6
CONTINUOUS
 62
    3
 10
1256.7403
 20
1988.9676
 11
1256.0678
 21
1988.7434
  0
LINE
  8
0-2
  6
CONTINUOUS
 62
    3
 10
1256.0678
 20
1988.7434
 11
1255.3819
 21
1988.569
  0
LINE
  8
0-2
  6
CONTINUOUS
 62
    3
 10
1253.8735
 20
1988.569
 11
1253.1579
 21
1988.7175
  0
LINE
  8
0-2
  6
CONTINUOUS
 62
    3
 10
1253.1579
 20
1988.7175
 11
1252.4482
 21
1988.9557
  0
LINE
  8
0-2
  6
CONTINUOUS
 62
    3
 10
1252.4482
 20
1988.9557
 11
1251.7445
 21
1989.2801
  0
LINE
  8
0-2
  6
CONTINUOUS
 62
    3
 10
1251.7445
 20
1989.2801
 11
1251.0467
 21
1989.6936
  0
LINE
  8
0-2
  6
CONTINUOUS
 62
    3
 10
1251.0467
 20
1989.6936
 11
1250.3545
 21
1990.1932
  0
LINE
  8
0-2
  6
CONTINUOUS
 62
    3
 10
1250.3545
 20
1990.1932
 11
1249.6682
 21
1990.7826
  0
LINE
  8
0-2
  6
CONTINUOUS
 62
    3
 10
1249.6682
 20
1990.7826
 11
1248.9875
 21
1991.4596
  0
LINE
  8
0-2
  6
CONTINUOUS
 62
    3
 10
1248.9875
 20
1991.4596
 11
1248.3128
 21
1992.2242
  0
LINE
  8
0-2
  6
CONTINUOUS
 62
    3
 10
1248.3128
 20
1992.2242
 11
1247.6439
 21
1993.0764
  0
LINE
  8
0-2
  6
CONTINUOUS
 62
    3
 10
1313.8499
 20
1997.4857
 11
1313.7133
 21
1996.5378
  0
LINE
  8
0-2
  6
CONTINUOUS
 62
    3
 10
1313.7133
 20
1996.5378
 11
1313.5203
 21
1995.6559
  0
LINE
  8
0-2
  6
CONTINUOUS
 62
    3
 10
1313.5203
 20
1995.6559
 11
1313.275
 21
1994.8364
  0
LINE
  8
0-2
  6
CONTINUOUS
 62
    3
 10
1313.275
 20
1994.8364
 11
1312.981
 21
1994.077
  0
LINE
  8
0-2
  6
CONTINUOUS
 62
    3
 10
1312.981
 20
1994.077
 11
1312.644
 21
1993.3748
  0
LINE
  8
0-2
  6
CONTINUOUS
 62
    3
 10
1312.644
 20
1993.3748
 11
1312.2666
 21
1992.7282
  0
LINE
  8
0-2
  6
CONTINUOUS
 62
    3
 10
1312.2666
 20
1992.7282
 11
1311.8531
 21
1992.1344
  0
LINE
  8
0-2
  6
CONTINUOUS
 62
    3
 10
1311.8531
 20
1992.1344
 11
1311.4077
 21
1991.5917
  0
LINE
  8
0-2
  6
CONTINUOUS
 62
    3
 10
1311.4077
 20
1991.5917
 11
1310.9326
 21
1991.0981
  0
LINE
  8
0-2
  6
CONTINUOUS
 62
    3
 10
1310.9326
 20
1991.0981
 11
1310.4319
 21
1990.6519
  0
LINE
  8
0-2
  6
CONTINUOUS
 62
    3
 10
1310.4319
 20
1990.6519
 11
1309.9082
 21
1990.2518
  0
LINE
  8
0-2
  6
CONTINUOUS
 62
    3
 10
1309.9082
 20
1990.2518
 11
1309.3633
 21
1989.8963
  0
LINE
  8
0-2
  6
CONTINUOUS
 62
    3
 10
1309.3633
 20
1989.8963
 11
1308.8018
 21
1989.5837
  0
LINE
  8
0-2
  6
CONTINUOUS
 62
    3
 10
1308.8018
 20
1989.5837
 11
1308.2231
 21
1989.3143
  0
LINE
  8
0-2
  6
CONTINUOUS
 62
    3
 10
1308.2231
 20
1989.3143
 11
1307.6319
 21
1989.0849
  0
LINE
  8
0-2
  6
CONTINUOUS
 62
    3
 10
1307.6319
 20
1989.0849
 11
1307.028
 21
1988.8956
  0
LINE
  8
0-2
  6
CONTINUOUS
 62
    3
 10
1307.028
 20
1988.8956
 11
1306.4134
 21
1988.7471
  0
LINE
  8
0-2
  6
CONTINUOUS
 62
    3
 10
1306.4134
 20
1988.7471
 11
1305.7906
 21
1988.6395
  0
LINE
  8
0-2
  6
CONTINUOUS
 62
    3
 10
1305.7906
 20
1988.6395
 11
1305.1588
 21
1988.569
  0
LINE
  8
0-2
  6
CONTINUOUS
 62
    3
 10
1304.9996
 20
1988.5779
 11
1304.6437
 21
1988.6158
  0
LINE
  8
0-2
  6
CONTINUOUS
 62
    3
 10
1304.6437
 20
1988.6158
 11
1304.2948
 21
1988.6714
  0
LINE
  8
0-2
  6
CONTINUOUS
 62
    3
 10
1304.2948
 20
1988.6714
 11
1303.9511
 21
1988.7434
  0
LINE
  8
0-2
  6
CONTINUOUS
 62
    3
 10
1303.9511
 20
1988.7434
 11
1303.6145
 21
1988.8333
  0
LINE
  8
0-2
  6
CONTINUOUS
 62
    3
 10
1303.6145
 20
1988.8333
 11
1303.283
 21
1988.9387
  0
LINE
  8
0-2
  6
CONTINUOUS
 62
    3
 10
1303.283
 20
1988.9387
 11
1302.9582
 21
1989.0611
  0
LINE
  8
0-2
  6
CONTINUOUS
 62
    3
 10
1302.9582
 20
1989.0611
 11
1302.6394
 21
1989.2
  0
LINE
  8
0-2
  6
CONTINUOUS
 62
    3
 10
1302.6394
 20
1989.2
 11
1302.3273
 21
1989.3566
  0
LINE
  8
0-2
  6
CONTINUOUS
 62
    3
 10
1302.3273
 20
1989.3566
 11
1302.0203
 21
1989.5296
  0
LINE
  8
0-2
  6
CONTINUOUS
 62
    3
 10
1448.6871
 20
1997.4857
 11
1448.5653
 21
1996.4895
  0
LINE
  8
0-2
  6
CONTINUOUS
 62
    3
 10
1448.5653
 20
1996.4895
 11
1448.4365
 21
1995.578
  0
LINE
  8
0-2
  6
CONTINUOUS
 62
    3
 10
1448.4365
 20
1995.578
 11
1448.3003
 21
1994.7533
  0
LINE
  8
0-2
  6
CONTINUOUS
 62
    3
 10
1448.3003
 20
1994.7533
 11
1448.1578
 21
1994.0132
  0
LINE
  8
0-2
  6
CONTINUOUS
 62
    3
 10
1448.1578
 20
1994.0132
 11
1448.0078
 21
1993.3607
  0
LINE
  8
0-2
  6
CONTINUOUS
 62
    3
 10
1448.0078
 20
1993.3607
 11
1447.8505
 21
1992.7935
  0
LINE
  8
0-2
  6
CONTINUOUS
 62
    3
 10
1447.8505
 20
1992.7935
 11
1447.6868
 21
1992.3125
  0
LINE
  8
0-2
  6
CONTINUOUS
 62
    3
 10
1447.6868
 20
1992.3125
 11
1447.5149
 21
1991.9176
  0
LINE
  8
0-2
  6
CONTINUOUS
 62
    3
 10
1447.5149
 20
1991.9176
 11
1447.3368
 21
1991.6095
  0
LINE
  8
0-2
  6
CONTINUOUS
 62
    3
 10
1426.5515
 20
1997.4857
 11
1426.4835
 21
1996.6974
  0
LINE
  8
0-2
  6
CONTINUOUS
 62
    3
 10
1426.4835
 20
1996.6974
 11
1426.3722
 21
1995.9506
  0
LINE
  8
0-2
  6
CONTINUOUS
 62
    3
 10
1426.3722
 20
1995.9506
 11
1426.2226
 21
1995.2469
  0
LINE
  8
0-2
  6
CONTINUOUS
 62
    3
 10
1426.2226
 20
1995.2469
 11
1426.037
 21
1994.5862
  0
LINE
  8
0-2
  6
CONTINUOUS
 62
    3
 10
1426.037
 20
1994.5862
 11
1425.821
 21
1993.9694
  0
LINE
  8
0-2
  6
CONTINUOUS
 62
    3
 10
1425.821
 20
1993.9694
 11
1425.5787
 21
1993.3963
  0
LINE
  8
0-2
  6
CONTINUOUS
 62
    3
 10
1425.5787
 20
1993.3963
 11
1425.3137
 21
1992.867
  0
LINE
  8
0-2
  6
CONTINUOUS
 62
    3
 10
1425.3137
 20
1992.867
 11
1425.0316
 21
1992.3823
  0
LINE
  8
0-2
  6
CONTINUOUS
 62
    3
 10
1425.0316
 20
1992.3823
 11
1424.7361
 21
1991.9413
  0
LINE
  8
0-2
  6
CONTINUOUS
 62
    3
 10
1424.7361
 20
1991.9413
 11
1424.4318
 21
1991.5457
  0
LINE
  8
0-2
  6
CONTINUOUS
 62
    3
 10
1424.4318
 20
1991.5457
 11
1424.123
 21
1991.1953
  0
LINE
  8
0-2
  6
CONTINUOUS
 62
    3
 10
1424.123
 20
1991.1953
 11
1423.8127
 21
1990.8895
  0
LINE
  8
0-2
  6
CONTINUOUS
 62
    3
 10
1423.8127
 20
1990.8895
 11
1423.5068
 21
1990.6289
  0
LINE
  8
0-2
  6
CONTINUOUS
 62
    3
 10
1423.5068
 20
1990.6289
 11
1423.2095
 21
1990.4129
  0
LINE
  8
0-2
  6
CONTINUOUS
 62
    3
 10
1396.2348
 20
1997.4857
 11
1396.0343
 21
1996.6076
  0
LINE
  8
0-2
  6
CONTINUOUS
 62
    3
 10
1396.0343
 20
1996.6076
 11
1395.7894
 21
1995.7851
  0
LINE
  8
0-2
  6
CONTINUOUS
 62
    3
 10
1395.7894
 20
1995.7851
 11
1395.5028
 21
1995.0168
  0
LINE
  8
0-2
  6
CONTINUOUS
 62
    3
 10
1395.5028
 20
1995.0168
 11
1395.1755
 21
1994.3049
  0
LINE
  8
0-2
  6
CONTINUOUS
 62
    3
 10
1395.1755
 20
1994.3049
 11
1394.8103
 21
1993.6465
  0
LINE
  8
0-2
  6
CONTINUOUS
 62
    3
 10
1394.8103
 20
1993.6465
 11
1394.409
 21
1993.043
  0
LINE
  8
0-2
  6
CONTINUOUS
 62
    3
 10
1394.409
 20
1993.043
 11
1393.9726
 21
1992.4936
  0
LINE
  8
0-2
  6
CONTINUOUS
 62
    3
 10
1393.9726
 20
1992.4936
 11
1393.5023
 21
1991.997
  0
LINE
  8
0-2
  6
CONTINUOUS
 62
    3
 10
1393.5023
 20
1991.997
 11
1393.0012
 21
1991.5531
  0
LINE
  8
0-2
  6
CONTINUOUS
 62
    3
 10
1393.0012
 20
1991.5531
 11
1392.4701
 21
1991.1619
  0
LINE
  8
0-2
  6
CONTINUOUS
 62
    3
 10
1392.4701
 20
1991.1619
 11
1391.9115
 21
1990.8227
  0
LINE
  8
0-2
  6
CONTINUOUS
 62
    3
 10
1391.9115
 20
1990.8227
 11
1391.3266
 21
1990.5361
  0
LINE
  8
0-2
  6
CONTINUOUS
 62
    3
 10
1391.3266
 20
1990.5361
 11
1390.7171
 21
1990.3001
  0
LINE
  8
0-2
  6
CONTINUOUS
 62
    3
 10
1390.7171
 20
1990.3001
 11
1390.0854
 21
1990.1152
  0
LINE
  8
0-2
  6
CONTINUOUS
 62
    3
 10
1358.4121
 20
1997.4857
 11
1358.1081
 21
1996.5653
  0
LINE
  8
0-2
  6
CONTINUOUS
 62
    3
 10
1358.1081
 20
1996.5653
 11
1357.7518
 21
1995.7116
  0
LINE
  8
0-2
  6
CONTINUOUS
 62
    3
 10
1357.7518
 20
1995.7116
 11
1357.348
 21
1994.9247
  0
LINE
  8
0-2
  6
CONTINUOUS
 62
    3
 10
1357.348
 20
1994.9247
 11
1356.9007
 21
1994.2062
  0
LINE
  8
0-2
  6
CONTINUOUS
 62
    3
 10
1356.9007
 20
1994.2062
 11
1356.4142
 21
1993.5559
  0
LINE
  8
0-2
  6
CONTINUOUS
 62
    3
 10
1356.4142
 20
1993.5559
 11
1355.893
 21
1992.9724
  0
LINE
  8
0-2
  6
CONTINUOUS
 62
    3
 10
1355.893
 20
1992.9724
 11
1355.3422
 21
1992.4558
  0
LINE
  8
0-2
  6
CONTINUOUS
 62
    3
 10
1355.3422
 20
1992.4558
 11
1354.7662
 21
1992.0059
  0
LINE
  8
0-2
  6
CONTINUOUS
 62
    3
 10
1354.7662
 20
1992.0059
 11
1354.1694
 21
1991.6214
  0
LINE
  8
0-2
  6
CONTINUOUS
 62
    3
 10
1354.1694
 20
1991.6214
 11
1353.5577
 21
1991.3015
  0
LINE
  8
0-2
  6
CONTINUOUS
 62
    3
 10
1353.5577
 20
1991.3015
 11
1352.9356
 21
1991.0446
  0
LINE
  8
0-2
  6
CONTINUOUS
 62
    3
 10
1352.9356
 20
1991.0446
 11
1352.308
 21
1990.8487
  0
LINE
  8
0-2
  6
CONTINUOUS
 62
    3
 10
1352.308
 20
1990.8487
 11
1351.6811
 21
1990.7128
  0
LINE
  8
0-2
  6
CONTINUOUS
 62
    3
 10
1351.6811
 20
1990.7128
 11
1351.0594
 21
1990.6349
  0
LINE
  8
0-2
  6
CONTINUOUS
 62
    3
 10
1351.0594
 20
1990.6349
 11
1350.4492
 21
1990.6104
  0
LINE
  8
0-2
  6
CONTINUOUS
 62
    3
 10
1350.4492
 20
1990.6104
 11
1349.8565
 21
1990.6401
  0
LINE
  8
0-2
  6
CONTINUOUS
 62
    3
 10
1349.8565
 20
1990.6401
 11
1349.286
 21
1990.718
  0
LINE
  8
0-2
  6
CONTINUOUS
 62
    3
 10
1349.286
 20
1990.718
 11
1348.7441
 21
1990.8427
  0
LINE
  8
0-2
  6
CONTINUOUS
 62
    3
 10
1348.7441
 20
1990.8427
 11
1348.2368
 21
1991.0112
  0
LINE
  8
0-2
  6
CONTINUOUS
 62
    3
 10
1448.6871
 20
1997.4857
 11
1458.6483
 21
1997.4857
  0
LINE
  8
0-2
  6
CONTINUOUS
 62
    3
 10
1546.2575
 20
1887.8377
 11
1448.6871
 21
1997.4857
  0
LINE
  8
0-2
  6
CONTINUOUS
 62
    3
 10
1442.2508
 20
1997.4857
 11
1538.2513
 21
1887.8377
  0
LINE
  8
0-2
  6
CONTINUOUS
 62
    3
 10
1518.7227
 20
1887.8377
 11
1426.5515
 21
1997.4857
  0
LINE
  8
0-2
  6
CONTINUOUS
 62
    3
 10
1426.5515
 20
1997.4857
 11
1442.2508
 21
1997.4857
  0
LINE
  8
0-2
  6
CONTINUOUS
 62
    3
 10
1417.3259
 20
1997.4857
 11
1507.2475
 21
1887.8377
  0
LINE
  8
0-2
  6
CONTINUOUS
 62
    3
 10
1396.2348
 20
1997.4857
 11
1417.3259
 21
1997.4857
  0
LINE
  8
0-2
  6
CONTINUOUS
 62
    3
 10
1481.0125
 20
1887.8377
 11
1396.2348
 21
1997.4857
  0
LINE
  8
0-2
  6
CONTINUOUS
 62
    3
 10
1384.4204
 20
1997.4857
 11
1466.3164
 21
1887.8377
  0
LINE
  8
0-2
  6
CONTINUOUS
 62
    3
 10
1358.395
 20
1997.4857
 11
1384.4204
 21
1997.4857
  0
LINE
  8
0-2
  6
CONTINUOUS
 62
    3
 10
1433.9431
 20
1887.8377
 11
1358.395
 21
1997.4857
  0
LINE
  8
0-2
  6
CONTINUOUS
 62
    3
 10
1344.2464
 20
1997.4857
 11
1416.3435
 21
1887.8377
  0
LINE
  8
0-2
  6
CONTINUOUS
 62
    3
 10
1313.8499
 20
1997.4857
 11
1344.2464
 21
1997.4857
  0
LINE
  8
0-2
  6
CONTINUOUS
 62
    3
 10
1378.5327
 20
1887.8377
 11
1313.8499
 21
1997.4857
  0
LINE
  8
0-2
  6
CONTINUOUS
 62
    3
 10
1297.674
 20
1997.4857
 11
1358.4121
 21
1887.8377
  0
LINE
  8
0-2
  6
CONTINUOUS
 62
    3
 10
1263.5633
 20
1997.4857
 11
1297.674
 21
1997.4857
  0
LINE
  8
0-2
  6
CONTINUOUS
 62
    3
 10
1315.9815
 20
1887.8377
 11
1263.5633
 21
1997.4857
  0
LINE
  8
0-2
  6
CONTINUOUS
 62
    3
 10
1245.7106
 20
1997.4857
 11
1293.7746
 21
1887.8377
  0
LINE
  8
0-2
  6
CONTINUOUS
 62
    3
 10
1208.6247
 20
1997.4857
 11
1245.7106
 21
1997.4857
  0
LINE
  8
0-2
  6
CONTINUOUS
 62
    3
 10
1247.6439
 20
1887.8377
 11
1208.6247
 21
1997.4857
  0
LINE
  8
0-2
  6
CONTINUOUS
 62
    3
 10
1223.8314
 20
1887.8377
 11
1189.4813
 21
1997.4857
  0
LINE
  8
0-2
  6
CONTINUOUS
 62
    3
 10
1150.2234
 20
1997.4857
 11
1189.4813
 21
1997.4857
  0
LINE
  8
0-2
  6
CONTINUOUS
 62
    3
 10
1150.2234
 20
1997.4857
 11
1174.9983
 21
1887.8377
  0
LINE
  8
0-2
  6
CONTINUOUS
 62
    3
 10
1150.0954
 20
1887.8377
 11
1130.2038
 21
1997.4857
  0
LINE
  8
0-2
  6
CONTINUOUS
 62
    3
 10
1089.623
 20
1997.4857
 11
1130.2038
 21
1997.4857
  0
LINE
  8
0-2
  6
CONTINUOUS
 62
    3
 10
1089.623
 20
1997.4857
 11
1099.6173
 21
1887.8377
  0
LINE
  8
0-2
  6
CONTINUOUS
 62
    3
 10
1069.1603
 20
1997.4857
 11
1074.1635
 21
1887.8377
  0
LINE
  8
0-2
  6
CONTINUOUS
 62
    3
 10
1048.6485
 20
1997.4857
 11
1069.1603
 21
1997.4857
  0
LINE
  8
0-2
  6
CONTINUOUS
 62
    3
 10
1099.6173
 20
1752.8376
 11
1099.6173
 21
1372.8377
  0
LINE
  8
0-2
  6
CONTINUOUS
 62
    3
 10
1150.0954
 20
1752.8376
 11
1150.0954
 21
1372.8377
  0
LINE
  8
0-2
  6
CONTINUOUS
 62
    3
 10
1247.6439
 20
1752.8376
 11
1247.6439
 21
1372.8377
  0
LINE
  8
0-2
  6
CONTINUOUS
 62
    3
 10
1293.7746
 20
1752.8376
 11
1293.7746
 21
1372.8377
  0
LINE
  8
0-2
  6
CONTINUOUS
 62
    3
 10
1378.5327
 20
1752.8376
 11
1378.5327
 21
1372.8377
  0
LINE
  8
0-2
  6
CONTINUOUS
 62
    3
 10
1416.3435
 20
1752.8376
 11
1416.3435
 21
1372.8377
  0
LINE
  8
0-2
  6
CONTINUOUS
 62
    3
 10
1481.0125
 20
1752.8376
 11
1481.0125
 21
1372.8377
  0
LINE
  8
0-2
  6
CONTINUOUS
 62
    3
 10
1361.4233
 20
1752.8376
 11
1361.4233
 21
1372.8377
  0
LINE
  8
0-2
  6
CONTINUOUS
 62
    3
 10
1341.4226
 20
1752.8376
 11
1341.4226
 21
1372.8377
  0
LINE
  8
0-2
  6
CONTINUOUS
 62
    3
 10
1558.6487
 20
1259.7671
 11
1558.6487
 21
1350.9096
  0
LINE
  8
0-2
  6
CONTINUOUS
 62
    3
 10
1558.6487
 20
1237.8375
 11
1458.6483
 21
1128.1883
  0
LINE
  8
0-2
  6
CONTINUOUS
 62
    3
 10
1137.4956
 20
1137.2515
 11
1136.6727
 21
1137.0096
  0
LINE
  8
0-2
  6
CONTINUOUS
 62
    3
 10
1136.6727
 20
1137.0096
 11
1135.8992
 21
1136.6814
  0
LINE
  8
0-2
  6
CONTINUOUS
 62
    3
 10
1135.8992
 20
1136.6814
 11
1135.1758
 21
1136.2721
  0
LINE
  8
0-2
  6
CONTINUOUS
 62
    3
 10
1135.1758
 20
1136.2721
 11
1134.5003
 21
1135.7878
  0
LINE
  8
0-2
  6
CONTINUOUS
 62
    3
 10
1134.5003
 20
1135.7878
 11
1133.8723
 21
1135.2344
  0
LINE
  8
0-2
  6
CONTINUOUS
 62
    3
 10
1133.8723
 20
1135.2344
 11
1133.2907
 21
1134.6192
  0
LINE
  8
0-2
  6
CONTINUOUS
 62
    3
 10
1133.2907
 20
1134.6192
 11
1132.7548
 21
1133.9477
  0
LINE
  8
0-2
  6
CONTINUOUS
 62
    3
 10
1132.7548
 20
1133.9477
 11
1132.2634
 21
1133.2261
  0
LINE
  8
0-2
  6
CONTINUOUS
 62
    3
 10
1132.2634
 20
1133.2261
 11
1131.8154
 21
1132.4606
  0
LINE
  8
0-2
  6
CONTINUOUS
 62
    3
 10
1131.8154
 20
1132.4606
 11
1131.4108
 21
1131.6569
  0
LINE
  8
0-2
  6
CONTINUOUS
 62
    3
 10
1131.4108
 20
1131.6569
 11
1131.0489
 21
1130.8215
  0
LINE
  8
0-2
  6
CONTINUOUS
 62
    3
 10
1131.0489
 20
1130.8215
 11
1130.7268
 21
1129.9615
  0
LINE
  8
0-2
  6
CONTINUOUS
 62
    3
 10
1130.7268
 20
1129.9615
 11
1130.4458
 21
1129.0817
  0
LINE
  8
0-2
  6
CONTINUOUS
 62
    3
 10
1130.4458
 20
1129.0817
 11
1130.2038
 21
1128.1883
  0
LINE
  8
0-2
  6
CONTINUOUS
 62
    3
 10
1142.0163
 20
1137.3006
 11
1142.968
 21
1136.964
  0
LINE
  8
0-2
  6
CONTINUOUS
 62
    3
 10
1142.968
 20
1136.964
 11
1143.861
 21
1136.5681
  0
LINE
  8
0-2
  6
CONTINUOUS
 62
    3
 10
1143.861
 20
1136.5681
 11
1144.6961
 21
1136.1148
  0
LINE
  8
0-2
  6
CONTINUOUS
 62
    3
 10
1144.6961
 20
1136.1148
 11
1145.4737
 21
1135.6052
  0
LINE
  8
0-2
  6
CONTINUOUS
 62
    3
 10
1145.4737
 20
1135.6052
 11
1146.1941
 21
1135.0458
  0
LINE
  8
0-2
  6
CONTINUOUS
 62
    3
 10
1146.1941
 20
1135.0458
 11
1146.8588
 21
1134.4361
  0
LINE
  8
0-2
  6
CONTINUOUS
 62
    3
 10
1146.8588
 20
1134.4361
 11
1147.4675
 21
1133.782
  0
LINE
  8
0-2
  6
CONTINUOUS
 62
    3
 10
1147.4675
 20
1133.782
 11
1148.0209
 21
1133.0861
  0
LINE
  8
0-2
  6
CONTINUOUS
 62
    3
 10
1148.0209
 20
1133.0861
 11
1148.5205
 21
1132.3502
  0
LINE
  8
0-2
  6
CONTINUOUS
 62
    3
 10
1148.5205
 20
1132.3502
 11
1148.9659
 21
1131.5777
  0
LINE
  8
0-2
  6
CONTINUOUS
 62
    3
 10
1148.9659
 20
1131.5777
 11
1149.3579
 21
1130.7722
  0
LINE
  8
0-2
  6
CONTINUOUS
 62
    3
 10
1149.3579
 20
1130.7722
 11
1149.6986
 21
1129.9377
  0
LINE
  8
0-2
  6
CONTINUOUS
 62
    3
 10
1149.6986
 20
1129.9377
 11
1149.9866
 21
1129.075
  0
LINE
  8
0-2
  6
CONTINUOUS
 62
    3
 10
1149.9866
 20
1129.075
 11
1150.2234
 21
1128.1883
  0
LINE
  8
0-2
  6
CONTINUOUS
 62
    3
 10
1189.4813
 20
1128.1883
 11
1190.4033
 21
1129.6607
  0
LINE
  8
0-2
  6
CONTINUOUS
 62
    3
 10
1190.4033
 20
1129.6607
 11
1191.336
 21
1130.9695
  0
LINE
  8
0-2
  6
CONTINUOUS
 62
    3
 10
1191.336
 20
1130.9695
 11
1192.2754
 21
1132.1252
  0
LINE
  8
0-2
  6
CONTINUOUS
 62
    3
 10
1192.2754
 20
1132.1252
 11
1193.2186
 21
1133.1366
  0
LINE
  8
0-2
  6
CONTINUOUS
 62
    3
 10
1193.2186
 20
1133.1366
 11
1194.1613
 21
1134.0131
  0
LINE
  8
0-2
  6
CONTINUOUS
 62
    3
 10
1194.1613
 20
1134.0131
 11
1195.1003
 21
1134.7619
  0
LINE
  8
0-2
  6
CONTINUOUS
 62
    3
 10
1195.1003
 20
1134.7619
 11
1196.0312
 21
1135.3947
  0
LINE
  8
0-2
  6
CONTINUOUS
 62
    3
 10
1196.0312
 20
1135.3947
 11
1196.9509
 21
1135.9188
  0
LINE
  8
0-2
  6
CONTINUOUS
 62
    3
 10
1196.9509
 20
1135.9188
 11
1197.8562
 21
1136.3444
  0
LINE
  8
0-2
  6
CONTINUOUS
 62
    3
 10
1197.8562
 20
1136.3444
 11
1198.7425
 21
1136.6789
  0
LINE
  8
0-2
  6
CONTINUOUS
 62
    3
 10
1198.7425
 20
1136.6789
 11
1199.6062
 21
1136.9328
  0
LINE
  8
0-2
  6
CONTINUOUS
 62
    3
 10
1199.6062
 20
1136.9328
 11
1200.4443
 21
1137.1154
  0
LINE
  8
0-2
  6
CONTINUOUS
 62
    3
 10
1200.4443
 20
1137.1154
 11
1201.253
 21
1137.2342
  0
LINE
  8
0-2
  6
CONTINUOUS
 62
    3
 10
1201.253
 20
1137.2342
 11
1202.028
 21
1137.3006
  0
LINE
  8
0-2
  6
CONTINUOUS
 62
    3
 10
1208.6247
 20
1128.1883
 11
1208.5976
 21
1129.2468
  0
LINE
  8
0-2
  6
CONTINUOUS
 62
    3
 10
1208.5976
 20
1129.2468
 11
1208.514
 21
1130.2263
  0
LINE
  8
0-2
  6
CONTINUOUS
 62
    3
 10
1208.514
 20
1130.2263
 11
1208.3719
 21
1131.1283
  0
LINE
  8
0-2
  6
CONTINUOUS
 62
    3
 10
1208.3719
 20
1131.1283
 11
1208.1674
 21
1131.9593
  0
LINE
  8
0-2
  6
CONTINUOUS
 62
    3
 10
1208.1674
 20
1131.9593
 11
1207.8983
 21
1132.7224
  0
LINE
  8
0-2
  6
CONTINUOUS
 62
    3
 10
1207.8983
 20
1132.7224
 11
1207.5605
 21
1133.4235
  0
LINE
  8
0-2
  6
CONTINUOUS
 62
    3
 10
1207.5605
 20
1133.4235
 11
1207.1511
 21
1134.065
  0
LINE
  8
0-2
  6
CONTINUOUS
 62
    3
 10
1207.1511
 20
1134.065
 11
1206.6679
 21
1134.6544
  0
LINE
  8
0-2
  6
CONTINUOUS
 62
    3
 10
1206.6679
 20
1134.6544
 11
1206.1067
 21
1135.1928
  0
LINE
  8
0-2
  6
CONTINUOUS
 62
    3
 10
1206.1067
 20
1135.1928
 11
1205.465
 21
1135.6872
  0
LINE
  8
0-2
  6
CONTINUOUS
 62
    3
 10
1205.465
 20
1135.6872
 11
1204.739
 21
1136.1405
  0
LINE
  8
0-2
  6
CONTINUOUS
 62
    3
 10
1204.739
 20
1136.1405
 11
1203.9269
 21
1136.5578
  0
LINE
  8
0-2
  6
CONTINUOUS
 62
    3
 10
1203.9269
 20
1136.5578
 11
1203.0238
 21
1136.9429
  0
LINE
  8
0-2
  6
CONTINUOUS
 62
    3
 10
1203.0238
 20
1136.9429
 11
1202.028
 21
1137.3006
  0
LINE
  8
0-2
  6
CONTINUOUS
 62
    3
 10
1263.5633
 20
1128.1883
 11
1263.0931
 21
1129.4319
  0
LINE
  8
0-2
  6
CONTINUOUS
 62
    3
 10
1263.0931
 20
1129.4319
 11
1262.6032
 21
1130.5604
  0
LINE
  8
0-2
  6
CONTINUOUS
 62
    3
 10
1262.6032
 20
1130.5604
 11
1262.095
 21
1131.5777
  0
LINE
  8
0-2
  6
CONTINUOUS
 62
    3
 10
1262.095
 20
1131.5777
 11
1261.5676
 21
1132.4919
  0
LINE
  8
0-2
  6
CONTINUOUS
 62
    3
 10
1261.5676
 20
1132.4919
 11
1261.022
 21
1133.3063
  0
LINE
  8
0-2
  6
CONTINUOUS
 62
    3
 10
1261.022
 20
1133.3063
 11
1260.459
 21
1134.0277
  0
LINE
  8
0-2
  6
CONTINUOUS
 62
    3
 10
1260.459
 20
1134.0277
 11
1259.8796
 21
1134.6618
  0
LINE
  8
0-2
  6
CONTINUOUS
 62
    3
 10
1259.8796
 20
1134.6618
 11
1259.2828
 21
1135.2132
  0
LINE
  8
0-2
  6
CONTINUOUS
 62
    3
 10
1259.2828
 20
1135.2132
 11
1258.6703
 21
1135.6882
  0
LINE
  8
0-2
  6
CONTINUOUS
 62
    3
 10
1258.6703
 20
1135.6882
 11
1258.042
 21
1136.0916
  0
LINE
  8
0-2
  6
CONTINUOUS
 62
    3
 10
1258.042
 20
1136.0916
 11
1257.398
 21
1136.4291
  0
LINE
  8
0-2
  6
CONTINUOUS
 62
    3
 10
1257.398
 20
1136.4291
 11
1256.7403
 21
1136.7076
  0
LINE
  8
0-2
  6
CONTINUOUS
 62
    3
 10
1256.7403
 20
1136.7076
 11
1256.0678
 21
1136.9308
  0
LINE
  8
0-2
  6
CONTINUOUS
 62
    3
 10
1256.0678
 20
1136.9308
 11
1255.3819
 21
1137.105
  0
LINE
  8
0-2
  6
CONTINUOUS
 62
    3
 10
1253.8735
 20
1137.105
 11
1253.1579
 21
1136.9561
  0
LINE
  8
0-2
  6
CONTINUOUS
 62
    3
 10
1253.1579
 20
1136.9561
 11
1252.4482
 21
1136.7194
  0
LINE
  8
0-2
  6
CONTINUOUS
 62
    3
 10
1252.4482
 20
1136.7194
 11
1251.7445
 21
1136.3939
  0
LINE
  8
0-2
  6
CONTINUOUS
 62
    3
 10
1251.7445
 20
1136.3939
 11
1251.0467
 21
1135.9811
  0
LINE
  8
0-2
  6
CONTINUOUS
 62
    3
 10
1251.0467
 20
1135.9811
 11
1250.3545
 21
1135.4813
  0
LINE
  8
0-2
  6
CONTINUOUS
 62
    3
 10
1250.3545
 20
1135.4813
 11
1249.6682
 21
1134.8925
  0
LINE
  8
0-2
  6
CONTINUOUS
 62
    3
 10
1249.6682
 20
1134.8925
 11
1248.9875
 21
1134.2155
  0
LINE
  8
0-2
  6
CONTINUOUS
 62
    3
 10
1248.9875
 20
1134.2155
 11
1248.3128
 21
1133.4503
  0
LINE
  8
0-2
  6
CONTINUOUS
 62
    3
 10
1248.3128
 20
1133.4503
 11
1247.6439
 21
1132.5983
  0
LINE
  8
0-2
  6
CONTINUOUS
 62
    3
 10
1313.8499
 20
1128.1883
 11
1313.7133
 21
1129.1366
  0
LINE
  8
0-2
  6
CONTINUOUS
 62
    3
 10
1313.7133
 20
1129.1366
 11
1313.5203
 21
1130.0183
  0
LINE
  8
0-2
  6
CONTINUOUS
 62
    3
 10
1313.5203
 20
1130.0183
 11
1313.275
 21
1130.8388
  0
LINE
  8
0-2
  6
CONTINUOUS
 62
    3
 10
1313.275
 20
1130.8388
 11
1312.981
 21
1131.5975
  0
LINE
  8
0-2
  6
CONTINUOUS
 62
    3
 10
1312.981
 20
1131.5975
 11
1312.644
 21
1132.2997
  0
LINE
  8
0-2
  6
CONTINUOUS
 62
    3
 10
1312.644
 20
1132.2997
 11
1312.2666
 21
1132.9465
  0
LINE
  8
0-2
  6
CONTINUOUS
 62
    3
 10
1312.2666
 20
1132.9465
 11
1311.8531
 21
1133.5404
  0
LINE
  8
0-2
  6
CONTINUOUS
 62
    3
 10
1311.8531
 20
1133.5404
 11
1311.4077
 21
1134.0833
  0
LINE
  8
0-2
  6
CONTINUOUS
 62
    3
 10
1311.4077
 20
1134.0833
 11
1310.9326
 21
1134.5767
  0
LINE
  8
0-2
  6
CONTINUOUS
 62
    3
 10
1310.9326
 20
1134.5767
 11
1310.4319
 21
1135.0226
  0
LINE
  8
0-2
  6
CONTINUOUS
 62
    3
 10
1310.4319
 20
1135.0226
 11
1309.9082
 21
1135.4224
  0
LINE
  8
0-2
  6
CONTINUOUS
 62
    3
 10
1309.9082
 20
1135.4224
 11
1309.3633
 21
1135.7792
  0
LINE
  8
0-2
  6
CONTINUOUS
 62
    3
 10
1309.3633
 20
1135.7792
 11
1308.8018
 21
1136.091
  0
LINE
  8
0-2
  6
CONTINUOUS
 62
    3
 10
1308.8018
 20
1136.091
 11
1308.2231
 21
1136.3612
  0
LINE
  8
0-2
  6
CONTINUOUS
 62
    3
 10
1308.2231
 20
1136.3612
 11
1307.6319
 21
1136.5898
  0
LINE
  8
0-2
  6
CONTINUOUS
 62
    3
 10
1307.6319
 20
1136.5898
 11
1307.028
 21
1136.7784
  0
LINE
  8
0-2
  6
CONTINUOUS
 62
    3
 10
1307.028
 20
1136.7784
 11
1306.4134
 21
1136.9269
  0
LINE
  8
0-2
  6
CONTINUOUS
 62
    3
 10
1306.4134
 20
1136.9269
 11
1305.7906
 21
1137.0352
  0
LINE
  8
0-2
  6
CONTINUOUS
 62
    3
 10
1305.7906
 20
1137.0352
 11
1305.1588
 21
1137.105
  0
LINE
  8
0-2
  6
CONTINUOUS
 62
    3
 10
1304.9996
 20
1137.0976
 11
1304.6437
 21
1137.0585
  0
LINE
  8
0-2
  6
CONTINUOUS
 62
    3
 10
1304.6437
 20
1137.0585
 11
1304.2948
 21
1137.0026
  0
LINE
  8
0-2
  6
CONTINUOUS
 62
    3
 10
1304.2948
 20
1137.0026
 11
1303.9511
 21
1136.9313
  0
LINE
  8
0-2
  6
CONTINUOUS
 62
    3
 10
1303.9511
 20
1136.9313
 11
1303.6145
 21
1136.8422
  0
LINE
  8
0-2
  6
CONTINUOUS
 62
    3
 10
1303.6145
 20
1136.8422
 11
1303.283
 21
1136.7363
  0
LINE
  8
0-2
  6
CONTINUOUS
 62
    3
 10
1303.283
 20
1136.7363
 11
1302.9582
 21
1136.6136
  0
LINE
  8
0-2
  6
CONTINUOUS
 62
    3
 10
1302.9582
 20
1136.6136
 11
1302.6394
 21
1136.474
  0
LINE
  8
0-2
  6
CONTINUOUS
 62
    3
 10
1302.6394
 20
1136.474
 11
1302.3273
 21
1136.3177
  0
LINE
  8
0-2
  6
CONTINUOUS
 62
    3
 10
1302.3273
 20
1136.3177
 11
1302.0203
 21
1136.1444
  0
LINE
  8
0-2
  6
CONTINUOUS
 62
    3
 10
1448.6871
 20
1128.1883
 11
1448.5653
 21
1129.1855
  0
LINE
  8
0-2
  6
CONTINUOUS
 62
    3
 10
1448.5653
 20
1129.1855
 11
1448.4365
 21
1130.0971
  0
LINE
  8
0-2
  6
CONTINUOUS
 62
    3
 10
1448.4365
 20
1130.0971
 11
1448.3003
 21
1130.9215
  0
LINE
  8
0-2
  6
CONTINUOUS
 62
    3
 10
1448.3003
 20
1130.9215
 11
1448.1578
 21
1131.6608
  0
LINE
  8
0-2
  6
CONTINUOUS
 62
    3
 10
1448.1578
 20
1131.6608
 11
1448.0078
 21
1132.3141
  0
LINE
  8
0-2
  6
CONTINUOUS
 62
    3
 10
1448.0078
 20
1132.3141
 11
1447.8505
 21
1132.8812
  0
LINE
  8
0-2
  6
CONTINUOUS
 62
    3
 10
1447.8505
 20
1132.8812
 11
1447.6868
 21
1133.3622
  0
LINE
  8
0-2
  6
CONTINUOUS
 62
    3
 10
1447.6868
 20
1133.3622
 11
1447.5149
 21
1133.7572
  0
LINE
  8
0-2
  6
CONTINUOUS
 62
    3
 10
1447.5149
 20
1133.7572
 11
1447.3368
 21
1134.065
  0
LINE
  8
0-2
  6
CONTINUOUS
 62
    3
 10
1426.5515
 20
1128.1883
 11
1426.4835
 21
1128.9786
  0
LINE
  8
0-2
  6
CONTINUOUS
 62
    3
 10
1426.4835
 20
1128.9786
 11
1426.3722
 21
1129.7249
  0
LINE
  8
0-2
  6
CONTINUOUS
 62
    3
 10
1426.3722
 20
1129.7249
 11
1426.2226
 21
1130.4286
  0
LINE
  8
0-2
  6
CONTINUOUS
 62
    3
 10
1426.2226
 20
1130.4286
 11
1426.037
 21
1131.0893
  0
LINE
  8
0-2
  6
CONTINUOUS
 62
    3
 10
1426.037
 20
1131.0893
 11
1425.821
 21
1131.706
  0
LINE
  8
0-2
  6
CONTINUOUS
 62
    3
 10
1425.821
 20
1131.706
 11
1425.5787
 21
1132.2784
  0
LINE
  8
0-2
  6
CONTINUOUS
 62
    3
 10
1425.5787
 20
1132.2784
 11
1425.3137
 21
1132.8081
  0
LINE
  8
0-2
  6
CONTINUOUS
 62
    3
 10
1425.3137
 20
1132.8081
 11
1425.0316
 21
1133.2921
  0
LINE
  8
0-2
  6
CONTINUOUS
 62
    3
 10
1425.0316
 20
1133.2921
 11
1424.7361
 21
1133.7334
  0
LINE
  8
0-2
  6
CONTINUOUS
 62
    3
 10
1424.7361
 20
1133.7334
 11
1424.4318
 21
1134.1288
  0
LINE
  8
0-2
  6
CONTINUOUS
 62
    3
 10
1424.4318
 20
1134.1288
 11
1424.123
 21
1134.4802
  0
LINE
  8
0-2
  6
CONTINUOUS
 62
    3
 10
1424.123
 20
1134.4802
 11
1423.8127
 21
1134.7856
  0
LINE
  8
0-2
  6
CONTINUOUS
 62
    3
 10
1423.8127
 20
1134.7856
 11
1423.5068
 21
1135.0463
  0
LINE
  8
0-2
  6
CONTINUOUS
 62
    3
 10
1423.5068
 20
1135.0463
 11
1423.2095
 21
1135.2611
  0
LINE
  8
0-2
  6
CONTINUOUS
 62
    3
 10
1396.2348
 20
1128.1883
 11
1396.0343
 21
1129.0677
  0
LINE
  8
0-2
  6
CONTINUOUS
 62
    3
 10
1396.0343
 20
1129.0677
 11
1395.7894
 21
1129.8902
  0
LINE
  8
0-2
  6
CONTINUOUS
 62
    3
 10
1395.7894
 20
1129.8902
 11
1395.5028
 21
1130.6578
  0
LINE
  8
0-2
  6
CONTINUOUS
 62
    3
 10
1395.5028
 20
1130.6578
 11
1395.1755
 21
1131.3699
  0
LINE
  8
0-2
  6
CONTINUOUS
 62
    3
 10
1395.1755
 20
1131.3699
 11
1394.8103
 21
1132.028
  0
LINE
  8
0-2
  6
CONTINUOUS
 62
    3
 10
1394.8103
 20
1132.028
 11
1394.409
 21
1132.6318
  0
LINE
  8
0-2
  6
CONTINUOUS
 62
    3
 10
1394.409
 20
1132.6318
 11
1393.9726
 21
1133.1816
  0
LINE
  8
0-2
  6
CONTINUOUS
 62
    3
 10
1393.9726
 20
1133.1816
 11
1393.5023
 21
1133.6775
  0
LINE
  8
0-2
  6
CONTINUOUS
 62
    3
 10
1393.5023
 20
1133.6775
 11
1393.0012
 21
1134.1214
  0
LINE
  8
0-2
  6
CONTINUOUS
 62
    3
 10
1393.0012
 20
1134.1214
 11
1392.4701
 21
1134.5128
  0
LINE
  8
0-2
  6
CONTINUOUS
 62
    3
 10
1392.4701
 20
1134.5128
 11
1391.9115
 21
1134.8513
  0
LINE
  8
0-2
  6
CONTINUOUS
 62
    3
 10
1391.9115
 20
1134.8513
 11
1391.3266
 21
1135.1384
  0
LINE
  8
0-2
  6
CONTINUOUS
 62
    3
 10
1391.3266
 20
1135.1384
 11
1390.7171
 21
1135.3744
  0
LINE
  8
0-2
  6
CONTINUOUS
 62
    3
 10
1390.7171
 20
1135.3744
 11
1390.0854
 21
1135.5607
  0
LINE
  8
0-2
  6
CONTINUOUS
 62
    3
 10
1358.4121
 20
1128.1883
 11
1358.1081
 21
1129.1102
  0
LINE
  8
0-2
  6
CONTINUOUS
 62
    3
 10
1358.1081
 20
1129.1102
 11
1357.7518
 21
1129.9624
  0
LINE
  8
0-2
  6
CONTINUOUS
 62
    3
 10
1357.7518
 20
1129.9624
 11
1357.348
 21
1130.7493
  0
LINE
  8
0-2
  6
CONTINUOUS
 62
    3
 10
1357.348
 20
1130.7493
 11
1356.9007
 21
1131.4678
  0
LINE
  8
0-2
  6
CONTINUOUS
 62
    3
 10
1356.9007
 20
1131.4678
 11
1356.4142
 21
1132.1196
  0
LINE
  8
0-2
  6
CONTINUOUS
 62
    3
 10
1356.4142
 20
1132.1196
 11
1355.893
 21
1132.7031
  0
LINE
  8
0-2
  6
CONTINUOUS
 62
    3
 10
1355.893
 20
1132.7031
 11
1355.3422
 21
1133.2193
  0
LINE
  8
0-2
  6
CONTINUOUS
 62
    3
 10
1355.3422
 20
1133.2193
 11
1354.7662
 21
1133.6691
  0
LINE
  8
0-2
  6
CONTINUOUS
 62
    3
 10
1354.7662
 20
1133.6691
 11
1354.1694
 21
1134.0531
  0
LINE
  8
0-2
  6
CONTINUOUS
 62
    3
 10
1354.1694
 20
1134.0531
 11
1353.5577
 21
1134.3729
  0
LINE
  8
0-2
  6
CONTINUOUS
 62
    3
 10
1353.5577
 20
1134.3729
 11
1352.9356
 21
1134.6301
  0
LINE
  8
0-2
  6
CONTINUOUS
 62
    3
 10
1352.9356
 20
1134.6301
 11
1352.308
 21
1134.8266
  0
LINE
  8
0-2
  6
CONTINUOUS
 62
    3
 10
1352.308
 20
1134.8266
 11
1351.6811
 21
1134.9616
  0
LINE
  8
0-2
  6
CONTINUOUS
 62
    3
 10
1351.6811
 20
1134.9616
 11
1351.0594
 21
1135.0404
  0
LINE
  8
0-2
  6
CONTINUOUS
 62
    3
 10
1351.0594
 20
1135.0404
 11
1350.4492
 21
1135.0641
  0
LINE
  8
0-2
  6
CONTINUOUS
 62
    3
 10
1350.4492
 20
1135.0641
 11
1349.8565
 21
1135.0349
  0
LINE
  8
0-2
  6
CONTINUOUS
 62
    3
 10
1349.8565
 20
1135.0349
 11
1349.286
 21
1134.9567
  0
LINE
  8
0-2
  6
CONTINUOUS
 62
    3
 10
1349.286
 20
1134.9567
 11
1348.7441
 21
1134.8315
  0
LINE
  8
0-2
  6
CONTINUOUS
 62
    3
 10
1348.7441
 20
1134.8315
 11
1348.2368
 21
1134.6628
  0
LINE
  8
0-2
  6
CONTINUOUS
 62
    3
 10
1448.6871
 20
1128.1883
 11
1458.6483
 21
1128.1883
  0
LINE
  8
0-2
  6
CONTINUOUS
 62
    3
 10
1546.2575
 20
1237.8375
 11
1448.6871
 21
1128.1883
  0
LINE
  8
0-2
  6
CONTINUOUS
 62
    3
 10
1442.2508
 20
1128.1883
 11
1538.2513
 21
1237.8375
  0
LINE
  8
0-2
  6
CONTINUOUS
 62
    3
 10
1518.7227
 20
1237.8375
 11
1426.5515
 21
1128.1883
  0
LINE
  8
0-2
  6
CONTINUOUS
 62
    3
 10
1426.5515
 20
1128.1883
 11
1442.2508
 21
1128.1883
  0
LINE
  8
0-2
  6
CONTINUOUS
 62
    3
 10
1417.3259
 20
1128.1883
 11
1507.2475
 21
1237.8375
  0
LINE
  8
0-2
  6
CONTINUOUS
 62
    3
 10
1396.2348
 20
1128.1883
 11
1417.3259
 21
1128.1883
  0
LINE
  8
0-2
  6
CONTINUOUS
 62
    3
 10
1481.0125
 20
1237.8375
 11
1396.2348
 21
1128.1883
  0
LINE
  8
0-2
  6
CONTINUOUS
 62
    3
 10
1384.4204
 20
1128.1883
 11
1466.3164
 21
1237.8375
  0
LINE
  8
0-2
  6
CONTINUOUS
 62
    3
 10
1358.395
 20
1128.1883
 11
1384.4204
 21
1128.1883
  0
LINE
  8
0-2
  6
CONTINUOUS
 62
    3
 10
1433.9431
 20
1237.8375
 11
1358.395
 21
1128.1883
  0
LINE
  8
0-2
  6
CONTINUOUS
 62
    3
 10
1344.2464
 20
1128.1883
 11
1416.3435
 21
1237.8375
  0
LINE
  8
0-2
  6
CONTINUOUS
 62
    3
 10
1313.8499
 20
1128.1883
 11
1344.2464
 21
1128.1883
  0
LINE
  8
0-2
  6
CONTINUOUS
 62
    3
 10
1378.5327
 20
1237.8375
 11
1313.8499
 21
1128.1883
  0
LINE
  8
0-2
  6
CONTINUOUS
 62
    3
 10
1297.674
 20
1128.1883
 11
1358.4121
 21
1237.8375
  0
LINE
  8
0-2
  6
CONTINUOUS
 62
    3
 10
1263.5633
 20
1128.1883
 11
1297.674
 21
1128.1883
  0
LINE
  8
0-2
  6
CONTINUOUS
 62
    3
 10
1245.7106
 20
1128.1883
 11
1293.7746
 21
1237.8375
  0
LINE
  8
0-2
  6
CONTINUOUS
 62
    3
 10
1208.6247
 20
1128.1883
 11
1245.7106
 21
1128.1883
  0
LINE
  8
0-2
  6
CONTINUOUS
 62
    3
 10
1247.6439
 20
1237.8375
 11
1208.6247
 21
1128.1883
  0
LINE
  8
0-2
  6
CONTINUOUS
 62
    3
 10
1223.8314
 20
1237.8375
 11
1189.4813
 21
1128.1883
  0
LINE
  8
0-2
  6
CONTINUOUS
 62
    3
 10
1150.2234
 20
1128.1883
 11
1189.4813
 21
1128.1883
  0
LINE
  8
0-2
  6
CONTINUOUS
 62
    3
 10
1150.2234
 20
1128.1883
 11
1174.9983
 21
1237.8375
  0
LINE
  8
0-2
  6
CONTINUOUS
 62
    3
 10
1150.0954
 20
1237.8375
 11
1130.2038
 21
1128.1883
  0
LINE
  8
0-2
  6
CONTINUOUS
 62
    3
 10
1089.623
 20
1128.1883
 11
1130.2038
 21
1128.1883
  0
LINE
  8
0-2
  6
CONTINUOUS
 62
    3
 10
1089.623
 20
1128.1883
 11
1099.6173
 21
1237.8375
  0
LINE
  8
0-2
  6
CONTINUOUS
 62
    3
 10
1069.1603
 20
1128.1883
 11
1074.1635
 21
1237.8375
  0
LINE
  8
0-2
  6
CONTINUOUS
 62
    3
 10
1048.6485
 20
1128.1883
 11
1069.1603
 21
1128.1883
  0
LINE
  8
0-2
  6
CONTINUOUS
 62
    3
 10
1315.9815
 20
1237.8375
 11
1263.5633
 21
1128.1883
  0
LINE
  8
0-2
  6
CONTINUOUS
 62
    3
 10
1254.7134
 20
1128.1883
 11
1254.7134
 21
951.55549
  0
LINE
  8
0-2
  6
CONTINUOUS
 62
    3
 10
1255.3819
 20
1988.569
 11
1255.1989
 21
1988.5556
  0
LINE
  8
0-2
  6
CONTINUOUS
 62
    3
 10
1255.1989
 20
1988.5556
 11
1255.0196
 21
1988.5452
  0
LINE
  8
0-2
  6
CONTINUOUS
 62
    3
 10
1255.0196
 20
1988.5452
 11
1254.8444
 21
1988.5378
  0
LINE
  8
0-2
  6
CONTINUOUS
 62
    3
 10
1254.8444
 20
1988.5378
 11
1254.673
 21
1988.5341
  0
LINE
  8
0-2
  6
CONTINUOUS
 62
    3
 10
1254.673
 20
1988.5341
 11
1254.5056
 21
1988.5341
  0
LINE
  8
0-2
  6
CONTINUOUS
 62
    3
 10
1254.5056
 20
1988.5341
 11
1254.3423
 21
1988.5378
  0
LINE
  8
0-2
  6
CONTINUOUS
 62
    3
 10
1254.3423
 20
1988.5378
 11
1254.1815
 21
1988.5452
  0
LINE
  8
0-2
  6
CONTINUOUS
 62
    3
 10
1254.1815
 20
1988.5452
 11
1254.026
 21
1988.5556
  0
LINE
  8
0-2
  6
CONTINUOUS
 62
    3
 10
1254.026
 20
1988.5556
 11
1253.8735
 21
1988.569
  0
LINE
  8
0-2
  6
CONTINUOUS
 62
    3
 10
1142.0163
 20
1988.3752
 11
1141.5264
 21
1988.3418
  0
LINE
  8
0-2
  6
CONTINUOUS
 62
    3
 10
1141.5264
 20
1988.3418
 11
1141.0342
 21
1988.3188
  0
LINE
  8
0-2
  6
CONTINUOUS
 62
    3
 10
1141.0342
 20
1988.3188
 11
1140.5376
 21
1988.3047
  0
LINE
  8
0-2
  6
CONTINUOUS
 62
    3
 10
1140.5376
 20
1988.3047
 11
1140.0388
 21
1988.3018
  0
LINE
  8
0-2
  6
CONTINUOUS
 62
    3
 10
1140.0388
 20
1988.3018
 11
1139.5362
 21
1988.307
  0
LINE
  8
0-2
  6
CONTINUOUS
 62
    3
 10
1139.5362
 20
1988.307
 11
1139.0307
 21
1988.3211
  0
LINE
  8
0-2
  6
CONTINUOUS
 62
    3
 10
1139.0307
 20
1988.3211
 11
1138.5226
 21
1988.3463
  0
LINE
  8
0-2
  6
CONTINUOUS
 62
    3
 10
1138.5226
 20
1988.3463
 11
1138.0108
 21
1988.379
  0
LINE
  8
0-2
  6
CONTINUOUS
 62
    3
 10
1138.0108
 20
1988.379
 11
1137.4956
 21
1988.4235
  0
LINE
  8
0-2
  6
CONTINUOUS
 62
    3
 10
1142.0163
 20
1137.3006
 11
1141.5264
 21
1137.3332
  0
LINE
  8
0-2
  6
CONTINUOUS
 62
    3
 10
1141.5264
 20
1137.3332
 11
1141.0342
 21
1137.3559
  0
LINE
  8
0-2
  6
CONTINUOUS
 62
    3
 10
1141.0342
 20
1137.3559
 11
1140.5376
 21
1137.3698
  0
LINE
  8
0-2
  6
CONTINUOUS
 62
    3
 10
1140.5376
 20
1137.3698
 11
1140.0388
 21
1137.3737
  0
LINE
  8
0-2
  6
CONTINUOUS
 62
    3
 10
1140.0388
 20
1137.3737
 11
1139.5362
 21
1137.3684
  0
LINE
  8
0-2
  6
CONTINUOUS
 62
    3
 10
1139.5362
 20
1137.3684
 11
1139.0307
 21
1137.3539
  0
LINE
  8
0-2
  6
CONTINUOUS
 62
    3
 10
1139.0307
 20
1137.3539
 11
1138.5226
 21
1137.3292
  0
LINE
  8
0-2
  6
CONTINUOUS
 62
    3
 10
1138.5226
 20
1137.3292
 11
1138.0108
 21
1137.295
  0
LINE
  8
0-2
  6
CONTINUOUS
 62
    3
 10
1138.0108
 20
1137.295
 11
1137.4956
 21
1137.2515
  0
LINE
  8
0-2
  6
CONTINUOUS
 62
    3
 10
1255.3819
 20
1137.105
 11
1255.1989
 21
1137.1195
  0
LINE
  8
0-2
  6
CONTINUOUS
 62
    3
 10
1255.1989
 20
1137.1195
 11
1255.0196
 21
1137.1303
  0
LINE
  8
0-2
  6
CONTINUOUS
 62
    3
 10
1255.0196
 20
1137.1303
 11
1254.8444
 21
1137.1373
  0
LINE
  8
0-2
  6
CONTINUOUS
 62
    3
 10
1254.8444
 20
1137.1373
 11
1254.673
 21
1137.1406
  0
LINE
  8
0-2
  6
CONTINUOUS
 62
    3
 10
1254.673
 20
1137.1406
 11
1254.5056
 21
1137.1406
  0
LINE
  8
0-2
  6
CONTINUOUS
 62
    3
 10
1254.5056
 20
1137.1406
 11
1254.3423
 21
1137.1373
  0
LINE
  8
0-2
  6
CONTINUOUS
 62
    3
 10
1254.3423
 20
1137.1373
 11
1254.1815
 21
1137.1303
  0
LINE
  8
0-2
  6
CONTINUOUS
 62
    3
 10
1254.1815
 20
1137.1303
 11
1254.026
 21
1137.1195
  0
LINE
  8
0-2
  6
CONTINUOUS
 62
    3
 10
1254.026
 20
1137.1195
 11
1253.8735
 21
1137.105
  0
LINE
  8
0-2
  6
CONTINUOUS
 62
    3
 10
1558.6483
 20
1259.7664
 11
1048.6485
 21
1259.7664
  0
LINE
  8
0-2
  6
CONTINUOUS
 62
    3
 10
1558.6487
 20
1237.8375
 11
1048.6485
 21
1237.8375
  0
LINE
  8
0-2
  6
CONTINUOUS
 62
    3
 10
1558.6472
 20
1350.9081
 11
1048.6485
 21
1350.9081
  0
LINE
  8
0-2
  6
CONTINUOUS
 62
    3
 10
1558.6483
 20
1237.8375
 11
1048.6485
 21
1237.8375
  0
LINE
  8
0-2
  6
CONTINUOUS
 62
    3
 10
1558.6487
 20
1774.7665
 11
1048.6485
 21
1774.7665
  0
LINE
  8
0-2
  6
CONTINUOUS
 62
    3
 10
1558.6487
 20
1752.8376
 11
1048.6485
 21
1752.8376
  0
LINE
  8
0-2
  6
CONTINUOUS
 62
    3
 10
1558.6472
 20
1372.8377
 11
1048.6485
 21
1372.8377
  0
LINE
  8
0-2
  6
CONTINUOUS
 62
    3
 10
1356.1484
 20
1128.1883
 11
1356.1484
 21
951.55549
  0
LINE
  8
0-2
  6
CONTINUOUS
 62
    3
 10
1294.7129
 20
1128.1883
 11
1294.7129
 21
951.55549
  0
LINE
  8
0-2
  6
CONTINUOUS
 62
    3
 10
1481.0125
 20
1372.8377
 11
1416.3435
 21
1399.418
  0
LINE
  8
0-2
  6
CONTINUOUS
 62
    3
 10
1247.6439
 20
1372.8377
 11
1150.0954
 21
1399.418
  0
LINE
  8
0-2
  6
CONTINUOUS
 62
    3
 10
1099.6171
 20
1372.837
 11
997.67976
 21
1399.418
  0
LINE
  8
0-2
  6
CONTINUOUS
 62
    3
 10
1378.5327
 20
1372.8377
 11
1361.4233
 21
1378.2031
  0
LINE
  8
0-2
  6
CONTINUOUS
 62
    3
 10
1341.4226
 20
1384.4756
 11
1293.7746
 21
1399.418
  0
LINE
  8
0-8
  6
CENTER2
 62
    7
 10
1048.6485
 20
2137.8376
 11
1048.6485
 21
887.83924
  0
LINE
  8
0-2
  6
CONTINUOUS
 62
    3
 10
538.64985
 20
1372.8373
 11
536.91365
 21
1372.6707
  0
LINE
  8
0-2
  6
CONTINUOUS
 62
    3
 10
536.91365
 20
1372.6707
 11
535.23019
 21
1372.1761
  0
LINE
  8
0-2
  6
CONTINUOUS
 62
    3
 10
535.23019
 20
1372.1761
 11
533.65064
 21
1371.3684
  0
LINE
  8
0-2
  6
CONTINUOUS
 62
    3
 10
533.65064
 20
1371.3684
 11
532.22299
 21
1370.2721
  0
LINE
  8
0-2
  6
CONTINUOUS
 62
    3
 10
532.22299
 20
1370.2721
 11
530.99061
 21
1368.9207
  0
LINE
  8
0-2
  6
CONTINUOUS
 62
    3
 10
530.99061
 20
1368.9207
 11
529.99096
 21
1367.3551
  0
LINE
  8
0-2
  6
CONTINUOUS
 62
    3
 10
529.99096
 20
1367.3551
 11
529.2544
 21
1365.623
  0
LINE
  8
0-2
  6
CONTINUOUS
 62
    3
 10
529.2544
 20
1365.623
 11
528.80332
 21
1363.7769
  0
LINE
  8
0-2
  6
CONTINUOUS
 62
    3
 10
528.80332
 20
1363.7769
 11
528.65143
 21
1361.8729
  0
LINE
  8
0-2
  6
CONTINUOUS
 62
    3
 10
528.65143
 20
1361.8729
 11
528.80332
 21
1359.969
  0
LINE
  8
0-2
  6
CONTINUOUS
 62
    3
 10
528.80332
 20
1359.969
 11
529.2544
 21
1358.1229
  0
LINE
  8
0-2
  6
CONTINUOUS
 62
    3
 10
529.2544
 20
1358.1229
 11
529.99096
 21
1356.3907
  0
LINE
  8
0-2
  6
CONTINUOUS
 62
    3
 10
529.99096
 20
1356.3907
 11
530.99061
 21
1354.8251
  0
LINE
  8
0-2
  6
CONTINUOUS
 62
    3
 10
530.99061
 20
1354.8251
 11
532.22299
 21
1353.4737
  0
LINE
  8
0-2
  6
CONTINUOUS
 62
    3
 10
532.22299
 20
1353.4737
 11
533.65064
 21
1352.3775
  0
LINE
  8
0-2
  6
CONTINUOUS
 62
    3
 10
533.65064
 20
1352.3775
 11
535.23019
 21
1351.5698
  0
LINE
  8
0-2
  6
CONTINUOUS
 62
    3
 10
535.23019
 20
1351.5698
 11
536.91365
 21
1351.0751
  0
LINE
  8
0-2
  6
CONTINUOUS
 62
    3
 10
536.91365
 20
1351.0751
 11
538.64985
 21
1350.9085
  0
LINE
  8
0-2
  6
CONTINUOUS
 62
    3
 10
538.64868
 20
1259.7661
 11
536.91247
 21
1259.5995
  0
LINE
  8
0-2
  6
CONTINUOUS
 62
    3
 10
536.91247
 20
1259.5995
 11
535.22902
 21
1259.1049
  0
LINE
  8
0-2
  6
CONTINUOUS
 62
    3
 10
535.22902
 20
1259.1049
 11
533.64946
 21
1258.2971
  0
LINE
  8
0-2
  6
CONTINUOUS
 62
    3
 10
533.64946
 20
1258.2971
 11
532.22181
 21
1257.2009
  0
LINE
  8
0-2
  6
CONTINUOUS
 62
    3
 10
532.22181
 20
1257.2009
 11
530.98944
 21
1255.8495
  0
LINE
  8
0-2
  6
CONTINUOUS
 62
    3
 10
530.98944
 20
1255.8495
 11
529.98979
 21
1254.2839
  0
LINE
  8
0-2
  6
CONTINUOUS
 62
    3
 10
529.98979
 20
1254.2839
 11
529.25323
 21
1252.5517
  0
LINE
  8
0-2
  6
CONTINUOUS
 62
    3
 10
529.25323
 20
1252.5517
 11
528.80215
 21
1250.7057
  0
LINE
  8
0-2
  6
CONTINUOUS
 62
    3
 10
528.80215
 20
1250.7057
 11
528.65025
 21
1248.8017
  0
LINE
  8
0-2
  6
CONTINUOUS
 62
    3
 10
528.65025
 20
1248.8017
 11
528.80215
 21
1246.8978
  0
LINE
  8
0-2
  6
CONTINUOUS
 62
    3
 10
528.80215
 20
1246.8978
 11
529.25323
 21
1245.0517
  0
LINE
  8
0-2
  6
CONTINUOUS
 62
    3
 10
529.25323
 20
1245.0517
 11
529.98979
 21
1243.3195
  0
LINE
  8
0-2
  6
CONTINUOUS
 62
    3
 10
529.98979
 20
1243.3195
 11
530.98944
 21
1241.7539
  0
LINE
  8
0-2
  6
CONTINUOUS
 62
    3
 10
530.98944
 20
1241.7539
 11
532.22181
 21
1240.4025
  0
LINE
  8
0-2
  6
CONTINUOUS
 62
    3
 10
532.22181
 20
1240.4025
 11
533.64946
 21
1239.3063
  0
LINE
  8
0-2
  6
CONTINUOUS
 62
    3
 10
533.64946
 20
1239.3063
 11
535.22902
 21
1238.4985
  0
LINE
  8
0-2
  6
CONTINUOUS
 62
    3
 10
535.22902
 20
1238.4985
 11
536.91247
 21
1238.0039
  0
LINE
  8
0-2
  6
CONTINUOUS
 62
    3
 10
536.91247
 20
1238.0039
 11
538.64868
 21
1237.8373
  0
LINE
  8
0-2
  6
CONTINUOUS
 62
    3
 10
538.64831
 20
1887.8373
 11
536.9121
 21
1887.6707
  0
LINE
  8
0-2
  6
CONTINUOUS
 62
    3
 10
536.9121
 20
1887.6707
 11
535.22864
 21
1887.1761
  0
LINE
  8
0-2
  6
CONTINUOUS
 62
    3
 10
535.22864
 20
1887.1761
 11
533.64909
 21
1886.3684
  0
LINE
  8
0-2
  6
CONTINUOUS
 62
    3
 10
533.64909
 20
1886.3684
 11
532.22144
 21
1885.2721
  0
LINE
  8
0-2
  6
CONTINUOUS
 62
    3
 10
532.22144
 20
1885.2721
 11
530.98907
 21
1883.9207
  0
LINE
  8
0-2
  6
CONTINUOUS
 62
    3
 10
530.98907
 20
1883.9207
 11
529.98941
 21
1882.3551
  0
LINE
  8
0-2
  6
CONTINUOUS
 62
    3
 10
529.98941
 20
1882.3551
 11
529.25286
 21
1880.623
  0
LINE
  8
0-2
  6
CONTINUOUS
 62
    3
 10
529.25286
 20
1880.623
 11
528.80178
 21
1878.7769
  0
LINE
  8
0-2
  6
CONTINUOUS
 62
    3
 10
528.80178
 20
1878.7769
 11
528.64988
 21
1876.8729
  0
LINE
  8
0-2
  6
CONTINUOUS
 62
    3
 10
528.64988
 20
1876.8729
 11
528.80178
 21
1874.969
  0
LINE
  8
0-2
  6
CONTINUOUS
 62
    3
 10
528.80178
 20
1874.969
 11
529.25286
 21
1873.1229
  0
LINE
  8
0-2
  6
CONTINUOUS
 62
    3
 10
529.25286
 20
1873.1229
 11
529.98941
 21
1871.3907
  0
LINE
  8
0-2
  6
CONTINUOUS
 62
    3
 10
529.98941
 20
1871.3907
 11
530.98907
 21
1869.8251
  0
LINE
  8
0-2
  6
CONTINUOUS
 62
    3
 10
530.98907
 20
1869.8251
 11
532.22144
 21
1868.4737
  0
LINE
  8
0-2
  6
CONTINUOUS
 62
    3
 10
532.22144
 20
1868.4737
 11
533.64909
 21
1867.3775
  0
LINE
  8
0-2
  6
CONTINUOUS
 62
    3
 10
533.64909
 20
1867.3775
 11
535.22864
 21
1866.5698
  0
LINE
  8
0-2
  6
CONTINUOUS
 62
    3
 10
535.22864
 20
1866.5698
 11
536.9121
 21
1866.0751
  0
LINE
  8
0-2
  6
CONTINUOUS
 62
    3
 10
536.9121
 20
1866.0751
 11
538.64831
 21
1865.9085
  0
LINE
  8
0-2
  6
CONTINUOUS
 62
    3
 10
538.64831
 20
1774.7661
 11
536.9121
 21
1774.5995
  0
LINE
  8
0-2
  6
CONTINUOUS
 62
    3
 10
536.9121
 20
1774.5995
 11
535.22864
 21
1774.1049
  0
LINE
  8
0-2
  6
CONTINUOUS
 62
    3
 10
535.22864
 20
1774.1049
 11
533.64909
 21
1773.2971
  0
LINE
  8
0-2
  6
CONTINUOUS
 62
    3
 10
533.64909
 20
1773.2971
 11
532.22144
 21
1772.2009
  0
LINE
  8
0-2
  6
CONTINUOUS
 62
    3
 10
532.22144
 20
1772.2009
 11
530.98907
 21
1770.8495
  0
LINE
  8
0-2
  6
CONTINUOUS
 62
    3
 10
530.98907
 20
1770.8495
 11
529.98941
 21
1769.2839
  0
LINE
  8
0-2
  6
CONTINUOUS
 62
    3
 10
529.98941
 20
1769.2839
 11
529.25286
 21
1767.5517
  0
LINE
  8
0-2
  6
CONTINUOUS
 62
    3
 10
529.25286
 20
1767.5517
 11
528.80178
 21
1765.7056
  0
LINE
  8
0-2
  6
CONTINUOUS
 62
    3
 10
528.80178
 20
1765.7056
 11
528.64988
 21
1763.8017
  0
LINE
  8
0-2
  6
CONTINUOUS
 62
    3
 10
528.64988
 20
1763.8017
 11
528.80178
 21
1761.8978
  0
LINE
  8
0-2
  6
CONTINUOUS
 62
    3
 10
528.80178
 20
1761.8978
 11
529.25286
 21
1760.0517
  0
LINE
  8
0-2
  6
CONTINUOUS
 62
    3
 10
529.25286
 20
1760.0517
 11
529.98941
 21
1758.3195
  0
LINE
  8
0-2
  6
CONTINUOUS
 62
    3
 10
529.98941
 20
1758.3195
 11
530.98907
 21
1756.7539
  0
LINE
  8
0-2
  6
CONTINUOUS
 62
    3
 10
530.98907
 20
1756.7539
 11
532.22144
 21
1755.4025
  0
LINE
  8
0-2
  6
CONTINUOUS
 62
    3
 10
532.22144
 20
1755.4025
 11
533.64909
 21
1754.3063
  0
LINE
  8
0-2
  6
CONTINUOUS
 62
    3
 10
533.64909
 20
1754.3063
 11
535.22864
 21
1753.4985
  0
LINE
  8
0-2
  6
CONTINUOUS
 62
    3
 10
535.22864
 20
1753.4985
 11
536.9121
 21
1753.0039
  0
LINE
  8
0-2
  6
CONTINUOUS
 62
    3
 10
536.9121
 20
1753.0039
 11
538.64831
 21
1752.8373
  0
LINE
  8
0-2
  6
CONTINUOUS
 62
    3
 10
1007.6747
 20
1997.4871
 11
1008.1985
 21
1995.5743
  0
LINE
  8
0-2
  6
CONTINUOUS
 62
    3
 10
1008.1985
 20
1995.5743
 11
1009.0173
 21
1993.7904
  0
LINE
  8
0-2
  6
CONTINUOUS
 62
    3
 10
1009.0173
 20
1993.7904
 11
1010.1061
 21
1992.1895
  0
LINE
  8
0-2
  6
CONTINUOUS
 62
    3
 10
1010.1061
 20
1992.1895
 11
1011.4319
 21
1990.8202
  0
LINE
  8
0-2
  6
CONTINUOUS
 62
    3
 10
1011.4319
 20
1990.8202
 11
1012.9543
 21
1989.7242
  0
LINE
  8
0-2
  6
CONTINUOUS
 62
    3
 10
1012.9543
 20
1989.7242
 11
1014.6272
 21
1988.9348
  0
LINE
  8
0-2
  6
CONTINUOUS
 62
    3
 10
1014.6272
 20
1988.9348
 11
1016.3997
 21
1988.4759
  0
LINE
  8
0-2
  6
CONTINUOUS
 62
    3
 10
1016.3997
 20
1988.4759
 11
1018.2179
 21
1988.3615
  0
LINE
  8
0-2
  6
CONTINUOUS
 62
    3
 10
1018.2179
 20
1988.3615
 11
1020.0266
 21
1988.595
  0
LINE
  8
0-2
  6
CONTINUOUS
 62
    3
 10
1020.0266
 20
1988.595
 11
1021.7708
 21
1989.1695
  0
LINE
  8
0-2
  6
CONTINUOUS
 62
    3
 10
1021.7708
 20
1989.1695
 11
1023.3976
 21
1990.0673
  0
LINE
  8
0-2
  6
CONTINUOUS
 62
    3
 10
1023.3976
 20
1990.0673
 11
1024.8574
 21
1991.2613
  0
LINE
  8
0-2
  6
CONTINUOUS
 62
    3
 10
1024.8574
 20
1991.2613
 11
1026.1061
 21
1992.7152
  0
LINE
  8
0-2
  6
CONTINUOUS
 62
    3
 10
1026.1061
 20
1992.7152
 11
1027.1055
 21
1994.3847
  0
LINE
  8
0-2
  6
CONTINUOUS
 62
    3
 10
1027.1055
 20
1994.3847
 11
1027.8254
 21
1996.2192
  0
LINE
  8
0-2
  6
CONTINUOUS
 62
    3
 10
1027.8254
 20
1996.2192
 11
1028.1352
 21
1997.4871
  0
LINE
  8
0-2
  6
CONTINUOUS
 62
    3
 10
751.87318
 20
1784.8554
 11
751.78204
 21
1785.9978
  0
LINE
  8
0-2
  6
CONTINUOUS
 62
    3
 10
751.78204
 20
1785.9978
 11
751.51138
 21
1787.1055
  0
LINE
  8
0-2
  6
CONTINUOUS
 62
    3
 10
751.51138
 20
1787.1055
 11
751.06943
 21
1788.1448
  0
LINE
  8
0-2
  6
CONTINUOUS
 62
    3
 10
751.06943
 20
1788.1448
 11
750.46961
 21
1789.0842
  0
LINE
  8
0-2
  6
CONTINUOUS
 62
    3
 10
750.46961
 20
1789.0842
 11
749.73015
 21
1789.8951
  0
LINE
  8
0-2
  6
CONTINUOUS
 62
    3
 10
749.73015
 20
1789.8951
 11
748.87352
 21
1790.5529
  0
LINE
  8
0-2
  6
CONTINUOUS
 62
    3
 10
748.87352
 20
1790.5529
 11
747.92574
 21
1791.0375
  0
LINE
  8
0-2
  6
CONTINUOUS
 62
    3
 10
747.92574
 20
1791.0375
 11
746.91562
 21
1791.3344
  0
LINE
  8
0-2
  6
CONTINUOUS
 62
    3
 10
746.91562
 20
1791.3344
 11
745.87385
 21
1791.4343
  0
LINE
  8
0-2
  6
CONTINUOUS
 62
    3
 10
745.87385
 20
1791.4343
 11
744.83208
 21
1791.3344
  0
LINE
  8
0-2
  6
CONTINUOUS
 62
    3
 10
744.83208
 20
1791.3344
 11
743.82196
 21
1791.0375
  0
LINE
  8
0-2
  6
CONTINUOUS
 62
    3
 10
743.82196
 20
1791.0375
 11
742.87418
 21
1790.5529
  0
LINE
  8
0-2
  6
CONTINUOUS
 62
    3
 10
742.87418
 20
1790.5529
 11
742.01755
 21
1789.8951
  0
LINE
  8
0-2
  6
CONTINUOUS
 62
    3
 10
742.01755
 20
1789.8951
 11
741.27809
 21
1789.0842
  0
LINE
  8
0-2
  6
CONTINUOUS
 62
    3
 10
741.27809
 20
1789.0842
 11
740.67827
 21
1788.1448
  0
LINE
  8
0-2
  6
CONTINUOUS
 62
    3
 10
740.67827
 20
1788.1448
 11
740.23632
 21
1787.1055
  0
LINE
  8
0-2
  6
CONTINUOUS
 62
    3
 10
740.23632
 20
1787.1055
 11
739.96566
 21
1785.9978
  0
LINE
  8
0-2
  6
CONTINUOUS
 62
    3
 10
739.96566
 20
1785.9978
 11
739.87452
 21
1784.8554
  0
LINE
  8
0-2
  6
CONTINUOUS
 62
    3
 10
739.87452
 20
1784.8554
 11
739.96566
 21
1783.7129
  0
LINE
  8
0-2
  6
CONTINUOUS
 62
    3
 10
739.96566
 20
1783.7129
 11
740.23632
 21
1782.6052
  0
LINE
  8
0-2
  6
CONTINUOUS
 62
    3
 10
740.23632
 20
1782.6052
 11
740.67827
 21
1781.5659
  0
LINE
  8
0-2
  6
CONTINUOUS
 62
    3
 10
740.67827
 20
1781.5659
 11
741.27809
 21
1780.6265
  0
LINE
  8
0-2
  6
CONTINUOUS
 62
    3
 10
741.27809
 20
1780.6265
 11
742.01755
 21
1779.8156
  0
LINE
  8
0-2
  6
CONTINUOUS
 62
    3
 10
742.01755
 20
1779.8156
 11
742.87418
 21
1779.1578
  0
LINE
  8
0-2
  6
CONTINUOUS
 62
    3
 10
742.87418
 20
1779.1578
 11
743.82196
 21
1778.6732
  0
LINE
  8
0-2
  6
CONTINUOUS
 62
    3
 10
743.82196
 20
1778.6732
 11
744.83208
 21
1778.3764
  0
LINE
  8
0-2
  6
CONTINUOUS
 62
    3
 10
744.83208
 20
1778.3764
 11
745.87385
 21
1778.2764
  0
LINE
  8
0-2
  6
CONTINUOUS
 62
    3
 10
745.87385
 20
1778.2764
 11
746.91562
 21
1778.3764
  0
LINE
  8
0-2
  6
CONTINUOUS
 62
    3
 10
746.91562
 20
1778.3764
 11
747.92574
 21
1778.6732
  0
LINE
  8
0-2
  6
CONTINUOUS
 62
    3
 10
747.92574
 20
1778.6732
 11
748.87352
 21
1779.1578
  0
LINE
  8
0-2
  6
CONTINUOUS
 62
    3
 10
748.87352
 20
1779.1578
 11
749.73015
 21
1779.8156
  0
LINE
  8
0-2
  6
CONTINUOUS
 62
    3
 10
749.73015
 20
1779.8156
 11
750.46961
 21
1780.6265
  0
LINE
  8
0-2
  6
CONTINUOUS
 62
    3
 10
750.46961
 20
1780.6265
 11
751.06943
 21
1781.5659
  0
LINE
  8
0-2
  6
CONTINUOUS
 62
    3
 10
751.06943
 20
1781.5659
 11
751.51138
 21
1782.6052
  0
LINE
  8
0-2
  6
CONTINUOUS
 62
    3
 10
751.51138
 20
1782.6052
 11
751.78204
 21
1783.7129
  0
LINE
  8
0-2
  6
CONTINUOUS
 62
    3
 10
751.78204
 20
1783.7129
 11
751.87318
 21
1784.8554
  0
LINE
  8
0-2
  6
CONTINUOUS
 62
    3
 10
751.87318
 20
1844.9391
 11
751.78204
 21
1846.0815
  0
LINE
  8
0-2
  6
CONTINUOUS
 62
    3
 10
751.78204
 20
1846.0815
 11
751.51138
 21
1847.1892
  0
LINE
  8
0-2
  6
CONTINUOUS
 62
    3
 10
751.51138
 20
1847.1892
 11
751.06943
 21
1848.2285
  0
LINE
  8
0-2
  6
CONTINUOUS
 62
    3
 10
751.06943
 20
1848.2285
 11
750.46961
 21
1849.1679
  0
LINE
  8
0-2
  6
CONTINUOUS
 62
    3
 10
750.46961
 20
1849.1679
 11
749.73015
 21
1849.9788
  0
LINE
  8
0-2
  6
CONTINUOUS
 62
    3
 10
749.73015
 20
1849.9788
 11
748.87352
 21
1850.6366
  0
LINE
  8
0-2
  6
CONTINUOUS
 62
    3
 10
748.87352
 20
1850.6366
 11
747.92574
 21
1851.1213
  0
LINE
  8
0-2
  6
CONTINUOUS
 62
    3
 10
747.92574
 20
1851.1213
 11
746.91562
 21
1851.4181
  0
LINE
  8
0-2
  6
CONTINUOUS
 62
    3
 10
746.91562
 20
1851.4181
 11
745.87385
 21
1851.518
  0
LINE
  8
0-2
  6
CONTINUOUS
 62
    3
 10
745.87385
 20
1851.518
 11
744.83208
 21
1851.4181
  0
LINE
  8
0-2
  6
CONTINUOUS
 62
    3
 10
744.83208
 20
1851.4181
 11
743.82196
 21
1851.1213
  0
LINE
  8
0-2
  6
CONTINUOUS
 62
    3
 10
743.82196
 20
1851.1213
 11
742.87418
 21
1850.6366
  0
LINE
  8
0-2
  6
CONTINUOUS
 62
    3
 10
742.87418
 20
1850.6366
 11
742.01755
 21
1849.9788
  0
LINE
  8
0-2
  6
CONTINUOUS
 62
    3
 10
742.01755
 20
1849.9788
 11
741.27809
 21
1849.1679
  0
LINE
  8
0-2
  6
CONTINUOUS
 62
    3
 10
741.27809
 20
1849.1679
 11
740.67827
 21
1848.2285
  0
LINE
  8
0-2
  6
CONTINUOUS
 62
    3
 10
740.67827
 20
1848.2285
 11
740.23632
 21
1847.1892
  0
LINE
  8
0-2
  6
CONTINUOUS
 62
    3
 10
740.23632
 20
1847.1892
 11
739.96566
 21
1846.0815
  0
LINE
  8
0-2
  6
CONTINUOUS
 62
    3
 10
739.96566
 20
1846.0815
 11
739.87452
 21
1844.9391
  0
LINE
  8
0-2
  6
CONTINUOUS
 62
    3
 10
739.87452
 20
1844.9391
 11
739.96566
 21
1843.7967
  0
LINE
  8
0-2
  6
CONTINUOUS
 62
    3
 10
739.96566
 20
1843.7967
 11
740.23632
 21
1842.6889
  0
LINE
  8
0-2
  6
CONTINUOUS
 62
    3
 10
740.23632
 20
1842.6889
 11
740.67827
 21
1841.6496
  0
LINE
  8
0-2
  6
CONTINUOUS
 62
    3
 10
740.67827
 20
1841.6496
 11
741.27809
 21
1840.7102
  0
LINE
  8
0-2
  6
CONTINUOUS
 62
    3
 10
741.27809
 20
1840.7102
 11
742.01755
 21
1839.8993
  0
LINE
  8
0-2
  6
CONTINUOUS
 62
    3
 10
742.01755
 20
1839.8993
 11
742.87418
 21
1839.2415
  0
LINE
  8
0-2
  6
CONTINUOUS
 62
    3
 10
742.87418
 20
1839.2415
 11
743.82196
 21
1838.7569
  0
LINE
  8
0-2
  6
CONTINUOUS
 62
    3
 10
743.82196
 20
1838.7569
 11
744.83208
 21
1838.4601
  0
LINE
  8
0-2
  6
CONTINUOUS
 62
    3
 10
744.83208
 20
1838.4601
 11
745.87385
 21
1838.3601
  0
LINE
  8
0-2
  6
CONTINUOUS
 62
    3
 10
745.87385
 20
1838.3601
 11
746.91562
 21
1838.4601
  0
LINE
  8
0-2
  6
CONTINUOUS
 62
    3
 10
746.91562
 20
1838.4601
 11
747.92574
 21
1838.7569
  0
LINE
  8
0-2
  6
CONTINUOUS
 62
    3
 10
747.92574
 20
1838.7569
 11
748.87352
 21
1839.2415
  0
LINE
  8
0-2
  6
CONTINUOUS
 62
    3
 10
748.87352
 20
1839.2415
 11
749.73015
 21
1839.8993
  0
LINE
  8
0-2
  6
CONTINUOUS
 62
    3
 10
749.73015
 20
1839.8993
 11
750.46961
 21
1840.7102
  0
LINE
  8
0-2
  6
CONTINUOUS
 62
    3
 10
750.46961
 20
1840.7102
 11
751.06943
 21
1841.6496
  0
LINE
  8
0-2
  6
CONTINUOUS
 62
    3
 10
751.06943
 20
1841.6496
 11
751.51138
 21
1842.6889
  0
LINE
  8
0-2
  6
CONTINUOUS
 62
    3
 10
751.51138
 20
1842.6889
 11
751.78204
 21
1843.7967
  0
LINE
  8
0-2
  6
CONTINUOUS
 62
    3
 10
751.78204
 20
1843.7967
 11
751.87318
 21
1844.9391
  0
LINE
  8
0-2
  6
CONTINUOUS
 62
    3
 10
751.87318
 20
1340.82
 11
751.78204
 21
1341.9624
  0
LINE
  8
0-2
  6
CONTINUOUS
 62
    3
 10
751.78204
 20
1341.9624
 11
751.51138
 21
1343.0701
  0
LINE
  8
0-2
  6
CONTINUOUS
 62
    3
 10
751.51138
 20
1343.0701
 11
751.06943
 21
1344.1095
  0
LINE
  8
0-2
  6
CONTINUOUS
 62
    3
 10
751.06943
 20
1344.1095
 11
750.46961
 21
1345.0489
  0
LINE
  8
0-2
  6
CONTINUOUS
 62
    3
 10
750.46961
 20
1345.0489
 11
749.73015
 21
1345.8598
  0
LINE
  8
0-2
  6
CONTINUOUS
 62
    3
 10
749.73015
 20
1345.8598
 11
748.87352
 21
1346.5175
  0
LINE
  8
0-2
  6
CONTINUOUS
 62
    3
 10
748.87352
 20
1346.5175
 11
747.92574
 21
1347.0022
  0
LINE
  8
0-2
  6
CONTINUOUS
 62
    3
 10
747.92574
 20
1347.0022
 11
746.91562
 21
1347.299
  0
LINE
  8
0-2
  6
CONTINUOUS
 62
    3
 10
746.91562
 20
1347.299
 11
745.87385
 21
1347.3989
  0
LINE
  8
0-2
  6
CONTINUOUS
 62
    3
 10
745.87385
 20
1347.3989
 11
744.83208
 21
1347.299
  0
LINE
  8
0-2
  6
CONTINUOUS
 62
    3
 10
744.83208
 20
1347.299
 11
743.82196
 21
1347.0022
  0
LINE
  8
0-2
  6
CONTINUOUS
 62
    3
 10
743.82196
 20
1347.0022
 11
742.87418
 21
1346.5175
  0
LINE
  8
0-2
  6
CONTINUOUS
 62
    3
 10
742.87418
 20
1346.5175
 11
742.01755
 21
1345.8598
  0
LINE
  8
0-2
  6
CONTINUOUS
 62
    3
 10
742.01755
 20
1345.8598
 11
741.27809
 21
1345.0489
  0
LINE
  8
0-2
  6
CONTINUOUS
 62
    3
 10
741.27809
 20
1345.0489
 11
740.67827
 21
1344.1095
  0
LINE
  8
0-2
  6
CONTINUOUS
 62
    3
 10
740.67827
 20
1344.1095
 11
740.23632
 21
1343.0701
  0
LINE
  8
0-2
  6
CONTINUOUS
 62
    3
 10
740.23632
 20
1343.0701
 11
739.96566
 21
1341.9624
  0
LINE
  8
0-2
  6
CONTINUOUS
 62
    3
 10
739.96566
 20
1341.9624
 11
739.87452
 21
1340.82
  0
LINE
  8
0-2
  6
CONTINUOUS
 62
    3
 10
739.87452
 20
1340.82
 11
739.96566
 21
1339.6776
  0
LINE
  8
0-2
  6
CONTINUOUS
 62
    3
 10
739.96566
 20
1339.6776
 11
740.23632
 21
1338.5699
  0
LINE
  8
0-2
  6
CONTINUOUS
 62
    3
 10
740.23632
 20
1338.5699
 11
740.67827
 21
1337.5305
  0
LINE
  8
0-2
  6
CONTINUOUS
 62
    3
 10
740.67827
 20
1337.5305
 11
741.27809
 21
1336.5911
  0
LINE
  8
0-2
  6
CONTINUOUS
 62
    3
 10
741.27809
 20
1336.5911
 11
742.01755
 21
1335.7802
  0
LINE
  8
0-2
  6
CONTINUOUS
 62
    3
 10
742.01755
 20
1335.7802
 11
742.87418
 21
1335.1225
  0
LINE
  8
0-2
  6
CONTINUOUS
 62
    3
 10
742.87418
 20
1335.1225
 11
743.82196
 21
1334.6378
  0
LINE
  8
0-2
  6
CONTINUOUS
 62
    3
 10
743.82196
 20
1334.6378
 11
744.83208
 21
1334.341
  0
LINE
  8
0-2
  6
CONTINUOUS
 62
    3
 10
744.83208
 20
1334.341
 11
745.87385
 21
1334.2411
  0
LINE
  8
0-2
  6
CONTINUOUS
 62
    3
 10
745.87385
 20
1334.2411
 11
746.91562
 21
1334.341
  0
LINE
  8
0-2
  6
CONTINUOUS
 62
    3
 10
746.91562
 20
1334.341
 11
747.92574
 21
1334.6378
  0
LINE
  8
0-2
  6
CONTINUOUS
 62
    3
 10
747.92574
 20
1334.6378
 11
748.87352
 21
1335.1225
  0
LINE
  8
0-2
  6
CONTINUOUS
 62
    3
 10
748.87352
 20
1335.1225
 11
749.73015
 21
1335.7802
  0
LINE
  8
0-2
  6
CONTINUOUS
 62
    3
 10
749.73015
 20
1335.7802
 11
750.46961
 21
1336.5911
  0
LINE
  8
0-2
  6
CONTINUOUS
 62
    3
 10
750.46961
 20
1336.5911
 11
751.06943
 21
1337.5305
  0
LINE
  8
0-2
  6
CONTINUOUS
 62
    3
 10
751.06943
 20
1337.5305
 11
751.51138
 21
1338.5699
  0
LINE
  8
0-2
  6
CONTINUOUS
 62
    3
 10
751.51138
 20
1338.5699
 11
751.78204
 21
1339.6776
  0
LINE
  8
0-2
  6
CONTINUOUS
 62
    3
 10
751.78204
 20
1339.6776
 11
751.87318
 21
1340.82
  0
LINE
  8
0-2
  6
CONTINUOUS
 62
    3
 10
751.87318
 20
1280.7362
 11
751.78204
 21
1281.8786
  0
LINE
  8
0-2
  6
CONTINUOUS
 62
    3
 10
751.78204
 20
1281.8786
 11
751.51138
 21
1282.9863
  0
LINE
  8
0-2
  6
CONTINUOUS
 62
    3
 10
751.51138
 20
1282.9863
 11
751.06943
 21
1284.0256
  0
LINE
  8
0-2
  6
CONTINUOUS
 62
    3
 10
751.06943
 20
1284.0256
 11
750.46961
 21
1284.965
  0
LINE
  8
0-2
  6
CONTINUOUS
 62
    3
 10
750.46961
 20
1284.965
 11
749.73015
 21
1285.7759
  0
LINE
  8
0-2
  6
CONTINUOUS
 62
    3
 10
749.73015
 20
1285.7759
 11
748.87352
 21
1286.4337
  0
LINE
  8
0-2
  6
CONTINUOUS
 62
    3
 10
748.87352
 20
1286.4337
 11
747.92574
 21
1286.9183
  0
LINE
  8
0-2
  6
CONTINUOUS
 62
    3
 10
747.92574
 20
1286.9183
 11
746.91562
 21
1287.2152
  0
LINE
  8
0-2
  6
CONTINUOUS
 62
    3
 10
746.91562
 20
1287.2152
 11
745.87385
 21
1287.3151
  0
LINE
  8
0-2
  6
CONTINUOUS
 62
    3
 10
745.87385
 20
1287.3151
 11
744.83208
 21
1287.2152
  0
LINE
  8
0-2
  6
CONTINUOUS
 62
    3
 10
744.83208
 20
1287.2152
 11
743.82196
 21
1286.9183
  0
LINE
  8
0-2
  6
CONTINUOUS
 62
    3
 10
743.82196
 20
1286.9183
 11
742.87418
 21
1286.4337
  0
LINE
  8
0-2
  6
CONTINUOUS
 62
    3
 10
742.87418
 20
1286.4337
 11
742.01755
 21
1285.7759
  0
LINE
  8
0-2
  6
CONTINUOUS
 62
    3
 10
742.01755
 20
1285.7759
 11
741.27809
 21
1284.965
  0
LINE
  8
0-2
  6
CONTINUOUS
 62
    3
 10
741.27809
 20
1284.965
 11
740.67827
 21
1284.0256
  0
LINE
  8
0-2
  6
CONTINUOUS
 62
    3
 10
740.67827
 20
1284.0256
 11
740.23632
 21
1282.9863
  0
LINE
  8
0-2
  6
CONTINUOUS
 62
    3
 10
740.23632
 20
1282.9863
 11
739.96566
 21
1281.8786
  0
LINE
  8
0-2
  6
CONTINUOUS
 62
    3
 10
739.96566
 20
1281.8786
 11
739.87452
 21
1280.7362
  0
LINE
  8
0-2
  6
CONTINUOUS
 62
    3
 10
739.87452
 20
1280.7362
 11
739.96566
 21
1279.5937
  0
LINE
  8
0-2
  6
CONTINUOUS
 62
    3
 10
739.96566
 20
1279.5937
 11
740.23632
 21
1278.486
  0
LINE
  8
0-2
  6
CONTINUOUS
 62
    3
 10
740.23632
 20
1278.486
 11
740.67827
 21
1277.4467
  0
LINE
  8
0-2
  6
CONTINUOUS
 62
    3
 10
740.67827
 20
1277.4467
 11
741.27809
 21
1276.5073
  0
LINE
  8
0-2
  6
CONTINUOUS
 62
    3
 10
741.27809
 20
1276.5073
 11
742.01755
 21
1275.6964
  0
LINE
  8
0-2
  6
CONTINUOUS
 62
    3
 10
742.01755
 20
1275.6964
 11
742.87418
 21
1275.0386
  0
LINE
  8
0-2
  6
CONTINUOUS
 62
    3
 10
742.87418
 20
1275.0386
 11
743.82196
 21
1274.554
  0
LINE
  8
0-2
  6
CONTINUOUS
 62
    3
 10
743.82196
 20
1274.554
 11
744.83208
 21
1274.2572
  0
LINE
  8
0-2
  6
CONTINUOUS
 62
    3
 10
744.83208
 20
1274.2572
 11
745.87385
 21
1274.1572
  0
LINE
  8
0-2
  6
CONTINUOUS
 62
    3
 10
745.87385
 20
1274.1572
 11
746.91562
 21
1274.2572
  0
LINE
  8
0-2
  6
CONTINUOUS
 62
    3
 10
746.91562
 20
1274.2572
 11
747.92574
 21
1274.554
  0
LINE
  8
0-2
  6
CONTINUOUS
 62
    3
 10
747.92574
 20
1274.554
 11
748.87352
 21
1275.0386
  0
LINE
  8
0-2
  6
CONTINUOUS
 62
    3
 10
748.87352
 20
1275.0386
 11
749.73015
 21
1275.6964
  0
LINE
  8
0-2
  6
CONTINUOUS
 62
    3
 10
749.73015
 20
1275.6964
 11
750.46961
 21
1276.5073
  0
LINE
  8
0-2
  6
CONTINUOUS
 62
    3
 10
750.46961
 20
1276.5073
 11
751.06943
 21
1277.4467
  0
LINE
  8
0-2
  6
CONTINUOUS
 62
    3
 10
751.06943
 20
1277.4467
 11
751.51138
 21
1278.486
  0
LINE
  8
0-2
  6
CONTINUOUS
 62
    3
 10
751.51138
 20
1278.486
 11
751.78204
 21
1279.5937
  0
LINE
  8
0-2
  6
CONTINUOUS
 62
    3
 10
751.78204
 20
1279.5937
 11
751.87318
 21
1280.7362
  0
LINE
  8
0-2
  6
CONTINUOUS
 62
    3
 10
1028.1352
 20
1128.1884
 11
1027.6114
 21
1130.1012
  0
LINE
  8
0-2
  6
CONTINUOUS
 62
    3
 10
1027.6114
 20
1130.1012
 11
1026.7926
 21
1131.8851
  0
LINE
  8
0-2
  6
CONTINUOUS
 62
    3
 10
1026.7926
 20
1131.8851
 11
1025.7038
 21
1133.486
  0
LINE
  8
0-2
  6
CONTINUOUS
 62
    3
 10
1025.7038
 20
1133.486
 11
1024.378
 21
1134.8553
  0
LINE
  8
0-2
  6
CONTINUOUS
 62
    3
 10
1024.378
 20
1134.8553
 11
1022.8556
 21
1135.9513
  0
LINE
  8
0-2
  6
CONTINUOUS
 62
    3
 10
1022.8556
 20
1135.9513
 11
1021.1827
 21
1136.7407
  0
LINE
  8
0-2
  6
CONTINUOUS
 62
    3
 10
1021.1827
 20
1136.7407
 11
1019.4102
 21
1137.1996
  0
LINE
  8
0-2
  6
CONTINUOUS
 62
    3
 10
1019.4102
 20
1137.1996
 11
1017.592
 21
1137.314
  0
LINE
  8
0-2
  6
CONTINUOUS
 62
    3
 10
1017.592
 20
1137.314
 11
1015.7833
 21
1137.0804
  0
LINE
  8
0-2
  6
CONTINUOUS
 62
    3
 10
1015.7833
 20
1137.0804
 11
1014.0391
 21
1136.506
  0
LINE
  8
0-2
  6
CONTINUOUS
 62
    3
 10
1014.0391
 20
1136.506
 11
1012.4123
 21
1135.6081
  0
LINE
  8
0-2
  6
CONTINUOUS
 62
    3
 10
1012.4123
 20
1135.6081
 11
1010.9525
 21
1134.4141
  0
LINE
  8
0-2
  6
CONTINUOUS
 62
    3
 10
1010.9525
 20
1134.4141
 11
1009.7038
 21
1132.9603
  0
LINE
  8
0-2
  6
CONTINUOUS
 62
    3
 10
1009.7038
 20
1132.9603
 11
1008.7044
 21
1131.2908
  0
LINE
  8
0-2
  6
CONTINUOUS
 62
    3
 10
1008.7044
 20
1131.2908
 11
1007.9845
 21
1129.4563
  0
LINE
  8
0-2
  6
CONTINUOUS
 62
    3
 10
1007.9845
 20
1129.4563
 11
1007.6747
 21
1128.1884
  0
LINE
  8
0-2
  6
CONTINUOUS
 62
    3
 10
828.583
 20
1108.8798
 11
828.49185
 21
1110.0222
  0
LINE
  8
0-2
  6
CONTINUOUS
 62
    3
 10
828.49185
 20
1110.0222
 11
828.22119
 21
1111.1299
  0
LINE
  8
0-2
  6
CONTINUOUS
 62
    3
 10
828.22119
 20
1111.1299
 11
827.77924
 21
1112.1693
  0
LINE
  8
0-2
  6
CONTINUOUS
 62
    3
 10
827.77924
 20
1112.1693
 11
827.17942
 21
1113.1087
  0
LINE
  8
0-2
  6
CONTINUOUS
 62
    3
 10
827.17942
 20
1113.1087
 11
826.43996
 21
1113.9196
  0
LINE
  8
0-2
  6
CONTINUOUS
 62
    3
 10
826.43996
 20
1113.9196
 11
825.58333
 21
1114.5773
  0
LINE
  8
0-2
  6
CONTINUOUS
 62
    3
 10
825.58333
 20
1114.5773
 11
824.63556
 21
1115.062
  0
LINE
  8
0-2
  6
CONTINUOUS
 62
    3
 10
824.63556
 20
1115.062
 11
823.62544
 21
1115.3588
  0
LINE
  8
0-2
  6
CONTINUOUS
 62
    3
 10
823.62544
 20
1115.3588
 11
822.58366
 21
1115.4587
  0
LINE
  8
0-2
  6
CONTINUOUS
 62
    3
 10
822.58366
 20
1115.4587
 11
821.54189
 21
1115.3588
  0
LINE
  8
0-2
  6
CONTINUOUS
 62
    3
 10
821.54189
 20
1115.3588
 11
820.53177
 21
1115.062
  0
LINE
  8
0-2
  6
CONTINUOUS
 62
    3
 10
820.53177
 20
1115.062
 11
819.584
 21
1114.5773
  0
LINE
  8
0-2
  6
CONTINUOUS
 62
    3
 10
819.584
 20
1114.5773
 11
818.72737
 21
1113.9196
  0
LINE
  8
0-2
  6
CONTINUOUS
 62
    3
 10
818.72737
 20
1113.9196
 11
817.98791
 21
1113.1087
  0
LINE
  8
0-2
  6
CONTINUOUS
 62
    3
 10
817.98791
 20
1113.1087
 11
817.38809
 21
1112.1693
  0
LINE
  8
0-2
  6
CONTINUOUS
 62
    3
 10
817.38809
 20
1112.1693
 11
816.94613
 21
1111.1299
  0
LINE
  8
0-2
  6
CONTINUOUS
 62
    3
 10
816.94613
 20
1111.1299
 11
816.67547
 21
1110.0222
  0
LINE
  8
0-2
  6
CONTINUOUS
 62
    3
 10
816.67547
 20
1110.0222
 11
816.58433
 21
1108.8798
  0
LINE
  8
0-2
  6
CONTINUOUS
 62
    3
 10
816.58433
 20
1108.8798
 11
816.67547
 21
1107.7374
  0
LINE
  8
0-2
  6
CONTINUOUS
 62
    3
 10
816.67547
 20
1107.7374
 11
816.94613
 21
1106.6297
  0
LINE
  8
0-2
  6
CONTINUOUS
 62
    3
 10
816.94613
 20
1106.6297
 11
817.38809
 21
1105.5903
  0
LINE
  8
0-2
  6
CONTINUOUS
 62
    3
 10
817.38809
 20
1105.5903
 11
817.98791
 21
1104.6509
  0
LINE
  8
0-2
  6
CONTINUOUS
 62
    3
 10
817.98791
 20
1104.6509
 11
818.72737
 21
1103.84
  0
LINE
  8
0-2
  6
CONTINUOUS
 62
    3
 10
818.72737
 20
1103.84
 11
819.584
 21
1103.1823
  0
LINE
  8
0-2
  6
CONTINUOUS
 62
    3
 10
819.584
 20
1103.1823
 11
820.53177
 21
1102.6976
  0
LINE
  8
0-2
  6
CONTINUOUS
 62
    3
 10
820.53177
 20
1102.6976
 11
821.54189
 21
1102.4008
  0
LINE
  8
0-2
  6
CONTINUOUS
 62
    3
 10
821.54189
 20
1102.4008
 11
822.58366
 21
1102.3009
  0
LINE
  8
0-2
  6
CONTINUOUS
 62
    3
 10
822.58366
 20
1102.3009
 11
823.62544
 21
1102.4008
  0
LINE
  8
0-2
  6
CONTINUOUS
 62
    3
 10
823.62544
 20
1102.4008
 11
824.63556
 21
1102.6976
  0
LINE
  8
0-2
  6
CONTINUOUS
 62
    3
 10
824.63556
 20
1102.6976
 11
825.58333
 21
1103.1823
  0
LINE
  8
0-2
  6
CONTINUOUS
 62
    3
 10
825.58333
 20
1103.1823
 11
826.43996
 21
1103.84
  0
LINE
  8
0-2
  6
CONTINUOUS
 62
    3
 10
826.43996
 20
1103.84
 11
827.17942
 21
1104.6509
  0
LINE
  8
0-2
  6
CONTINUOUS
 62
    3
 10
827.17942
 20
1104.6509
 11
827.77924
 21
1105.5903
  0
LINE
  8
0-2
  6
CONTINUOUS
 62
    3
 10
827.77924
 20
1105.5903
 11
828.22119
 21
1106.6297
  0
LINE
  8
0-2
  6
CONTINUOUS
 62
    3
 10
828.22119
 20
1106.6297
 11
828.49185
 21
1107.7374
  0
LINE
  8
0-2
  6
CONTINUOUS
 62
    3
 10
828.49185
 20
1107.7374
 11
828.583
 21
1108.8798
  0
LINE
  8
0-2
  6
CONTINUOUS
 62
    3
 10
828.583
 20
970.09109
 11
828.49185
 21
971.23351
  0
LINE
  8
0-2
  6
CONTINUOUS
 62
    3
 10
828.49185
 20
971.23351
 11
828.22119
 21
972.34122
  0
LINE
  8
0-2
  6
CONTINUOUS
 62
    3
 10
828.22119
 20
972.34122
 11
827.77924
 21
973.38056
  0
LINE
  8
0-2
  6
CONTINUOUS
 62
    3
 10
827.77924
 20
973.38056
 11
827.17942
 21
974.31995
  0
LINE
  8
0-2
  6
CONTINUOUS
 62
    3
 10
827.17942
 20
974.31995
 11
826.43996
 21
975.13085
  0
LINE
  8
0-2
  6
CONTINUOUS
 62
    3
 10
826.43996
 20
975.13085
 11
825.58333
 21
975.78861
  0
LINE
  8
0-2
  6
CONTINUOUS
 62
    3
 10
825.58333
 20
975.78861
 11
824.63556
 21
976.27327
  0
LINE
  8
0-2
  6
CONTINUOUS
 62
    3
 10
824.63556
 20
976.27327
 11
823.62544
 21
976.57008
  0
LINE
  8
0-2
  6
CONTINUOUS
 62
    3
 10
823.62544
 20
976.57008
 11
822.58366
 21
976.67002
  0
LINE
  8
0-2
  6
CONTINUOUS
 62
    3
 10
822.58366
 20
976.67002
 11
821.54189
 21
976.57008
  0
LINE
  8
0-2
  6
CONTINUOUS
 62
    3
 10
821.54189
 20
976.57008
 11
820.53177
 21
976.27327
  0
LINE
  8
0-2
  6
CONTINUOUS
 62
    3
 10
820.53177
 20
976.27327
 11
819.584
 21
975.78861
  0
LINE
  8
0-2
  6
CONTINUOUS
 62
    3
 10
819.584
 20
975.78861
 11
818.72737
 21
975.13085
  0
LINE
  8
0-2
  6
CONTINUOUS
 62
    3
 10
818.72737
 20
975.13085
 11
817.98791
 21
974.31995
  0
LINE
  8
0-2
  6
CONTINUOUS
 62
    3
 10
817.98791
 20
974.31995
 11
817.38809
 21
973.38056
  0
LINE
  8
0-2
  6
CONTINUOUS
 62
    3
 10
817.38809
 20
973.38056
 11
816.94613
 21
972.34122
  0
LINE
  8
0-2
  6
CONTINUOUS
 62
    3
 10
816.94613
 20
972.34122
 11
816.67547
 21
971.23351
  0
LINE
  8
0-2
  6
CONTINUOUS
 62
    3
 10
816.67547
 20
971.23351
 11
816.58433
 21
970.09109
  0
LINE
  8
0-2
  6
CONTINUOUS
 62
    3
 10
816.58433
 20
970.09109
 11
816.67547
 21
968.94866
  0
LINE
  8
0-2
  6
CONTINUOUS
 62
    3
 10
816.67547
 20
968.94866
 11
816.94613
 21
967.84096
  0
LINE
  8
0-2
  6
CONTINUOUS
 62
    3
 10
816.94613
 20
967.84096
 11
817.38809
 21
966.80162
  0
LINE
  8
0-2
  6
CONTINUOUS
 62
    3
 10
817.38809
 20
966.80162
 11
817.98791
 21
965.86223
  0
LINE
  8
0-2
  6
CONTINUOUS
 62
    3
 10
817.98791
 20
965.86223
 11
818.72737
 21
965.05133
  0
LINE
  8
0-2
  6
CONTINUOUS
 62
    3
 10
818.72737
 20
965.05133
 11
819.584
 21
964.39356
  0
LINE
  8
0-2
  6
CONTINUOUS
 62
    3
 10
819.584
 20
964.39356
 11
820.53177
 21
963.90891
  0
LINE
  8
0-2
  6
CONTINUOUS
 62
    3
 10
820.53177
 20
963.90891
 11
821.54189
 21
963.6121
  0
LINE
  8
0-2
  6
CONTINUOUS
 62
    3
 10
821.54189
 20
963.6121
 11
822.58366
 21
963.51215
  0
LINE
  8
0-2
  6
CONTINUOUS
 62
    3
 10
822.58366
 20
963.51215
 11
823.62544
 21
963.6121
  0
LINE
  8
0-2
  6
CONTINUOUS
 62
    3
 10
823.62544
 20
963.6121
 11
824.63556
 21
963.90891
  0
LINE
  8
0-2
  6
CONTINUOUS
 62
    3
 10
824.63556
 20
963.90891
 11
825.58333
 21
964.39356
  0
LINE
  8
0-2
  6
CONTINUOUS
 62
    3
 10
825.58333
 20
964.39356
 11
826.43996
 21
965.05133
  0
LINE
  8
0-2
  6
CONTINUOUS
 62
    3
 10
826.43996
 20
965.05133
 11
827.17942
 21
965.86223
  0
LINE
  8
0-2
  6
CONTINUOUS
 62
    3
 10
827.17942
 20
965.86223
 11
827.77924
 21
966.80162
  0
LINE
  8
0-2
  6
CONTINUOUS
 62
    3
 10
827.77924
 20
966.80162
 11
828.22119
 21
967.84096
  0
LINE
  8
0-2
  6
CONTINUOUS
 62
    3
 10
828.22119
 20
967.84096
 11
828.49185
 21
968.94866
  0
LINE
  8
0-2
  6
CONTINUOUS
 62
    3
 10
828.49185
 20
968.94866
 11
828.583
 21
970.09109
  0
ARC
  8
0-2
  6
CONTINUOUS
 62
    3
 10
1356.1584
 20
945.18416
 40
6.3715975
 50
270
 51
90
  0
ARC
  8
0-2
  6
CONTINUOUS
 62
    3
 10
1356.1584
 20
894.21057
 40
6.3715975
 50
270
 51
90
  0
ARC
  8
0-2
  6
CONTINUOUS
 62
    3
 10
741.15864
 20
945.18416
 40
6.3715975
 50
90
 51
270
  0
ARC
  8
0-2
  6
CONTINUOUS
 62
    3
 10
741.15864
 20
894.21057
 40
6.3715975
 50
90
 51
270
  0
LINE
  8
0-2
  6
CONTINUOUS
 62
    3
 10
1558.6472
 20
1350.9085
 11
1560.3834
 21
1351.0751
  0
LINE
  8
0-2
  6
CONTINUOUS
 62
    3
 10
1560.3834
 20
1351.0751
 11
1562.0669
 21
1351.5698
  0
LINE
  8
0-2
  6
CONTINUOUS
 62
    3
 10
1562.0669
 20
1351.5698
 11
1563.6464
 21
1352.3775
  0
LINE
  8
0-2
  6
CONTINUOUS
 62
    3
 10
1563.6464
 20
1352.3775
 11
1565.0741
 21
1353.4737
  0
LINE
  8
0-2
  6
CONTINUOUS
 62
    3
 10
1565.0741
 20
1353.4737
 11
1566.3065
 21
1354.8251
  0
LINE
  8
0-2
  6
CONTINUOUS
 62
    3
 10
1566.3065
 20
1354.8251
 11
1567.3061
 21
1356.3907
  0
LINE
  8
0-2
  6
CONTINUOUS
 62
    3
 10
1567.3061
 20
1356.3907
 11
1568.0427
 21
1358.1229
  0
LINE
  8
0-2
  6
CONTINUOUS
 62
    3
 10
1568.0427
 20
1358.1229
 11
1568.4938
 21
1359.969
  0
LINE
  8
0-2
  6
CONTINUOUS
 62
    3
 10
1568.4938
 20
1359.969
 11
1568.6457
 21
1361.8729
  0
LINE
  8
0-2
  6
CONTINUOUS
 62
    3
 10
1568.6457
 20
1361.8729
 11
1568.4938
 21
1363.7769
  0
LINE
  8
0-2
  6
CONTINUOUS
 62
    3
 10
1568.4938
 20
1363.7769
 11
1568.0427
 21
1365.623
  0
LINE
  8
0-2
  6
CONTINUOUS
 62
    3
 10
1568.0427
 20
1365.623
 11
1567.3061
 21
1367.3551
  0
LINE
  8
0-2
  6
CONTINUOUS
 62
    3
 10
1567.3061
 20
1367.3551
 11
1566.3065
 21
1368.9207
  0
LINE
  8
0-2
  6
CONTINUOUS
 62
    3
 10
1566.3065
 20
1368.9207
 11
1565.0741
 21
1370.2721
  0
LINE
  8
0-2
  6
CONTINUOUS
 62
    3
 10
1565.0741
 20
1370.2721
 11
1563.6464
 21
1371.3684
  0
LINE
  8
0-2
  6
CONTINUOUS
 62
    3
 10
1563.6464
 20
1371.3684
 11
1562.0669
 21
1372.1761
  0
LINE
  8
0-2
  6
CONTINUOUS
 62
    3
 10
1562.0669
 20
1372.1761
 11
1560.3834
 21
1372.6707
  0
LINE
  8
0-2
  6
CONTINUOUS
 62
    3
 10
1560.3834
 20
1372.6707
 11
1558.6472
 21
1372.8373
  0
LINE
  8
0-2
  6
CONTINUOUS
 62
    3
 10
1558.6483
 20
1237.8373
 11
1560.3845
 21
1238.0039
  0
LINE
  8
0-2
  6
CONTINUOUS
 62
    3
 10
1560.3845
 20
1238.0039
 11
1562.068
 21
1238.4985
  0
LINE
  8
0-2
  6
CONTINUOUS
 62
    3
 10
1562.068
 20
1238.4985
 11
1563.6476
 21
1239.3063
  0
LINE
  8
0-2
  6
CONTINUOUS
 62
    3
 10
1563.6476
 20
1239.3063
 11
1565.0752
 21
1240.4025
  0
LINE
  8
0-2
  6
CONTINUOUS
 62
    3
 10
1565.0752
 20
1240.4025
 11
1566.3076
 21
1241.7539
  0
LINE
  8
0-2
  6
CONTINUOUS
 62
    3
 10
1566.3076
 20
1241.7539
 11
1567.3072
 21
1243.3195
  0
LINE
  8
0-2
  6
CONTINUOUS
 62
    3
 10
1567.3072
 20
1243.3195
 11
1568.0438
 21
1245.0517
  0
LINE
  8
0-2
  6
CONTINUOUS
 62
    3
 10
1568.0438
 20
1245.0517
 11
1568.4949
 21
1246.8978
  0
LINE
  8
0-2
  6
CONTINUOUS
 62
    3
 10
1568.4949
 20
1246.8978
 11
1568.6468
 21
1248.8017
  0
LINE
  8
0-2
  6
CONTINUOUS
 62
    3
 10
1568.6468
 20
1248.8017
 11
1568.4949
 21
1250.7057
  0
LINE
  8
0-2
  6
CONTINUOUS
 62
    3
 10
1568.4949
 20
1250.7057
 11
1568.0438
 21
1252.5517
  0
LINE
  8
0-2
  6
CONTINUOUS
 62
    3
 10
1568.0438
 20
1252.5517
 11
1567.3072
 21
1254.2839
  0
LINE
  8
0-2
  6
CONTINUOUS
 62
    3
 10
1567.3072
 20
1254.2839
 11
1566.3076
 21
1255.8495
  0
LINE
  8
0-2
  6
CONTINUOUS
 62
    3
 10
1566.3076
 20
1255.8495
 11
1565.0752
 21
1257.2009
  0
LINE
  8
0-2
  6
CONTINUOUS
 62
    3
 10
1565.0752
 20
1257.2009
 11
1563.6476
 21
1258.2971
  0
LINE
  8
0-2
  6
CONTINUOUS
 62
    3
 10
1563.6476
 20
1258.2971
 11
1562.068
 21
1259.1049
  0
LINE
  8
0-2
  6
CONTINUOUS
 62
    3
 10
1562.068
 20
1259.1049
 11
1560.3845
 21
1259.5995
  0
LINE
  8
0-2
  6
CONTINUOUS
 62
    3
 10
1560.3845
 20
1259.5995
 11
1558.6483
 21
1259.7661
  0
LINE
  8
0-2
  6
CONTINUOUS
 62
    3
 10
1558.6487
 20
1865.9085
 11
1560.3849
 21
1866.0751
  0
LINE
  8
0-2
  6
CONTINUOUS
 62
    3
 10
1560.3849
 20
1866.0751
 11
1562.0684
 21
1866.5698
  0
LINE
  8
0-2
  6
CONTINUOUS
 62
    3
 10
1562.0684
 20
1866.5698
 11
1563.6479
 21
1867.3775
  0
LINE
  8
0-2
  6
CONTINUOUS
 62
    3
 10
1563.6479
 20
1867.3775
 11
1565.0756
 21
1868.4737
  0
LINE
  8
0-2
  6
CONTINUOUS
 62
    3
 10
1565.0756
 20
1868.4737
 11
1566.308
 21
1869.8251
  0
LINE
  8
0-2
  6
CONTINUOUS
 62
    3
 10
1566.308
 20
1869.8251
 11
1567.3076
 21
1871.3907
  0
LINE
  8
0-2
  6
CONTINUOUS
 62
    3
 10
1567.3076
 20
1871.3907
 11
1568.0442
 21
1873.1229
  0
LINE
  8
0-2
  6
CONTINUOUS
 62
    3
 10
1568.0442
 20
1873.1229
 11
1568.4952
 21
1874.969
  0
LINE
  8
0-2
  6
CONTINUOUS
 62
    3
 10
1568.4952
 20
1874.969
 11
1568.6471
 21
1876.8729
  0
LINE
  8
0-2
  6
CONTINUOUS
 62
    3
 10
1568.6471
 20
1876.8729
 11
1568.4952
 21
1878.7769
  0
LINE
  8
0-2
  6
CONTINUOUS
 62
    3
 10
1568.4952
 20
1878.7769
 11
1568.0442
 21
1880.623
  0
LINE
  8
0-2
  6
CONTINUOUS
 62
    3
 10
1568.0442
 20
1880.623
 11
1567.3076
 21
1882.3551
  0
LINE
  8
0-2
  6
CONTINUOUS
 62
    3
 10
1567.3076
 20
1882.3551
 11
1566.308
 21
1883.9207
  0
LINE
  8
0-2
  6
CONTINUOUS
 62
    3
 10
1566.308
 20
1883.9207
 11
1565.0756
 21
1885.2721
  0
LINE
  8
0-2
  6
CONTINUOUS
 62
    3
 10
1565.0756
 20
1885.2721
 11
1563.6479
 21
1886.3684
  0
LINE
  8
0-2
  6
CONTINUOUS
 62
    3
 10
1563.6479
 20
1886.3684
 11
1562.0684
 21
1887.1761
  0
LINE
  8
0-2
  6
CONTINUOUS
 62
    3
 10
1562.0684
 20
1887.1761
 11
1560.3849
 21
1887.6707
  0
LINE
  8
0-2
  6
CONTINUOUS
 62
    3
 10
1560.3849
 20
1887.6707
 11
1558.6487
 21
1887.8373
  0
LINE
  8
0-2
  6
CONTINUOUS
 62
    3
 10
1558.6487
 20
1752.8373
 11
1560.3849
 21
1753.0039
  0
LINE
  8
0-2
  6
CONTINUOUS
 62
    3
 10
1560.3849
 20
1753.0039
 11
1562.0684
 21
1753.4985
  0
LINE
  8
0-2
  6
CONTINUOUS
 62
    3
 10
1562.0684
 20
1753.4985
 11
1563.6479
 21
1754.3063
  0
LINE
  8
0-2
  6
CONTINUOUS
 62
    3
 10
1563.6479
 20
1754.3063
 11
1565.0756
 21
1755.4025
  0
LINE
  8
0-2
  6
CONTINUOUS
 62
    3
 10
1565.0756
 20
1755.4025
 11
1566.308
 21
1756.7539
  0
LINE
  8
0-2
  6
CONTINUOUS
 62
    3
 10
1566.308
 20
1756.7539
 11
1567.3076
 21
1758.3195
  0
LINE
  8
0-2
  6
CONTINUOUS
 62
    3
 10
1567.3076
 20
1758.3195
 11
1568.0442
 21
1760.0517
  0
LINE
  8
0-2
  6
CONTINUOUS
 62
    3
 10
1568.0442
 20
1760.0517
 11
1568.4952
 21
1761.8978
  0
LINE
  8
0-2
  6
CONTINUOUS
 62
    3
 10
1568.4952
 20
1761.8978
 11
1568.6471
 21
1763.8017
  0
LINE
  8
0-2
  6
CONTINUOUS
 62
    3
 10
1568.6471
 20
1763.8017
 11
1568.4952
 21
1765.7056
  0
LINE
  8
0-2
  6
CONTINUOUS
 62
    3
 10
1568.4952
 20
1765.7056
 11
1568.0442
 21
1767.5517
  0
LINE
  8
0-2
  6
CONTINUOUS
 62
    3
 10
1568.0442
 20
1767.5517
 11
1567.3076
 21
1769.2839
  0
LINE
  8
0-2
  6
CONTINUOUS
 62
    3
 10
1567.3076
 20
1769.2839
 11
1566.308
 21
1770.8495
  0
LINE
  8
0-2
  6
CONTINUOUS
 62
    3
 10
1566.308
 20
1770.8495
 11
1565.0756
 21
1772.2009
  0
LINE
  8
0-2
  6
CONTINUOUS
 62
    3
 10
1565.0756
 20
1772.2009
 11
1563.6479
 21
1773.2971
  0
LINE
  8
0-2
  6
CONTINUOUS
 62
    3
 10
1563.6479
 20
1773.2971
 11
1562.0684
 21
1774.1049
  0
LINE
  8
0-2
  6
CONTINUOUS
 62
    3
 10
1562.0684
 20
1774.1049
 11
1560.3849
 21
1774.5995
  0
LINE
  8
0-2
  6
CONTINUOUS
 62
    3
 10
1560.3849
 20
1774.5995
 11
1558.6487
 21
1774.7661
  0
LINE
  8
0-2
  6
CONTINUOUS
 62
    3
 10
1069.1618
 20
1997.4871
 11
1069.6856
 21
1995.5743
  0
LINE
  8
0-2
  6
CONTINUOUS
 62
    3
 10
1069.6856
 20
1995.5743
 11
1070.5044
 21
1993.7904
  0
LINE
  8
0-2
  6
CONTINUOUS
 62
    3
 10
1070.5044
 20
1993.7904
 11
1071.5932
 21
1992.1895
  0
LINE
  8
0-2
  6
CONTINUOUS
 62
    3
 10
1071.5932
 20
1992.1895
 11
1072.9189
 21
1990.8202
  0
LINE
  8
0-2
  6
CONTINUOUS
 62
    3
 10
1072.9189
 20
1990.8202
 11
1074.4414
 21
1989.7242
  0
LINE
  8
0-2
  6
CONTINUOUS
 62
    3
 10
1074.4414
 20
1989.7242
 11
1076.1143
 21
1988.9348
  0
LINE
  8
0-2
  6
CONTINUOUS
 62
    3
 10
1076.1143
 20
1988.9348
 11
1077.8867
 21
1988.4759
  0
LINE
  8
0-2
  6
CONTINUOUS
 62
    3
 10
1077.8867
 20
1988.4759
 11
1079.7049
 21
1988.3615
  0
LINE
  8
0-2
  6
CONTINUOUS
 62
    3
 10
1079.7049
 20
1988.3615
 11
1081.5136
 21
1988.595
  0
LINE
  8
0-2
  6
CONTINUOUS
 62
    3
 10
1081.5136
 20
1988.595
 11
1083.2579
 21
1989.1695
  0
LINE
  8
0-2
  6
CONTINUOUS
 62
    3
 10
1083.2579
 20
1989.1695
 11
1084.8846
 21
1990.0673
  0
LINE
  8
0-2
  6
CONTINUOUS
 62
    3
 10
1084.8846
 20
1990.0673
 11
1086.3445
 21
1991.2613
  0
LINE
  8
0-2
  6
CONTINUOUS
 62
    3
 10
1086.3445
 20
1991.2613
 11
1087.5931
 21
1992.7152
  0
LINE
  8
0-2
  6
CONTINUOUS
 62
    3
 10
1087.5931
 20
1992.7152
 11
1088.5926
 21
1994.3847
  0
LINE
  8
0-2
  6
CONTINUOUS
 62
    3
 10
1088.5926
 20
1994.3847
 11
1089.3125
 21
1996.2192
  0
LINE
  8
0-2
  6
CONTINUOUS
 62
    3
 10
1089.3125
 20
1996.2192
 11
1089.6223
 21
1997.4871
  0
LINE
  8
0-2
  6
CONTINUOUS
 62
    3
 10
1345.4238
 20
1784.8554
 11
1345.515
 21
1783.7129
  0
LINE
  8
0-2
  6
CONTINUOUS
 62
    3
 10
1345.515
 20
1783.7129
 11
1345.7856
 21
1782.6052
  0
LINE
  8
0-2
  6
CONTINUOUS
 62
    3
 10
1345.7856
 20
1782.6052
 11
1346.2276
 21
1781.5659
  0
LINE
  8
0-2
  6
CONTINUOUS
 62
    3
 10
1346.2276
 20
1781.5659
 11
1346.8274
 21
1780.6265
  0
LINE
  8
0-2
  6
CONTINUOUS
 62
    3
 10
1346.8274
 20
1780.6265
 11
1347.5669
 21
1779.8156
  0
LINE
  8
0-2
  6
CONTINUOUS
 62
    3
 10
1347.5669
 20
1779.8156
 11
1348.4235
 21
1779.1578
  0
LINE
  8
0-2
  6
CONTINUOUS
 62
    3
 10
1348.4235
 20
1779.1578
 11
1349.3713
 21
1778.6732
  0
LINE
  8
0-2
  6
CONTINUOUS
 62
    3
 10
1349.3713
 20
1778.6732
 11
1350.3814
 21
1778.3764
  0
LINE
  8
0-2
  6
CONTINUOUS
 62
    3
 10
1350.3814
 20
1778.3764
 11
1351.4232
 21
1778.2764
  0
LINE
  8
0-2
  6
CONTINUOUS
 62
    3
 10
1351.4232
 20
1778.2764
 11
1352.4649
 21
1778.3764
  0
LINE
  8
0-2
  6
CONTINUOUS
 62
    3
 10
1352.4649
 20
1778.3764
 11
1353.4751
 21
1778.6732
  0
LINE
  8
0-2
  6
CONTINUOUS
 62
    3
 10
1353.4751
 20
1778.6732
 11
1354.4228
 21
1779.1578
  0
LINE
  8
0-2
  6
CONTINUOUS
 62
    3
 10
1354.4228
 20
1779.1578
 11
1355.2795
 21
1779.8156
  0
LINE
  8
0-2
  6
CONTINUOUS
 62
    3
 10
1355.2795
 20
1779.8156
 11
1356.0189
 21
1780.6265
  0
LINE
  8
0-2
  6
CONTINUOUS
 62
    3
 10
1356.0189
 20
1780.6265
 11
1356.6187
 21
1781.5659
  0
LINE
  8
0-2
  6
CONTINUOUS
 62
    3
 10
1356.6187
 20
1781.5659
 11
1357.0607
 21
1782.6052
  0
LINE
  8
0-2
  6
CONTINUOUS
 62
    3
 10
1357.0607
 20
1782.6052
 11
1357.3314
 21
1783.7129
  0
LINE
  8
0-2
  6
CONTINUOUS
 62
    3
 10
1357.3314
 20
1783.7129
 11
1357.4225
 21
1784.8554
  0
LINE
  8
0-2
  6
CONTINUOUS
 62
    3
 10
1357.4225
 20
1784.8554
 11
1357.3314
 21
1785.9978
  0
LINE
  8
0-2
  6
CONTINUOUS
 62
    3
 10
1357.3314
 20
1785.9978
 11
1357.0607
 21
1787.1055
  0
LINE
  8
0-2
  6
CONTINUOUS
 62
    3
 10
1357.0607
 20
1787.1055
 11
1356.6187
 21
1788.1448
  0
LINE
  8
0-2
  6
CONTINUOUS
 62
    3
 10
1356.6187
 20
1788.1448
 11
1356.0189
 21
1789.0842
  0
LINE
  8
0-2
  6
CONTINUOUS
 62
    3
 10
1356.0189
 20
1789.0842
 11
1355.2795
 21
1789.8951
  0
LINE
  8
0-2
  6
CONTINUOUS
 62
    3
 10
1355.2795
 20
1789.8951
 11
1354.4228
 21
1790.5529
  0
LINE
  8
0-2
  6
CONTINUOUS
 62
    3
 10
1354.4228
 20
1790.5529
 11
1353.4751
 21
1791.0375
  0
LINE
  8
0-2
  6
CONTINUOUS
 62
    3
 10
1353.4751
 20
1791.0375
 11
1352.4649
 21
1791.3344
  0
LINE
  8
0-2
  6
CONTINUOUS
 62
    3
 10
1352.4649
 20
1791.3344
 11
1351.4232
 21
1791.4343
  0
LINE
  8
0-2
  6
CONTINUOUS
 62
    3
 10
1351.4232
 20
1791.4343
 11
1350.3814
 21
1791.3344
  0
LINE
  8
0-2
  6
CONTINUOUS
 62
    3
 10
1350.3814
 20
1791.3344
 11
1349.3713
 21
1791.0375
  0
LINE
  8
0-2
  6
CONTINUOUS
 62
    3
 10
1349.3713
 20
1791.0375
 11
1348.4235
 21
1790.5529
  0
LINE
  8
0-2
  6
CONTINUOUS
 62
    3
 10
1348.4235
 20
1790.5529
 11
1347.5669
 21
1789.8951
  0
LINE
  8
0-2
  6
CONTINUOUS
 62
    3
 10
1347.5669
 20
1789.8951
 11
1346.8274
 21
1789.0842
  0
LINE
  8
0-2
  6
CONTINUOUS
 62
    3
 10
1346.8274
 20
1789.0842
 11
1346.2276
 21
1788.1448
  0
LINE
  8
0-2
  6
CONTINUOUS
 62
    3
 10
1346.2276
 20
1788.1448
 11
1345.7856
 21
1787.1055
  0
LINE
  8
0-2
  6
CONTINUOUS
 62
    3
 10
1345.7856
 20
1787.1055
 11
1345.515
 21
1785.9978
  0
LINE
  8
0-2
  6
CONTINUOUS
 62
    3
 10
1345.515
 20
1785.9978
 11
1345.4238
 21
1784.8554
  0
LINE
  8
0-2
  6
CONTINUOUS
 62
    3
 10
1345.4238
 20
1844.9391
 11
1345.515
 21
1843.7967
  0
LINE
  8
0-2
  6
CONTINUOUS
 62
    3
 10
1345.515
 20
1843.7967
 11
1345.7856
 21
1842.6889
  0
LINE
  8
0-2
  6
CONTINUOUS
 62
    3
 10
1345.7856
 20
1842.6889
 11
1346.2276
 21
1841.6496
  0
LINE
  8
0-2
  6
CONTINUOUS
 62
    3
 10
1346.2276
 20
1841.6496
 11
1346.8274
 21
1840.7102
  0
LINE
  8
0-2
  6
CONTINUOUS
 62
    3
 10
1346.8274
 20
1840.7102
 11
1347.5669
 21
1839.8993
  0
LINE
  8
0-2
  6
CONTINUOUS
 62
    3
 10
1347.5669
 20
1839.8993
 11
1348.4235
 21
1839.2415
  0
LINE
  8
0-2
  6
CONTINUOUS
 62
    3
 10
1348.4235
 20
1839.2415
 11
1349.3713
 21
1838.7569
  0
LINE
  8
0-2
  6
CONTINUOUS
 62
    3
 10
1349.3713
 20
1838.7569
 11
1350.3814
 21
1838.4601
  0
LINE
  8
0-2
  6
CONTINUOUS
 62
    3
 10
1350.3814
 20
1838.4601
 11
1351.4232
 21
1838.3601
  0
LINE
  8
0-2
  6
CONTINUOUS
 62
    3
 10
1351.4232
 20
1838.3601
 11
1352.4649
 21
1838.4601
  0
LINE
  8
0-2
  6
CONTINUOUS
 62
    3
 10
1352.4649
 20
1838.4601
 11
1353.4751
 21
1838.7569
  0
LINE
  8
0-2
  6
CONTINUOUS
 62
    3
 10
1353.4751
 20
1838.7569
 11
1354.4228
 21
1839.2415
  0
LINE
  8
0-2
  6
CONTINUOUS
 62
    3
 10
1354.4228
 20
1839.2415
 11
1355.2795
 21
1839.8993
  0
LINE
  8
0-2
  6
CONTINUOUS
 62
    3
 10
1355.2795
 20
1839.8993
 11
1356.0189
 21
1840.7102
  0
LINE
  8
0-2
  6
CONTINUOUS
 62
    3
 10
1356.0189
 20
1840.7102
 11
1356.6187
 21
1841.6496
  0
LINE
  8
0-2
  6
CONTINUOUS
 62
    3
 10
1356.6187
 20
1841.6496
 11
1357.0607
 21
1842.6889
  0
LINE
  8
0-2
  6
CONTINUOUS
 62
    3
 10
1357.0607
 20
1842.6889
 11
1357.3314
 21
1843.7967
  0
LINE
  8
0-2
  6
CONTINUOUS
 62
    3
 10
1357.3314
 20
1843.7967
 11
1357.4225
 21
1844.9391
  0
LINE
  8
0-2
  6
CONTINUOUS
 62
    3
 10
1357.4225
 20
1844.9391
 11
1357.3314
 21
1846.0815
  0
LINE
  8
0-2
  6
CONTINUOUS
 62
    3
 10
1357.3314
 20
1846.0815
 11
1357.0607
 21
1847.1892
  0
LINE
  8
0-2
  6
CONTINUOUS
 62
    3
 10
1357.0607
 20
1847.1892
 11
1356.6187
 21
1848.2285
  0
LINE
  8
0-2
  6
CONTINUOUS
 62
    3
 10
1356.6187
 20
1848.2285
 11
1356.0189
 21
1849.1679
  0
LINE
  8
0-2
  6
CONTINUOUS
 62
    3
 10
1356.0189
 20
1849.1679
 11
1355.2795
 21
1849.9788
  0
LINE
  8
0-2
  6
CONTINUOUS
 62
    3
 10
1355.2795
 20
1849.9788
 11
1354.4228
 21
1850.6366
  0
LINE
  8
0-2
  6
CONTINUOUS
 62
    3
 10
1354.4228
 20
1850.6366
 11
1353.4751
 21
1851.1213
  0
LINE
  8
0-2
  6
CONTINUOUS
 62
    3
 10
1353.4751
 20
1851.1213
 11
1352.4649
 21
1851.4181
  0
LINE
  8
0-2
  6
CONTINUOUS
 62
    3
 10
1352.4649
 20
1851.4181
 11
1351.4232
 21
1851.518
  0
LINE
  8
0-2
  6
CONTINUOUS
 62
    3
 10
1351.4232
 20
1851.518
 11
1350.3814
 21
1851.4181
  0
LINE
  8
0-2
  6
CONTINUOUS
 62
    3
 10
1350.3814
 20
1851.4181
 11
1349.3713
 21
1851.1213
  0
LINE
  8
0-2
  6
CONTINUOUS
 62
    3
 10
1349.3713
 20
1851.1213
 11
1348.4235
 21
1850.6366
  0
LINE
  8
0-2
  6
CONTINUOUS
 62
    3
 10
1348.4235
 20
1850.6366
 11
1347.5669
 21
1849.9788
  0
LINE
  8
0-2
  6
CONTINUOUS
 62
    3
 10
1347.5669
 20
1849.9788
 11
1346.8274
 21
1849.1679
  0
LINE
  8
0-2
  6
CONTINUOUS
 62
    3
 10
1346.8274
 20
1849.1679
 11
1346.2276
 21
1848.2285
  0
LINE
  8
0-2
  6
CONTINUOUS
 62
    3
 10
1346.2276
 20
1848.2285
 11
1345.7856
 21
1847.1892
  0
LINE
  8
0-2
  6
CONTINUOUS
 62
    3
 10
1345.7856
 20
1847.1892
 11
1345.515
 21
1846.0815
  0
LINE
  8
0-2
  6
CONTINUOUS
 62
    3
 10
1345.515
 20
1846.0815
 11
1345.4238
 21
1844.9391
  0
LINE
  8
0-2
  6
CONTINUOUS
 62
    3
 10
1345.4238
 20
1340.82
 11
1345.515
 21
1339.6776
  0
LINE
  8
0-2
  6
CONTINUOUS
 62
    3
 10
1345.515
 20
1339.6776
 11
1345.7856
 21
1338.5699
  0
LINE
  8
0-2
  6
CONTINUOUS
 62
    3
 10
1345.7856
 20
1338.5699
 11
1346.2276
 21
1337.5305
  0
LINE
  8
0-2
  6
CONTINUOUS
 62
    3
 10
1346.2276
 20
1337.5305
 11
1346.8274
 21
1336.5911
  0
LINE
  8
0-2
  6
CONTINUOUS
 62
    3
 10
1346.8274
 20
1336.5911
 11
1347.5669
 21
1335.7802
  0
LINE
  8
0-2
  6
CONTINUOUS
 62
    3
 10
1347.5669
 20
1335.7802
 11
1348.4235
 21
1335.1225
  0
LINE
  8
0-2
  6
CONTINUOUS
 62
    3
 10
1348.4235
 20
1335.1225
 11
1349.3713
 21
1334.6378
  0
LINE
  8
0-2
  6
CONTINUOUS
 62
    3
 10
1349.3713
 20
1334.6378
 11
1350.3814
 21
1334.341
  0
LINE
  8
0-2
  6
CONTINUOUS
 62
    3
 10
1350.3814
 20
1334.341
 11
1351.4232
 21
1334.2411
  0
LINE
  8
0-2
  6
CONTINUOUS
 62
    3
 10
1351.4232
 20
1334.2411
 11
1352.4649
 21
1334.341
  0
LINE
  8
0-2
  6
CONTINUOUS
 62
    3
 10
1352.4649
 20
1334.341
 11
1353.4751
 21
1334.6378
  0
LINE
  8
0-2
  6
CONTINUOUS
 62
    3
 10
1353.4751
 20
1334.6378
 11
1354.4228
 21
1335.1225
  0
LINE
  8
0-2
  6
CONTINUOUS
 62
    3
 10
1354.4228
 20
1335.1225
 11
1355.2795
 21
1335.7802
  0
LINE
  8
0-2
  6
CONTINUOUS
 62
    3
 10
1355.2795
 20
1335.7802
 11
1356.0189
 21
1336.5911
  0
LINE
  8
0-2
  6
CONTINUOUS
 62
    3
 10
1356.0189
 20
1336.5911
 11
1356.6187
 21
1337.5305
  0
LINE
  8
0-2
  6
CONTINUOUS
 62
    3
 10
1356.6187
 20
1337.5305
 11
1357.0607
 21
1338.5699
  0
LINE
  8
0-2
  6
CONTINUOUS
 62
    3
 10
1357.0607
 20
1338.5699
 11
1357.3314
 21
1339.6776
  0
LINE
  8
0-2
  6
CONTINUOUS
 62
    3
 10
1357.3314
 20
1339.6776
 11
1357.4225
 21
1340.82
  0
LINE
  8
0-2
  6
CONTINUOUS
 62
    3
 10
1357.4225
 20
1340.82
 11
1357.3314
 21
1341.9624
  0
LINE
  8
0-2
  6
CONTINUOUS
 62
    3
 10
1357.3314
 20
1341.9624
 11
1357.0607
 21
1343.0701
  0
LINE
  8
0-2
  6
CONTINUOUS
 62
    3
 10
1357.0607
 20
1343.0701
 11
1356.6187
 21
1344.1095
  0
LINE
  8
0-2
  6
CONTINUOUS
 62
    3
 10
1356.6187
 20
1344.1095
 11
1356.0189
 21
1345.0489
  0
LINE
  8
0-2
  6
CONTINUOUS
 62
    3
 10
1356.0189
 20
1345.0489
 11
1355.2795
 21
1345.8598
  0
LINE
  8
0-2
  6
CONTINUOUS
 62
    3
 10
1355.2795
 20
1345.8598
 11
1354.4228
 21
1346.5175
  0
LINE
  8
0-2
  6
CONTINUOUS
 62
    3
 10
1354.4228
 20
1346.5175
 11
1353.4751
 21
1347.0022
  0
LINE
  8
0-2
  6
CONTINUOUS
 62
    3
 10
1353.4751
 20
1347.0022
 11
1352.4649
 21
1347.299
  0
LINE
  8
0-2
  6
CONTINUOUS
 62
    3
 10
1352.4649
 20
1347.299
 11
1351.4232
 21
1347.3989
  0
LINE
  8
0-2
  6
CONTINUOUS
 62
    3
 10
1351.4232
 20
1347.3989
 11
1350.3814
 21
1347.299
  0
LINE
  8
0-2
  6
CONTINUOUS
 62
    3
 10
1350.3814
 20
1347.299
 11
1349.3713
 21
1347.0022
  0
LINE
  8
0-2
  6
CONTINUOUS
 62
    3
 10
1349.3713
 20
1347.0022
 11
1348.4235
 21
1346.5175
  0
LINE
  8
0-2
  6
CONTINUOUS
 62
    3
 10
1348.4235
 20
1346.5175
 11
1347.5669
 21
1345.8598
  0
LINE
  8
0-2
  6
CONTINUOUS
 62
    3
 10
1347.5669
 20
1345.8598
 11
1346.8274
 21
1345.0489
  0
LINE
  8
0-2
  6
CONTINUOUS
 62
    3
 10
1346.8274
 20
1345.0489
 11
1346.2276
 21
1344.1095
  0
LINE
  8
0-2
  6
CONTINUOUS
 62
    3
 10
1346.2276
 20
1344.1095
 11
1345.7856
 21
1343.0701
  0
LINE
  8
0-2
  6
CONTINUOUS
 62
    3
 10
1345.7856
 20
1343.0701
 11
1345.515
 21
1341.9624
  0
LINE
  8
0-2
  6
CONTINUOUS
 62
    3
 10
1345.515
 20
1341.9624
 11
1345.4238
 21
1340.82
  0
LINE
  8
0-2
  6
CONTINUOUS
 62
    3
 10
1345.4238
 20
1280.7362
 11
1345.515
 21
1279.5937
  0
LINE
  8
0-2
  6
CONTINUOUS
 62
    3
 10
1345.515
 20
1279.5937
 11
1345.7856
 21
1278.486
  0
LINE
  8
0-2
  6
CONTINUOUS
 62
    3
 10
1345.7856
 20
1278.486
 11
1346.2276
 21
1277.4467
  0
LINE
  8
0-2
  6
CONTINUOUS
 62
    3
 10
1346.2276
 20
1277.4467
 11
1346.8274
 21
1276.5073
  0
LINE
  8
0-2
  6
CONTINUOUS
 62
    3
 10
1346.8274
 20
1276.5073
 11
1347.5669
 21
1275.6964
  0
LINE
  8
0-2
  6
CONTINUOUS
 62
    3
 10
1347.5669
 20
1275.6964
 11
1348.4235
 21
1275.0386
  0
LINE
  8
0-2
  6
CONTINUOUS
 62
    3
 10
1348.4235
 20
1275.0386
 11
1349.3713
 21
1274.554
  0
LINE
  8
0-2
  6
CONTINUOUS
 62
    3
 10
1349.3713
 20
1274.554
 11
1350.3814
 21
1274.2572
  0
LINE
  8
0-2
  6
CONTINUOUS
 62
    3
 10
1350.3814
 20
1274.2572
 11
1351.4232
 21
1274.1572
  0
LINE
  8
0-2
  6
CONTINUOUS
 62
    3
 10
1351.4232
 20
1274.1572
 11
1352.4649
 21
1274.2572
  0
LINE
  8
0-2
  6
CONTINUOUS
 62
    3
 10
1352.4649
 20
1274.2572
 11
1353.4751
 21
1274.554
  0
LINE
  8
0-2
  6
CONTINUOUS
 62
    3
 10
1353.4751
 20
1274.554
 11
1354.4228
 21
1275.0386
  0
LINE
  8
0-2
  6
CONTINUOUS
 62
    3
 10
1354.4228
 20
1275.0386
 11
1355.2795
 21
1275.6964
  0
LINE
  8
0-2
  6
CONTINUOUS
 62
    3
 10
1355.2795
 20
1275.6964
 11
1356.0189
 21
1276.5073
  0
LINE
  8
0-2
  6
CONTINUOUS
 62
    3
 10
1356.0189
 20
1276.5073
 11
1356.6187
 21
1277.4467
  0
LINE
  8
0-2
  6
CONTINUOUS
 62
    3
 10
1356.6187
 20
1277.4467
 11
1357.0607
 21
1278.486
  0
LINE
  8
0-2
  6
CONTINUOUS
 62
    3
 10
1357.0607
 20
1278.486
 11
1357.3314
 21
1279.5937
  0
LINE
  8
0-2
  6
CONTINUOUS
 62
    3
 10
1357.3314
 20
1279.5937
 11
1357.4225
 21
1280.7362
  0
LINE
  8
0-2
  6
CONTINUOUS
 62
    3
 10
1357.4225
 20
1280.7362
 11
1357.3314
 21
1281.8786
  0
LINE
  8
0-2
  6
CONTINUOUS
 62
    3
 10
1357.3314
 20
1281.8786
 11
1357.0607
 21
1282.9863
  0
LINE
  8
0-2
  6
CONTINUOUS
 62
    3
 10
1357.0607
 20
1282.9863
 11
1356.6187
 21
1284.0256
  0
LINE
  8
0-2
  6
CONTINUOUS
 62
    3
 10
1356.6187
 20
1284.0256
 11
1356.0189
 21
1284.965
  0
LINE
  8
0-2
  6
CONTINUOUS
 62
    3
 10
1356.0189
 20
1284.965
 11
1355.2795
 21
1285.7759
  0
LINE
  8
0-2
  6
CONTINUOUS
 62
    3
 10
1355.2795
 20
1285.7759
 11
1354.4228
 21
1286.4337
  0
LINE
  8
0-2
  6
CONTINUOUS
 62
    3
 10
1354.4228
 20
1286.4337
 11
1353.4751
 21
1286.9183
  0
LINE
  8
0-2
  6
CONTINUOUS
 62
    3
 10
1353.4751
 20
1286.9183
 11
1352.4649
 21
1287.2152
  0
LINE
  8
0-2
  6
CONTINUOUS
 62
    3
 10
1352.4649
 20
1287.2152
 11
1351.4232
 21
1287.3151
  0
LINE
  8
0-2
  6
CONTINUOUS
 62
    3
 10
1351.4232
 20
1287.3151
 11
1350.3814
 21
1287.2152
  0
LINE
  8
0-2
  6
CONTINUOUS
 62
    3
 10
1350.3814
 20
1287.2152
 11
1349.3713
 21
1286.9183
  0
LINE
  8
0-2
  6
CONTINUOUS
 62
    3
 10
1349.3713
 20
1286.9183
 11
1348.4235
 21
1286.4337
  0
LINE
  8
0-2
  6
CONTINUOUS
 62
    3
 10
1348.4235
 20
1286.4337
 11
1347.5669
 21
1285.7759
  0
LINE
  8
0-2
  6
CONTINUOUS
 62
    3
 10
1347.5669
 20
1285.7759
 11
1346.8274
 21
1284.965
  0
LINE
  8
0-2
  6
CONTINUOUS
 62
    3
 10
1346.8274
 20
1284.965
 11
1346.2276
 21
1284.0256
  0
LINE
  8
0-2
  6
CONTINUOUS
 62
    3
 10
1346.2276
 20
1284.0256
 11
1345.7856
 21
1282.9863
  0
LINE
  8
0-2
  6
CONTINUOUS
 62
    3
 10
1345.7856
 20
1282.9863
 11
1345.515
 21
1281.8786
  0
LINE
  8
0-2
  6
CONTINUOUS
 62
    3
 10
1345.515
 20
1281.8786
 11
1345.4238
 21
1280.7362
  0
LINE
  8
0-2
  6
CONTINUOUS
 62
    3
 10
1089.6223
 20
1128.1884
 11
1089.0984
 21
1130.1012
  0
LINE
  8
0-2
  6
CONTINUOUS
 62
    3
 10
1089.0984
 20
1130.1012
 11
1088.2797
 21
1131.8851
  0
LINE
  8
0-2
  6
CONTINUOUS
 62
    3
 10
1088.2797
 20
1131.8851
 11
1087.1909
 21
1133.486
  0
LINE
  8
0-2
  6
CONTINUOUS
 62
    3
 10
1087.1909
 20
1133.486
 11
1085.8651
 21
1134.8553
  0
LINE
  8
0-2
  6
CONTINUOUS
 62
    3
 10
1085.8651
 20
1134.8553
 11
1084.3426
 21
1135.9513
  0
LINE
  8
0-2
  6
CONTINUOUS
 62
    3
 10
1084.3426
 20
1135.9513
 11
1082.6698
 21
1136.7407
  0
LINE
  8
0-2
  6
CONTINUOUS
 62
    3
 10
1082.6698
 20
1136.7407
 11
1080.8973
 21
1137.1996
  0
LINE
  8
0-2
  6
CONTINUOUS
 62
    3
 10
1080.8973
 20
1137.1996
 11
1079.0791
 21
1137.314
  0
LINE
  8
0-2
  6
CONTINUOUS
 62
    3
 10
1079.0791
 20
1137.314
 11
1077.2704
 21
1137.0804
  0
LINE
  8
0-2
  6
CONTINUOUS
 62
    3
 10
1077.2704
 20
1137.0804
 11
1075.5262
 21
1136.506
  0
LINE
  8
0-2
  6
CONTINUOUS
 62
    3
 10
1075.5262
 20
1136.506
 11
1073.8994
 21
1135.6081
  0
LINE
  8
0-2
  6
CONTINUOUS
 62
    3
 10
1073.8994
 20
1135.6081
 11
1072.4395
 21
1134.4141
  0
LINE
  8
0-2
  6
CONTINUOUS
 62
    3
 10
1072.4395
 20
1134.4141
 11
1071.1909
 21
1132.9603
  0
LINE
  8
0-2
  6
CONTINUOUS
 62
    3
 10
1071.1909
 20
1132.9603
 11
1070.1915
 21
1131.2908
  0
LINE
  8
0-2
  6
CONTINUOUS
 62
    3
 10
1070.1915
 20
1131.2908
 11
1069.4716
 21
1129.4563
  0
LINE
  8
0-2
  6
CONTINUOUS
 62
    3
 10
1069.4716
 20
1129.4563
 11
1069.1618
 21
1128.1884
  0
LINE
  8
0-2
  6
CONTINUOUS
 62
    3
 10
1268.714
 20
1108.8798
 11
1268.8052
 21
1107.7374
  0
LINE
  8
0-2
  6
CONTINUOUS
 62
    3
 10
1268.8052
 20
1107.7374
 11
1269.0758
 21
1106.6297
  0
LINE
  8
0-2
  6
CONTINUOUS
 62
    3
 10
1269.0758
 20
1106.6297
 11
1269.5178
 21
1105.5903
  0
LINE
  8
0-2
  6
CONTINUOUS
 62
    3
 10
1269.5178
 20
1105.5903
 11
1270.1176
 21
1104.6509
  0
LINE
  8
0-2
  6
CONTINUOUS
 62
    3
 10
1270.1176
 20
1104.6509
 11
1270.8571
 21
1103.84
  0
LINE
  8
0-2
  6
CONTINUOUS
 62
    3
 10
1270.8571
 20
1103.84
 11
1271.7137
 21
1103.1823
  0
LINE
  8
0-2
  6
CONTINUOUS
 62
    3
 10
1271.7137
 20
1103.1823
 11
1272.6615
 21
1102.6976
  0
LINE
  8
0-2
  6
CONTINUOUS
 62
    3
 10
1272.6615
 20
1102.6976
 11
1273.6716
 21
1102.4008
  0
LINE
  8
0-2
  6
CONTINUOUS
 62
    3
 10
1273.6716
 20
1102.4008
 11
1274.7134
 21
1102.3009
  0
LINE
  8
0-2
  6
CONTINUOUS
 62
    3
 10
1274.7134
 20
1102.3009
 11
1275.7551
 21
1102.4008
  0
LINE
  8
0-2
  6
CONTINUOUS
 62
    3
 10
1275.7551
 20
1102.4008
 11
1276.7652
 21
1102.6976
  0
LINE
  8
0-2
  6
CONTINUOUS
 62
    3
 10
1276.7652
 20
1102.6976
 11
1277.713
 21
1103.1823
  0
LINE
  8
0-2
  6
CONTINUOUS
 62
    3
 10
1277.713
 20
1103.1823
 11
1278.5697
 21
1103.84
  0
LINE
  8
0-2
  6
CONTINUOUS
 62
    3
 10
1278.5697
 20
1103.84
 11
1279.3091
 21
1104.6509
  0
LINE
  8
0-2
  6
CONTINUOUS
 62
    3
 10
1279.3091
 20
1104.6509
 11
1279.9089
 21
1105.5903
  0
LINE
  8
0-2
  6
CONTINUOUS
 62
    3
 10
1279.9089
 20
1105.5903
 11
1280.3509
 21
1106.6297
  0
LINE
  8
0-2
  6
CONTINUOUS
 62
    3
 10
1280.3509
 20
1106.6297
 11
1280.6215
 21
1107.7374
  0
LINE
  8
0-2
  6
CONTINUOUS
 62
    3
 10
1280.6215
 20
1107.7374
 11
1280.7127
 21
1108.8798
  0
LINE
  8
0-2
  6
CONTINUOUS
 62
    3
 10
1280.7127
 20
1108.8798
 11
1280.6215
 21
1110.0222
  0
LINE
  8
0-2
  6
CONTINUOUS
 62
    3
 10
1280.6215
 20
1110.0222
 11
1280.3509
 21
1111.1299
  0
LINE
  8
0-2
  6
CONTINUOUS
 62
    3
 10
1280.3509
 20
1111.1299
 11
1279.9089
 21
1112.1693
  0
LINE
  8
0-2
  6
CONTINUOUS
 62
    3
 10
1279.9089
 20
1112.1693
 11
1279.3091
 21
1113.1087
  0
LINE
  8
0-2
  6
CONTINUOUS
 62
    3
 10
1279.3091
 20
1113.1087
 11
1278.5697
 21
1113.9196
  0
LINE
  8
0-2
  6
CONTINUOUS
 62
    3
 10
1278.5697
 20
1113.9196
 11
1277.713
 21
1114.5773
  0
LINE
  8
0-2
  6
CONTINUOUS
 62
    3
 10
1277.713
 20
1114.5773
 11
1276.7652
 21
1115.062
  0
LINE
  8
0-2
  6
CONTINUOUS
 62
    3
 10
1276.7652
 20
1115.062
 11
1275.7551
 21
1115.3588
  0
LINE
  8
0-2
  6
CONTINUOUS
 62
    3
 10
1275.7551
 20
1115.3588
 11
1274.7134
 21
1115.4587
  0
LINE
  8
0-2
  6
CONTINUOUS
 62
    3
 10
1274.7134
 20
1115.4587
 11
1273.6716
 21
1115.3588
  0
LINE
  8
0-2
  6
CONTINUOUS
 62
    3
 10
1273.6716
 20
1115.3588
 11
1272.6615
 21
1115.062
  0
LINE
  8
0-2
  6
CONTINUOUS
 62
    3
 10
1272.6615
 20
1115.062
 11
1271.7137
 21
1114.5773
  0
LINE
  8
0-2
  6
CONTINUOUS
 62
    3
 10
1271.7137
 20
1114.5773
 11
1270.8571
 21
1113.9196
  0
LINE
  8
0-2
  6
CONTINUOUS
 62
    3
 10
1270.8571
 20
1113.9196
 11
1270.1176
 21
1113.1087
  0
LINE
  8
0-2
  6
CONTINUOUS
 62
    3
 10
1270.1176
 20
1113.1087
 11
1269.5178
 21
1112.1693
  0
LINE
  8
0-2
  6
CONTINUOUS
 62
    3
 10
1269.5178
 20
1112.1693
 11
1269.0758
 21
1111.1299
  0
LINE
  8
0-2
  6
CONTINUOUS
 62
    3
 10
1269.0758
 20
1111.1299
 11
1268.8052
 21
1110.0222
  0
LINE
  8
0-2
  6
CONTINUOUS
 62
    3
 10
1268.8052
 20
1110.0222
 11
1268.714
 21
1108.8798
  0
LINE
  8
0-2
  6
CONTINUOUS
 62
    3
 10
1268.714
 20
970.09109
 11
1268.8052
 21
968.94866
  0
LINE
  8
0-2
  6
CONTINUOUS
 62
    3
 10
1268.8052
 20
968.94866
 11
1269.0758
 21
967.84096
  0
LINE
  8
0-2
  6
CONTINUOUS
 62
    3
 10
1269.0758
 20
967.84096
 11
1269.5178
 21
966.80162
  0
LINE
  8
0-2
  6
CONTINUOUS
 62
    3
 10
1269.5178
 20
966.80162
 11
1270.1176
 21
965.86223
  0
LINE
  8
0-2
  6
CONTINUOUS
 62
    3
 10
1270.1176
 20
965.86223
 11
1270.8571
 21
965.05133
  0
LINE
  8
0-2
  6
CONTINUOUS
 62
    3
 10
1270.8571
 20
965.05133
 11
1271.7137
 21
964.39356
  0
LINE
  8
0-2
  6
CONTINUOUS
 62
    3
 10
1271.7137
 20
964.39356
 11
1272.6615
 21
963.90891
  0
LINE
  8
0-2
  6
CONTINUOUS
 62
    3
 10
1272.6615
 20
963.90891
 11
1273.6716
 21
963.6121
  0
LINE
  8
0-2
  6
CONTINUOUS
 62
    3
 10
1273.6716
 20
963.6121
 11
1274.7134
 21
963.51215
  0
LINE
  8
0-2
  6
CONTINUOUS
 62
    3
 10
1274.7134
 20
963.51215
 11
1275.7551
 21
963.6121
  0
LINE
  8
0-2
  6
CONTINUOUS
 62
    3
 10
1275.7551
 20
963.6121
 11
1276.7652
 21
963.90891
  0
LINE
  8
0-2
  6
CONTINUOUS
 62
    3
 10
1276.7652
 20
963.90891
 11
1277.713
 21
964.39356
  0
LINE
  8
0-2
  6
CONTINUOUS
 62
    3
 10
1277.713
 20
964.39356
 11
1278.5697
 21
965.05133
  0
LINE
  8
0-2
  6
CONTINUOUS
 62
    3
 10
1278.5697
 20
965.05133
 11
1279.3091
 21
965.86223
  0
LINE
  8
0-2
  6
CONTINUOUS
 62
    3
 10
1279.3091
 20
965.86223
 11
1279.9089
 21
966.80162
  0
LINE
  8
0-2
  6
CONTINUOUS
 62
    3
 10
1279.9089
 20
966.80162
 11
1280.3509
 21
967.84096
  0
LINE
  8
0-2
  6
CONTINUOUS
 62
    3
 10
1280.3509
 20
967.84096
 11
1280.6215
 21
968.94866
  0
LINE
  8
0-2
  6
CONTINUOUS
 62
    3
 10
1280.6215
 20
968.94866
 11
1280.7127
 21
970.09109
  0
LINE
  8
0-2
  6
CONTINUOUS
 62
    3
 10
1280.7127
 20
970.09109
 11
1280.6215
 21
971.23351
  0
LINE
  8
0-2
  6
CONTINUOUS
 62
    3
 10
1280.6215
 20
971.23351
 11
1280.3509
 21
972.34122
  0
LINE
  8
0-2
  6
CONTINUOUS
 62
    3
 10
1280.3509
 20
972.34122
 11
1279.9089
 21
973.38056
  0
LINE
  8
0-2
  6
CONTINUOUS
 62
    3
 10
1279.9089
 20
973.38056
 11
1279.3091
 21
974.31995
  0
LINE
  8
0-2
  6
CONTINUOUS
 62
    3
 10
1279.3091
 20
974.31995
 11
1278.5697
 21
975.13085
  0
LINE
  8
0-2
  6
CONTINUOUS
 62
    3
 10
1278.5697
 20
975.13085
 11
1277.713
 21
975.78861
  0
LINE
  8
0-2
  6
CONTINUOUS
 62
    3
 10
1277.713
 20
975.78861
 11
1276.7652
 21
976.27327
  0
LINE
  8
0-2
  6
CONTINUOUS
 62
    3
 10
1276.7652
 20
976.27327
 11
1275.7551
 21
976.57008
  0
LINE
  8
0-2
  6
CONTINUOUS
 62
    3
 10
1275.7551
 20
976.57008
 11
1274.7134
 21
976.67002
  0
LINE
  8
0-2
  6
CONTINUOUS
 62
    3
 10
1274.7134
 20
976.67002
 11
1273.6716
 21
976.57008
  0
LINE
  8
0-2
  6
CONTINUOUS
 62
    3
 10
1273.6716
 20
976.57008
 11
1272.6615
 21
976.27327
  0
LINE
  8
0-2
  6
CONTINUOUS
 62
    3
 10
1272.6615
 20
976.27327
 11
1271.7137
 21
975.78861
  0
LINE
  8
0-2
  6
CONTINUOUS
 62
    3
 10
1271.7137
 20
975.78861
 11
1270.8571
 21
975.13085
  0
LINE
  8
0-2
  6
CONTINUOUS
 62
    3
 10
1270.8571
 20
975.13085
 11
1270.1176
 21
974.31995
  0
LINE
  8
0-2
  6
CONTINUOUS
 62
    3
 10
1270.1176
 20
974.31995
 11
1269.5178
 21
973.38056
  0
LINE
  8
0-2
  6
CONTINUOUS
 62
    3
 10
1269.5178
 20
973.38056
 11
1269.0758
 21
972.34122
  0
LINE
  8
0-2
  6
CONTINUOUS
 62
    3
 10
1269.0758
 20
972.34122
 11
1268.8052
 21
971.23351
  0
LINE
  8
0-2
  6
CONTINUOUS
 62
    3
 10
1268.8052
 20
971.23351
 11
1268.714
 21
970.09109
  0
TEXT
  8
0-d
 10
254.9998
 20
157.4999
 40
25
 41
1
 50
0
  1
図
  0
TEXT
  8
0-d
 10
254.9998
 20
97.49997
 40
25
 41
1
 50
0
  1
番
  0
TEXT
  8
0-d
 10
655.00046
 20
157.4999
 40
25
 41
1
 50
0
  1
承
  0
TEXT
  8
0-d
 10
655.00046
 20
97.49997
 40
25
 41
1
 50
0
  1
認
  0
TEXT
  8
0-d
 10
1020.0003
 20
237.49996
 40
25
 41
1
 50
0
  1
尺
  0
TEXT
  8
0-d
 10
1020.0003
 20
197.49979
 40
25
 41
1
 50
0.0000762
  1
度
  0
TEXT
  8
0-d
 10
855.00014
 20
157.4999
 40
25
 41
1
 50
0
  1
製
  0
TEXT
  8
0-d
 10
855.00014
 20
97.49997
 40
25
 41
1
 50
0
  1
図
  0
TEXT
  8
0-d
 10
1555.0001
 20
237.49996
 40
25
 41
1
 50
0
  1
日
  0
TEXT
  8
0-d
 10
1555.0001
 20
197.49979
 40
25
 41
1
 50
0.0000762
  1
付
  0
TEXT
  8
0-d
 10
1111.4263
 20
163.48226
 40
20
 41
1
 50
0
  1
株式
  0
TEXT
  8
0-d
 10
1111.4263
 20
141.85181
 40
20
 41
1
 50
0.0000152
  1
会社
  0
TEXT
  8
0-d
 10
1174.2247
 20
143.24712
 40
40
 41
1
 50
0
  1
スズキベンチレーター
  0
TEXT
  8
0-d
 10
1237.9182
 20
94.024183
 40
20
 41
1
 50
0
  1
TEL(054)296-7000  FAX(054)296-7001
  0
TEXT
  8
0-d
 10
1084.349
 20
210.10066
 40
40
 41
1
 50
0
  1
１／１０
  0
TEXT
  8
0-d
 10
308.45927
 20
140.30214
 40
30
 41
1
 50
0
  1
60-D10a
  0
TEXT
  8
0-8
 10
928.4002
 20
2278.2518
 40
30
 41
1
 50
0
  1
1,020φ
  0
TEXT
  8
0-8
 10
988.31744
 20
800.62734
 40
30
 41
1
 50
0
  1
615φ
  0
TEXT
  8
0-8
 10
294.07636
 20
1452.0583
 40
30
 41
1
 50
90
  1
1,250
  0
TEXT
  8
0-d
 10
255.00006
 20
2792.7014
 40
50
 41
1
 50
0
  1
ＡＳ－６００　自然回転  直付型立面
  0
TEXT
  8
0-d
 10
280.6757
 20
215.81083
 40
30
 41
1
 50
0
  1
ＡＳ－６００　自然回転  直付型立面
  0
TEXT
  8
0-d
 10
1235.6794
 20
118.64593
 40
20
 41
1
 50
0
  1
〒421-2114　静岡市葵区安倍口新田１５２番地
  0
POINT
  8
0-8
 62
    2
 10
538.64868
 20
2262.3661
  0
POINT
  8
0-8
 62
    2
 10
1558.6502
 20
2262.3661
  0
POINT
  8
0-8
 62
    2
 10
308.64884
 20
2137.8376
  0
POINT
  8
0-8
 62
    2
 10
308.64884
 20
887.83912
  0
POINT
  8
0-8
 62
    2
 10
308.64884
 20
887.83949
  0
POINT
  8
0-8
 62
    2
 10
308.64884
 20
887.83788
  0
POINT
  8
0-8
 62
    2
 10
308.64884
 20
887.83912
  0
POINT
  8
0-8
 62
    2
 10
308.64884
 20
887.83788
  0
POINT
  8
0-8
 62
    2
 10
308.64884
 20
887.83912
  0
POINT
  8
0-8
 62
    2
 10
1356.1484
 20
783.54681
  0
POINT
  8
0-8
 62
    2
 10
741.14862
 20
783.54706
  0
ENDSEC
  0
EOF
