  0
SECTION
  2
HEADER
  9
$EXTMIN
 10
0
 20
0
  9
$EXTMAX
 10
6300
 20
4455
  0
ENDSEC
  0
SECTION
  2
TABLES
  0
TABLE
  2
LTYPE
 70
     9
  0
LTYPE
  2
CONTINUOUS
 70
    64
  3
実線
 72
    65
 73
     0
 40
0.0
  0
LTYPE
  2
DASHED1
 70
    64
  3
--  --  --  --  --  --  --  --  
 72
    65
 73
     2
 40
2.5
 49
1.25
 49
-1.25
  0
LTYPE
  2
DASHED2
 70
    64
  3
----    ----    ----    ----    
 72
    65
 73
     2
 40
5.0
 49
2.5
 49
-2.5
  0
LTYPE
  2
DASHED3
 70
    64
  3
------  ------  ------  ------  
 72
    65
 73
     2
 40
5.0
 49
3.75
 49
-1.25
  0
LTYPE
  2
CENTER1
 70
    64
  3
----- - ----- - ----- - ----- - 
 72
    65
 73
     4
 40
10.0
 49
6.25
 49
-1.25
 49
1.25
 49
-1.25
  0
LTYPE
  2
CENTER2
 70
    64
  3
----------  --  ----------  --  
 72
    65
 73
     4
 40
20.0
 49
12.5
 49
-2.5
 49
2.5
 49
-2.5
  0
LTYPE
  2
PHANTOM1
 70
    64
  3
--- - - --- - - --- - - --- - - 
 72
    65
 73
     6
 40
10.0
 49
3.25
 49
-1.25
 49
1.25
 49
-1.25
 49
1.25
 49
-1.25
  0
LTYPE
  2
PHANTOM2
 70
    64
  3
--------  -  -  --------  -  -  
 72
    65
 73
     6
 40
20.0
 49
10.0
 49
-2.5
 49
1.25
 49
-2.5
 49
1.25
 49
-2.5
  0
LTYPE
  2
DOT
 70
    64
  3
-   -   -   -   -   -   -   -   
 72
    65
 73
     2
 40
2.5
 49
0.625
 49
-1.875
  0
ENDTAB
  0
TABLE
  2
STYLE
 70
    1
  0
STYLE
  2
STANDARD
 70
    64
 40
0.0
 41
1.0
 42
0.0
 50
0.0
 71
     0
  3
TXT
  4
BIGFONT
  0
ENDTAB
  0
TABLE
  2
LAYER
 70
    5
  0
LAYER
  2
0-1
 70
   64
 62
    7
  6
CONTINUOUS
  0
LAYER
  2
0-2
 70
   64
 62
    7
  6
CONTINUOUS
  0
LAYER
  2
0-8
 70
   64
 62
    7
  6
CONTINUOUS
  0
LAYER
  2
0-d
 70
   64
 62
    7
  6
CONTINUOUS
  0
LAYER
  2
ADD_LINE
 70
   64
 62
    7
  6
CONTINUOUS
  0
ENDTAB
  0
ENDSEC
  0
SECTION
  2
ENTITIES
  0
LINE
  8
0-d
  6
CONTINUOUS
 62
    7
 10
375.00004
 20
4136.5517
 11
2774.9999
 21
4136.5517
  0
LINE
  8
0-d
  6
CONTINUOUS
 62
    7
 10
375.00004
 20
4151.5521
 11
2774.9999
 21
4151.5521
  0
LINE
  8
0-d
  6
CONTINUOUS
 62
    7
 10
374.99948
 20
284.99981
 11
2775.0003
 21
284.99981
  0
LINE
  8
0-d
  6
CONTINUOUS
 62
    7
 10
374.99948
 20
134.99969
 11
374.99948
 21
404.99984
  0
LINE
  8
0-d
  6
CONTINUOUS
 62
    7
 10
374.99948
 20
134.99969
 11
2775.0003
 21
134.99969
  0
LINE
  8
0-d
  6
CONTINUOUS
 62
    7
 10
2775.0003
 20
404.99984
 11
2775.0003
 21
134.99969
  0
LINE
  8
0-d
  6
CONTINUOUS
 62
    7
 10
374.99948
 20
404.99984
 11
2775.0003
 21
404.99984
  0
LINE
  8
0-d
  6
CONTINUOUS
 62
    7
 10
1574.9999
 20
404.99984
 11
1574.9999
 21
134.99969
  0
LINE
  8
0-d
  6
CONTINUOUS
 62
    7
 10
975.00022
 20
134.99969
 11
975.00022
 21
284.99981
  0
LINE
  8
0-d
  6
CONTINUOUS
 62
    7
 10
1574.9999
 20
284.99981
 11
1574.9999
 21
404.99984
  0
LINE
  8
0-d
  6
CONTINUOUS
 62
    7
 10
1274.9995
 20
134.99969
 11
1274.9995
 21
284.99981
  0
LINE
  8
0-d
  6
CONTINUOUS
 62
    7
 10
427.5
 20
134.99969
 11
427.5
 21
284.99981
  0
LINE
  8
0-d
  6
CONTINUOUS
 62
    7
 10
1027.5
 20
134.99969
 11
1027.5
 21
284.99981
  0
LINE
  8
0-d
  6
CONTINUOUS
 62
    7
 10
1327.5
 20
134.99969
 11
1327.5
 21
284.99981
  0
LINE
  8
0-d
  6
CONTINUOUS
 62
    7
 10
1522.4999
 20
284.99981
 11
1522.4999
 21
404.99984
  0
LINE
  8
0-d
  6
CONTINUOUS
 62
    7
 10
2325.0005
 20
284.99981
 11
2325.0005
 21
404.99984
  0
LINE
  8
0-d
  6
CONTINUOUS
 62
    7
 10
2377.5001
 20
284.99981
 11
2377.5001
 21
404.99984
  0
LINE
  8
0-8
  6
CONTINUOUS
 62
    7
 10
555.53146
 20
2010.7251
 11
555.53146
 21
2420.725
  0
LINE
  8
0-8
  6
CONTINUOUS
 62
    7
 10
1095.0017
 20
2010.7251
 11
555.53146
 21
2010.7251
  0
LINE
  8
0-8
  6
CONTINUOUS
 62
    7
 10
1095.0017
 20
2330.7251
 11
555.53146
 21
2330.7251
  0
LINE
  8
0-8
  6
CONTINUOUS
 62
    7
 10
1095.0017
 20
2420.725
 11
555.53146
 21
2420.725
  0
LINE
  8
0-8
  6
CONTINUOUS
 62
    7
 10
555.53146
 20
510.06833
 11
555.53146
 21
1730.0686
  0
LINE
  8
0-8
  6
CONTINUOUS
 62
    7
 10
1200
 20
1820.9949
 11
1950
 21
1820.9949
  0
LINE
  8
0-8
  6
CONTINUOUS
 62
    7
 10
1289.5081
 20
1020.0689
 11
1860.4949
 21
1220.0676
  0
LINE
  8
0-2
  6
CONTINUOUS
 62
    3
 10
1272.5001
 20
2330.7251
 11
1877.4999
 21
2330.7251
  0
LINE
  8
0-2
  6
CONTINUOUS
 62
    3
 10
1272.5001
 20
2420.725
 11
1877.4999
 21
2420.725
  0
LINE
  8
0-2
  6
CONTINUOUS
 62
    3
 10
1272.5001
 20
2330.7251
 11
1200
 21
2010.7251
  0
LINE
  8
0-2
  6
CONTINUOUS
 62
    3
 10
1877.4999
 20
2330.7251
 11
1950
 21
2010.3231
  0
LINE
  8
0-8
  6
CONTINUOUS
 62
    7
 10
1272.5001
 20
2519.5673
 11
1877.4999
 21
2519.5673
  0
LINE
  8
0-8
  6
CONTINUOUS
 62
    7
 10
1200
 20
1943.0783
 11
1200
 21
1820.9949
  0
LINE
  8
0-8
  6
CONTINUOUS
 62
    7
 10
1950
 20
1943.0783
 11
1950
 21
1820.9949
  0
LINE
  8
0-8
  6
CONTINUOUS
 62
    7
 10
898.16421
 20
1730.0686
 11
555.53146
 21
1730.0686
  0
LINE
  8
0-8
  6
CONTINUOUS
 62
    7
 10
898.16421
 20
510.06833
 11
555.53146
 21
510.06833
  0
LINE
  8
0-8
  6
CONTINUOUS
 62
    7
 10
2251.0644
 20
1495.0682
 11
2594.4691
 21
1495.0682
  0
LINE
  8
0-8
  6
CONTINUOUS
 62
    7
 10
2251.0644
 20
745.06885
 11
2594.4691
 21
745.06885
  0
LINE
  8
0-8
  6
CONTINUOUS
 62
    7
 10
1272.5001
 20
2445.7558
 11
1272.5001
 21
2519.5673
  0
LINE
  8
0-8
  6
CONTINUOUS
 62
    7
 10
1877.4999
 20
2445.7558
 11
1877.4999
 21
2519.5673
  0
LINE
  8
0-d
  6
CONTINUOUS
 62
    7
 10
924.56146
 20
1856.1237
 11
1043.1603
 21
1856.1237
  0
LINE
  8
0-d
  6
CONTINUOUS
 62
    7
 10
924.56146
 20
1856.1237
 11
1043.1603
 21
1891.7021
  0
LINE
  8
0-d
  6
CONTINUOUS
 62
    7
 10
1043.1603
 20
1856.1237
 11
1043.1603
 21
1891.7021
  0
LINE
  8
0-2
  6
CONTINUOUS
 62
    3
 10
1272.5001
 20
2420.725
 11
1272.5001
 21
2407.982
  0
LINE
  8
0-2
  6
CONTINUOUS
 62
    3
 10
1272.5001
 20
2395.2382
 11
1272.5001
 21
2330.7251
  0
LINE
  8
0-2
  6
CONTINUOUS
 62
    3
 10
1272.5001
 20
2395.2382
 11
1877.4999
 21
2395.2382
  0
LINE
  8
0-2
  6
CONTINUOUS
 62
    3
 10
1877.4999
 20
2395.2382
 11
1877.4999
 21
2330.7251
  0
LINE
  8
0-2
  6
CONTINUOUS
 62
    3
 10
1272.5001
 20
2407.982
 11
1877.5003
 21
2407.982
  0
LINE
  8
0-2
  6
CONTINUOUS
 62
    3
 10
1877.5003
 20
2420.725
 11
1877.5003
 21
2407.982
  0
LINE
  8
0-2
  6
CONTINUOUS
 62
    3
 10
1200.0002
 20
1495.0682
 11
1282.8085
 21
1412.26
  0
LINE
  8
0-2
  6
CONTINUOUS
 62
    3
 10
1200.0002
 20
1495.0682
 11
1949.9996
 21
1495.0682
  0
LINE
  8
0-2
  6
CONTINUOUS
 62
    3
 10
1950
 20
1495.0685
 11
1867.1917
 21
1412.26
  0
LINE
  8
0-2
  6
CONTINUOUS
 62
    3
 10
1200
 20
1495.0682
 11
1200
 21
745.06885
  0
LINE
  8
0-2
  6
CONTINUOUS
 62
    3
 10
1199.9994
 20
745.0683
 11
1282.8085
 21
827.87649
  0
LINE
  8
0-2
  6
CONTINUOUS
 62
    3
 10
1199.9994
 20
745.0683
 11
1950.0004
 21
745.0683
  0
LINE
  8
0-2
  6
CONTINUOUS
 62
    3
 10
1950
 20
745.06885
 11
1867.1917
 21
827.87649
  0
LINE
  8
0-2
  6
CONTINUOUS
 62
    3
 10
1950
 20
1495.0685
 11
1950
 21
745.06885
  0
LINE
  8
0-2
  6
CONTINUOUS
 62
    3
 10
2185.0002
 20
510.06833
 11
965.00006
 21
510.06833
  0
LINE
  8
0-2
  6
CONTINUOUS
 62
    3
 10
2185.0002
 20
1730.0686
 11
2185.0002
 21
510.06833
  0
LINE
  8
0-8
  6
CONTINUOUS
 62
    7
 10
2594.4691
 20
745.06885
 11
2594.4691
 21
1495.0682
  0
LINE
  8
0-2
  6
CONTINUOUS
 62
    3
 10
965.00006
 20
1730.0686
 11
1138.8806
 21
1730.0686
  0
LINE
  8
0-2
  6
CONTINUOUS
 62
    3
 10
965.00006
 20
1730.0686
 11
2185.0002
 21
1730.0686
  0
LINE
  8
0-2
  6
CONTINUOUS
 62
    3
 10
965.00006
 20
510.06833
 11
965.00006
 21
1730.0686
  0
LINE
  8
0-2
  6
CONTINUOUS
 62
    3
 10
2184.9998
 20
1942.0518
 11
1574.9999
 21
2125.4246
  0
LINE
  8
0-2
  6
CONTINUOUS
 62
    3
 10
1574.9999
 20
2125.4246
 11
965.00006
 21
1942.4319
  0
LINE
  8
0-1
  6
CENTER2
 62
    7
 10
965.00006
 20
1120.0685
 11
2185.0002
 21
1120.0685
  0
LINE
  8
0-8
  6
CONTINUOUS
 62
    7
 10
1065.0001
 20
4042.3387
 11
2085.0016
 21
4042.3387
  0
LINE
  8
0-8
  6
CONTINUOUS
 62
    7
 10
2085.0016
 20
3869.6392
 11
2085.0016
 21
4042.3387
  0
LINE
  8
0-8
  6
CONTINUOUS
 62
    7
 10
1065.0001
 20
4042.3387
 11
1065.0001
 21
3869.6392
  0
LINE
  8
0-2
  6
CONTINUOUS
 62
    3
 10
1065.0012
 20
3130.8807
 11
1065.0001
 21
3039.7391
  0
LINE
  8
0-2
  6
CONTINUOUS
 62
    3
 10
1064.9997
 20
3645.88
 11
2085.0012
 21
3645.88
  0
LINE
  8
0-2
  6
CONTINUOUS
 62
    3
 10
1064.9997
 20
3667.8104
 11
2085.0012
 21
3667.8104
  0
LINE
  8
0-2
  6
CONTINUOUS
 62
    3
 10
1064.9997
 20
3645.88
 11
1064.9997
 21
3554.7391
  0
LINE
  8
0-2
  6
CONTINUOUS
 62
    3
 10
1065.0001
 20
3017.8102
 11
1165.0002
 21
2908.1609
  0
LINE
  8
0-2
  6
CONTINUOUS
 62
    3
 10
1574.9999
 20
3917.8102
 11
1324.3301
 21
3783.244
  0
LINE
  8
0-2
  6
CONTINUOUS
 62
    3
 10
1064.9997
 20
3667.8104
 11
1165.0002
 21
3777.4584
  0
LINE
  8
0-2
  6
CONTINUOUS
 62
    3
 10
1486.1528
 20
3768.3961
 11
1486.9757
 21
3768.6366
  0
LINE
  8
0-2
  6
CONTINUOUS
 62
    3
 10
1486.9757
 20
3768.6366
 11
1487.7492
 21
3768.9662
  0
LINE
  8
0-2
  6
CONTINUOUS
 62
    3
 10
1487.7492
 20
3768.9662
 11
1488.4726
 21
3769.3753
  0
LINE
  8
0-2
  6
CONTINUOUS
 62
    3
 10
1488.4726
 20
3769.3753
 11
1489.1481
 21
3769.8592
  0
LINE
  8
0-2
  6
CONTINUOUS
 62
    3
 10
1489.1481
 20
3769.8592
 11
1489.7761
 21
3770.413
  0
LINE
  8
0-2
  6
CONTINUOUS
 62
    3
 10
1489.7761
 20
3770.413
 11
1490.3577
 21
3771.0284
  0
LINE
  8
0-2
  6
CONTINUOUS
 62
    3
 10
1490.3577
 20
3771.0284
 11
1490.8936
 21
3771.6995
  0
LINE
  8
0-2
  6
CONTINUOUS
 62
    3
 10
1490.8936
 20
3771.6995
 11
1491.385
 21
3772.4217
  0
LINE
  8
0-2
  6
CONTINUOUS
 62
    3
 10
1491.385
 20
3772.4217
 11
1491.833
 21
3773.1871
  0
LINE
  8
0-2
  6
CONTINUOUS
 62
    3
 10
1491.833
 20
3773.1871
 11
1492.2376
 21
3773.9903
  0
LINE
  8
0-2
  6
CONTINUOUS
 62
    3
 10
1492.2376
 20
3773.9903
 11
1492.5995
 21
3774.8261
  0
LINE
  8
0-2
  6
CONTINUOUS
 62
    3
 10
1492.5995
 20
3774.8261
 11
1492.9216
 21
3775.6857
  0
LINE
  8
0-2
  6
CONTINUOUS
 62
    3
 10
1492.9216
 20
3775.6857
 11
1493.2026
 21
3776.5661
  0
LINE
  8
0-2
  6
CONTINUOUS
 62
    3
 10
1493.2026
 20
3776.5661
 11
1493.4446
 21
3777.4584
  0
LINE
  8
0-2
  6
CONTINUOUS
 62
    3
 10
1481.6321
 20
3768.3479
 11
1480.6804
 21
3768.6834
  0
LINE
  8
0-2
  6
CONTINUOUS
 62
    3
 10
1480.6804
 20
3768.6834
 11
1479.7874
 21
3769.0791
  0
LINE
  8
0-2
  6
CONTINUOUS
 62
    3
 10
1479.7874
 20
3769.0791
 11
1478.9523
 21
3769.5334
  0
LINE
  8
0-2
  6
CONTINUOUS
 62
    3
 10
1478.9523
 20
3769.5334
 11
1478.1747
 21
3770.0419
  0
LINE
  8
0-2
  6
CONTINUOUS
 62
    3
 10
1478.1747
 20
3770.0419
 11
1477.4543
 21
3770.6016
  0
LINE
  8
0-2
  6
CONTINUOUS
 62
    3
 10
1477.4543
 20
3770.6016
 11
1476.7896
 21
3771.2103
  0
LINE
  8
0-2
  6
CONTINUOUS
 62
    3
 10
1476.7896
 20
3771.2103
 11
1476.1809
 21
3771.865
  0
LINE
  8
0-2
  6
CONTINUOUS
 62
    3
 10
1476.1809
 20
3771.865
 11
1475.6275
 21
3772.562
  0
LINE
  8
0-2
  6
CONTINUOUS
 62
    3
 10
1475.6275
 20
3772.562
 11
1475.1279
 21
3773.2977
  0
LINE
  8
0-2
  6
CONTINUOUS
 62
    3
 10
1475.1279
 20
3773.2977
 11
1474.6825
 21
3774.0697
  0
LINE
  8
0-2
  6
CONTINUOUS
 62
    3
 10
1474.6825
 20
3774.0697
 11
1474.2905
 21
3774.8751
  0
LINE
  8
0-2
  6
CONTINUOUS
 62
    3
 10
1474.2905
 20
3774.8751
 11
1473.9498
 21
3775.7095
  0
LINE
  8
0-2
  6
CONTINUOUS
 62
    3
 10
1473.9498
 20
3775.7095
 11
1473.6618
 21
3776.5728
  0
LINE
  8
0-2
  6
CONTINUOUS
 62
    3
 10
1473.6618
 20
3776.5728
 11
1473.425
 21
3777.4584
  0
LINE
  8
0-2
  6
CONTINUOUS
 62
    3
 10
1434.1671
 20
3777.4584
 11
1433.2451
 21
3775.9871
  0
LINE
  8
0-2
  6
CONTINUOUS
 62
    3
 10
1433.2451
 20
3775.9871
 11
1432.3124
 21
3774.6784
  0
LINE
  8
0-2
  6
CONTINUOUS
 62
    3
 10
1432.3124
 20
3774.6784
 11
1431.373
 21
3773.5226
  0
LINE
  8
0-2
  6
CONTINUOUS
 62
    3
 10
1431.373
 20
3773.5226
 11
1430.4299
 21
3772.5108
  0
LINE
  8
0-2
  6
CONTINUOUS
 62
    3
 10
1430.4299
 20
3772.5108
 11
1429.4871
 21
3771.6341
  0
LINE
  8
0-2
  6
CONTINUOUS
 62
    3
 10
1429.4871
 20
3771.6341
 11
1428.5481
 21
3770.8851
  0
LINE
  8
0-2
  6
CONTINUOUS
 62
    3
 10
1428.5481
 20
3770.8851
 11
1427.6172
 21
3770.2534
  0
LINE
  8
0-2
  6
CONTINUOUS
 62
    3
 10
1427.6172
 20
3770.2534
 11
1426.6975
 21
3769.7286
  0
LINE
  8
0-2
  6
CONTINUOUS
 62
    3
 10
1426.6975
 20
3769.7286
 11
1425.7922
 21
3769.3032
  0
LINE
  8
0-2
  6
CONTINUOUS
 62
    3
 10
1425.7922
 20
3769.3032
 11
1424.9059
 21
3768.9685
  0
LINE
  8
0-2
  6
CONTINUOUS
 62
    3
 10
1424.9059
 20
3768.9685
 11
1424.0422
 21
3768.7146
  0
LINE
  8
0-2
  6
CONTINUOUS
 62
    3
 10
1424.0422
 20
3768.7146
 11
1423.2041
 21
3768.532
  0
LINE
  8
0-2
  6
CONTINUOUS
 62
    3
 10
1423.2041
 20
3768.532
 11
1422.3954
 21
3768.4125
  0
LINE
  8
0-2
  6
CONTINUOUS
 62
    3
 10
1422.3954
 20
3768.4125
 11
1421.6204
 21
3768.3479
  0
LINE
  8
0-2
  6
CONTINUOUS
 62
    3
 10
1415.0238
 20
3777.4584
 11
1415.0509
 21
3776.4006
  0
LINE
  8
0-2
  6
CONTINUOUS
 62
    3
 10
1415.0509
 20
3776.4006
 11
1415.1344
 21
3775.4214
  0
LINE
  8
0-2
  6
CONTINUOUS
 62
    3
 10
1415.1344
 20
3775.4214
 11
1415.2765
 21
3774.5195
  0
LINE
  8
0-2
  6
CONTINUOUS
 62
    3
 10
1415.2765
 20
3774.5195
 11
1415.481
 21
3773.6881
  0
LINE
  8
0-2
  6
CONTINUOUS
 62
    3
 10
1415.481
 20
3773.6881
 11
1415.7501
 21
3772.9243
  0
LINE
  8
0-2
  6
CONTINUOUS
 62
    3
 10
1415.7501
 20
3772.9243
 11
1416.0879
 21
3772.2243
  0
LINE
  8
0-2
  6
CONTINUOUS
 62
    3
 10
1416.0879
 20
3772.2243
 11
1416.4973
 21
3771.5822
  0
LINE
  8
0-2
  6
CONTINUOUS
 62
    3
 10
1416.4973
 20
3771.5822
 11
1416.9805
 21
3770.9928
  0
LINE
  8
0-2
  6
CONTINUOUS
 62
    3
 10
1416.9805
 20
3770.9928
 11
1417.5417
 21
3770.4538
  0
LINE
  8
0-2
  6
CONTINUOUS
 62
    3
 10
1417.5417
 20
3770.4538
 11
1418.1834
 21
3769.9602
  0
LINE
  8
0-2
  6
CONTINUOUS
 62
    3
 10
1418.1834
 20
3769.9602
 11
1418.9094
 21
3769.5066
  0
LINE
  8
0-2
  6
CONTINUOUS
 62
    3
 10
1418.9094
 20
3769.5066
 11
1419.7215
 21
3769.0902
  0
LINE
  8
0-2
  6
CONTINUOUS
 62
    3
 10
1419.7215
 20
3769.0902
 11
1420.6246
 21
3768.7042
  0
LINE
  8
0-2
  6
CONTINUOUS
 62
    3
 10
1420.6246
 20
3768.7042
 11
1421.6204
 21
3768.3479
  0
LINE
  8
0-2
  6
CONTINUOUS
 62
    3
 10
1360.0851
 20
3777.4584
 11
1360.5553
 21
3776.2157
  0
LINE
  8
0-2
  6
CONTINUOUS
 62
    3
 10
1360.5553
 20
3776.2157
 11
1361.0453
 21
3775.0874
  0
LINE
  8
0-2
  6
CONTINUOUS
 62
    3
 10
1361.0453
 20
3775.0874
 11
1361.5534
 21
3774.0697
  0
LINE
  8
0-2
  6
CONTINUOUS
 62
    3
 10
1361.5534
 20
3774.0697
 11
1362.0808
 21
3773.1551
  0
LINE
  8
0-2
  6
CONTINUOUS
 62
    3
 10
1362.0808
 20
3773.1551
 11
1362.6264
 21
3772.3408
  0
LINE
  8
0-2
  6
CONTINUOUS
 62
    3
 10
1362.6264
 20
3772.3408
 11
1363.1894
 21
3771.6193
  0
LINE
  8
0-2
  6
CONTINUOUS
 62
    3
 10
1363.1894
 20
3771.6193
 11
1363.7688
 21
3770.9853
  0
LINE
  8
0-2
  6
CONTINUOUS
 62
    3
 10
1363.7688
 20
3770.9853
 11
1364.3656
 21
3770.4345
  0
LINE
  8
0-2
  6
CONTINUOUS
 62
    3
 10
1364.3656
 20
3770.4345
 11
1364.9781
 21
3769.9595
  0
LINE
  8
0-2
  6
CONTINUOUS
 62
    3
 10
1364.9781
 20
3769.9595
 11
1365.6064
 21
3769.5564
  0
LINE
  8
0-2
  6
CONTINUOUS
 62
    3
 10
1365.6064
 20
3769.5564
 11
1366.2504
 21
3769.2179
  0
LINE
  8
0-2
  6
CONTINUOUS
 62
    3
 10
1366.2504
 20
3769.2179
 11
1366.9081
 21
3768.9403
  0
LINE
  8
0-2
  6
CONTINUOUS
 62
    3
 10
1366.9081
 20
3768.9403
 11
1367.5806
 21
3768.7161
  0
LINE
  8
0-2
  6
CONTINUOUS
 62
    3
 10
1367.5806
 20
3768.7161
 11
1368.2665
 21
3768.5416
  0
LINE
  8
0-2
  6
CONTINUOUS
 62
    3
 10
1369.7749
 20
3768.5416
 11
1370.4905
 21
3768.6901
  0
LINE
  8
0-2
  6
CONTINUOUS
 62
    3
 10
1370.4905
 20
3768.6901
 11
1371.2002
 21
3768.9284
  0
LINE
  8
0-2
  6
CONTINUOUS
 62
    3
 10
1371.2002
 20
3768.9284
 11
1371.9039
 21
3769.2528
  0
LINE
  8
0-2
  6
CONTINUOUS
 62
    3
 10
1371.9039
 20
3769.2528
 11
1372.6017
 21
3769.6662
  0
LINE
  8
0-2
  6
CONTINUOUS
 62
    3
 10
1372.6017
 20
3769.6662
 11
1373.2939
 21
3770.1658
  0
LINE
  8
0-2
  6
CONTINUOUS
 62
    3
 10
1373.2939
 20
3770.1658
 11
1373.9802
 21
3770.7552
  0
LINE
  8
0-2
  6
CONTINUOUS
 62
    3
 10
1373.9802
 20
3770.7552
 11
1374.6609
 21
3771.4322
  0
LINE
  8
0-2
  6
CONTINUOUS
 62
    3
 10
1374.6609
 20
3771.4322
 11
1375.3356
 21
3772.1968
  0
LINE
  8
0-2
  6
CONTINUOUS
 62
    3
 10
1375.3356
 20
3772.1968
 11
1376.0045
 21
3773.049
  0
LINE
  8
0-2
  6
CONTINUOUS
 62
    3
 10
1309.7985
 20
3777.4584
 11
1309.9351
 21
3776.5104
  0
LINE
  8
0-2
  6
CONTINUOUS
 62
    3
 10
1309.9351
 20
3776.5104
 11
1310.1281
 21
3775.6285
  0
LINE
  8
0-2
  6
CONTINUOUS
 62
    3
 10
1310.1281
 20
3775.6285
 11
1310.3734
 21
3774.809
  0
LINE
  8
0-2
  6
CONTINUOUS
 62
    3
 10
1310.3734
 20
3774.809
 11
1310.6674
 21
3774.0496
  0
LINE
  8
0-2
  6
CONTINUOUS
 62
    3
 10
1310.6674
 20
3774.0496
 11
1311.0044
 21
3773.3474
  0
LINE
  8
0-2
  6
CONTINUOUS
 62
    3
 10
1311.0044
 20
3773.3474
 11
1311.3819
 21
3772.7008
  0
LINE
  8
0-2
  6
CONTINUOUS
 62
    3
 10
1311.3819
 20
3772.7008
 11
1311.7953
 21
3772.107
  0
LINE
  8
0-2
  6
CONTINUOUS
 62
    3
 10
1311.7953
 20
3772.107
 11
1312.2407
 21
3771.5644
  0
LINE
  8
0-2
  6
CONTINUOUS
 62
    3
 10
1312.2407
 20
3771.5644
 11
1312.7158
 21
3771.0707
  0
LINE
  8
0-2
  6
CONTINUOUS
 62
    3
 10
1312.7158
 20
3771.0707
 11
1313.2165
 21
3770.6246
  0
LINE
  8
0-2
  6
CONTINUOUS
 62
    3
 10
1313.2165
 20
3770.6246
 11
1313.7402
 21
3770.2245
  0
LINE
  8
0-2
  6
CONTINUOUS
 62
    3
 10
1313.7402
 20
3770.2245
 11
1314.2851
 21
3769.8689
  0
LINE
  8
0-2
  6
CONTINUOUS
 62
    3
 10
1314.2851
 20
3769.8689
 11
1314.8466
 21
3769.5564
  0
LINE
  8
0-2
  6
CONTINUOUS
 62
    3
 10
1314.8466
 20
3769.5564
 11
1315.4253
 21
3769.2869
  0
LINE
  8
0-2
  6
CONTINUOUS
 62
    3
 10
1315.4253
 20
3769.2869
 11
1316.0165
 21
3769.0575
  0
LINE
  8
0-2
  6
CONTINUOUS
 62
    3
 10
1316.0165
 20
3769.0575
 11
1316.6204
 21
3768.8682
  0
LINE
  8
0-2
  6
CONTINUOUS
 62
    3
 10
1316.6204
 20
3768.8682
 11
1317.235
 21
3768.7198
  0
LINE
  8
0-2
  6
CONTINUOUS
 62
    3
 10
1317.235
 20
3768.7198
 11
1317.8579
 21
3768.6121
  0
LINE
  8
0-2
  6
CONTINUOUS
 62
    3
 10
1317.8579
 20
3768.6121
 11
1318.4896
 21
3768.5416
  0
LINE
  8
0-2
  6
CONTINUOUS
 62
    3
 10
1318.6488
 20
3768.5505
 11
1319.0047
 21
3768.5884
  0
LINE
  8
0-2
  6
CONTINUOUS
 62
    3
 10
1319.0047
 20
3768.5884
 11
1319.3536
 21
3768.6441
  0
LINE
  8
0-2
  6
CONTINUOUS
 62
    3
 10
1319.3536
 20
3768.6441
 11
1319.6973
 21
3768.7161
  0
LINE
  8
0-2
  6
CONTINUOUS
 62
    3
 10
1319.6973
 20
3768.7161
 11
1320.034
 21
3768.8059
  0
LINE
  8
0-2
  6
CONTINUOUS
 62
    3
 10
1320.034
 20
3768.8059
 11
1320.3654
 21
3768.9113
  0
LINE
  8
0-2
  6
CONTINUOUS
 62
    3
 10
1320.3654
 20
3768.9113
 11
1320.6902
 21
3769.0338
  0
LINE
  8
0-2
  6
CONTINUOUS
 62
    3
 10
1320.6902
 20
3769.0338
 11
1321.009
 21
3769.1726
  0
LINE
  8
0-2
  6
CONTINUOUS
 62
    3
 10
1321.009
 20
3769.1726
 11
1321.3211
 21
3769.3292
  0
LINE
  8
0-2
  6
CONTINUOUS
 62
    3
 10
1321.3211
 20
3769.3292
 11
1321.6281
 21
3769.5022
  0
LINE
  8
0-2
  6
CONTINUOUS
 62
    3
 10
1174.9614
 20
3777.4584
 11
1175.0831
 21
3776.4622
  0
LINE
  8
0-2
  6
CONTINUOUS
 62
    3
 10
1175.0831
 20
3776.4622
 11
1175.2119
 21
3775.5506
  0
LINE
  8
0-2
  6
CONTINUOUS
 62
    3
 10
1175.2119
 20
3775.5506
 11
1175.3481
 21
3774.7259
  0
LINE
  8
0-2
  6
CONTINUOUS
 62
    3
 10
1175.3481
 20
3774.7259
 11
1175.4906
 21
3773.9858
  0
LINE
  8
0-2
  6
CONTINUOUS
 62
    3
 10
1175.4906
 20
3773.9858
 11
1175.6406
 21
3773.3333
  0
LINE
  8
0-2
  6
CONTINUOUS
 62
    3
 10
1175.6406
 20
3773.3333
 11
1175.798
 21
3772.7662
  0
LINE
  8
0-2
  6
CONTINUOUS
 62
    3
 10
1175.798
 20
3772.7662
 11
1175.9616
 21
3772.2851
  0
LINE
  8
0-2
  6
CONTINUOUS
 62
    3
 10
1175.9616
 20
3772.2851
 11
1176.1335
 21
3771.8902
  0
LINE
  8
0-2
  6
CONTINUOUS
 62
    3
 10
1176.1335
 20
3771.8902
 11
1176.3116
 21
3771.5822
  0
LINE
  8
0-2
  6
CONTINUOUS
 62
    3
 10
1197.097
 20
3777.4584
 11
1197.1649
 21
3776.67
  0
LINE
  8
0-2
  6
CONTINUOUS
 62
    3
 10
1197.1649
 20
3776.67
 11
1197.2762
 21
3775.9233
  0
LINE
  8
0-2
  6
CONTINUOUS
 62
    3
 10
1197.2762
 20
3775.9233
 11
1197.4258
 21
3775.2195
  0
LINE
  8
0-2
  6
CONTINUOUS
 62
    3
 10
1197.4258
 20
3775.2195
 11
1197.6114
 21
3774.5589
  0
LINE
  8
0-2
  6
CONTINUOUS
 62
    3
 10
1197.6114
 20
3774.5589
 11
1197.8274
 21
3773.942
  0
LINE
  8
0-2
  6
CONTINUOUS
 62
    3
 10
1197.8274
 20
3773.942
 11
1198.0698
 21
3773.3689
  0
LINE
  8
0-2
  6
CONTINUOUS
 62
    3
 10
1198.0698
 20
3773.3689
 11
1198.3348
 21
3772.8397
  0
LINE
  8
0-2
  6
CONTINUOUS
 62
    3
 10
1198.3348
 20
3772.8397
 11
1198.6169
 21
3772.3549
  0
LINE
  8
0-2
  6
CONTINUOUS
 62
    3
 10
1198.6169
 20
3772.3549
 11
1198.9123
 21
3771.914
  0
LINE
  8
0-2
  6
CONTINUOUS
 62
    3
 10
1198.9123
 20
3771.914
 11
1199.2166
 21
3771.5183
  0
LINE
  8
0-2
  6
CONTINUOUS
 62
    3
 10
1199.2166
 20
3771.5183
 11
1199.5255
 21
3771.168
  0
LINE
  8
0-2
  6
CONTINUOUS
 62
    3
 10
1199.5255
 20
3771.168
 11
1199.8357
 21
3770.8621
  0
LINE
  8
0-2
  6
CONTINUOUS
 62
    3
 10
1199.8357
 20
3770.8621
 11
1200.1416
 21
3770.6016
  0
LINE
  8
0-2
  6
CONTINUOUS
 62
    3
 10
1200.1416
 20
3770.6016
 11
1200.4389
 21
3770.3855
  0
LINE
  8
0-2
  6
CONTINUOUS
 62
    3
 10
1227.4137
 20
3777.4584
 11
1227.6141
 21
3776.5802
  0
LINE
  8
0-2
  6
CONTINUOUS
 62
    3
 10
1227.6141
 20
3776.5802
 11
1227.859
 21
3775.7577
  0
LINE
  8
0-2
  6
CONTINUOUS
 62
    3
 10
1227.859
 20
3775.7577
 11
1228.1456
 21
3774.9894
  0
LINE
  8
0-2
  6
CONTINUOUS
 62
    3
 10
1228.1456
 20
3774.9894
 11
1228.4729
 21
3774.2775
  0
LINE
  8
0-2
  6
CONTINUOUS
 62
    3
 10
1228.4729
 20
3774.2775
 11
1228.8382
 21
3773.6191
  0
LINE
  8
0-2
  6
CONTINUOUS
 62
    3
 10
1228.8382
 20
3773.6191
 11
1229.2394
 21
3773.0156
  0
LINE
  8
0-2
  6
CONTINUOUS
 62
    3
 10
1229.2394
 20
3773.0156
 11
1229.6759
 21
3772.4663
  0
LINE
  8
0-2
  6
CONTINUOUS
 62
    3
 10
1229.6759
 20
3772.4663
 11
1230.1461
 21
3771.9697
  0
LINE
  8
0-2
  6
CONTINUOUS
 62
    3
 10
1230.1461
 20
3771.9697
 11
1230.6472
 21
3771.5257
  0
LINE
  8
0-2
  6
CONTINUOUS
 62
    3
 10
1230.6472
 20
3771.5257
 11
1231.1783
 21
3771.1345
  0
LINE
  8
0-2
  6
CONTINUOUS
 62
    3
 10
1231.1783
 20
3771.1345
 11
1231.7369
 21
3770.7953
  0
LINE
  8
0-2
  6
CONTINUOUS
 62
    3
 10
1231.7369
 20
3770.7953
 11
1232.3219
 21
3770.5088
  0
LINE
  8
0-2
  6
CONTINUOUS
 62
    3
 10
1232.3219
 20
3770.5088
 11
1232.9313
 21
3770.2727
  0
LINE
  8
0-2
  6
CONTINUOUS
 62
    3
 10
1232.9313
 20
3770.2727
 11
1233.563
 21
3770.0879
  0
LINE
  8
0-2
  6
CONTINUOUS
 62
    3
 10
1265.2363
 20
3777.4584
 11
1265.5403
 21
3776.5379
  0
LINE
  8
0-2
  6
CONTINUOUS
 62
    3
 10
1265.5403
 20
3776.5379
 11
1265.8966
 21
3775.6842
  0
LINE
  8
0-2
  6
CONTINUOUS
 62
    3
 10
1265.8966
 20
3775.6842
 11
1266.3004
 21
3774.8974
  0
LINE
  8
0-2
  6
CONTINUOUS
 62
    3
 10
1266.3004
 20
3774.8974
 11
1266.7477
 21
3774.1788
  0
LINE
  8
0-2
  6
CONTINUOUS
 62
    3
 10
1266.7477
 20
3774.1788
 11
1267.2343
 21
3773.5285
  0
LINE
  8
0-2
  6
CONTINUOUS
 62
    3
 10
1267.2343
 20
3773.5285
 11
1267.7554
 21
3772.9451
  0
LINE
  8
0-2
  6
CONTINUOUS
 62
    3
 10
1267.7554
 20
3772.9451
 11
1268.3062
 21
3772.4284
  0
LINE
  8
0-2
  6
CONTINUOUS
 62
    3
 10
1268.3062
 20
3772.4284
 11
1268.8822
 21
3771.9786
  0
LINE
  8
0-2
  6
CONTINUOUS
 62
    3
 10
1268.8822
 20
3771.9786
 11
1269.479
 21
3771.594
  0
LINE
  8
0-2
  6
CONTINUOUS
 62
    3
 10
1269.479
 20
3771.594
 11
1270.0907
 21
3771.2741
  0
LINE
  8
0-2
  6
CONTINUOUS
 62
    3
 10
1270.0907
 20
3771.2741
 11
1270.7128
 21
3771.0173
  0
LINE
  8
0-2
  6
CONTINUOUS
 62
    3
 10
1270.7128
 20
3771.0173
 11
1271.3404
 21
3770.8213
  0
LINE
  8
0-2
  6
CONTINUOUS
 62
    3
 10
1271.3404
 20
3770.8213
 11
1271.9673
 21
3770.6854
  0
LINE
  8
0-2
  6
CONTINUOUS
 62
    3
 10
1271.9673
 20
3770.6854
 11
1272.589
 21
3770.6075
  0
LINE
  8
0-2
  6
CONTINUOUS
 62
    3
 10
1272.589
 20
3770.6075
 11
1273.1992
 21
3770.583
  0
LINE
  8
0-2
  6
CONTINUOUS
 62
    3
 10
1273.1992
 20
3770.583
 11
1273.7919
 21
3770.6127
  0
LINE
  8
0-2
  6
CONTINUOUS
 62
    3
 10
1273.7919
 20
3770.6127
 11
1274.3624
 21
3770.6906
  0
LINE
  8
0-2
  6
CONTINUOUS
 62
    3
 10
1274.3624
 20
3770.6906
 11
1274.9043
 21
3770.8154
  0
LINE
  8
0-2
  6
CONTINUOUS
 62
    3
 10
1274.9043
 20
3770.8154
 11
1275.4117
 21
3770.9839
  0
LINE
  8
0-2
  6
CONTINUOUS
 62
    3
 10
1174.9614
 20
3777.4584
 11
1165.0002
 21
3777.4584
  0
LINE
  8
0-2
  6
CONTINUOUS
 62
    3
 10
1077.3909
 20
3667.8104
 11
1174.9614
 21
3777.4584
  0
LINE
  8
0-2
  6
CONTINUOUS
 62
    3
 10
1181.3976
 20
3777.4584
 11
1085.3972
 21
3667.8104
  0
LINE
  8
0-2
  6
CONTINUOUS
 62
    3
 10
1104.9257
 20
3667.8104
 11
1197.097
 21
3777.4584
  0
LINE
  8
0-2
  6
CONTINUOUS
 62
    3
 10
1197.097
 20
3777.4584
 11
1181.3976
 21
3777.4584
  0
LINE
  8
0-2
  6
CONTINUOUS
 62
    3
 10
1206.3225
 20
3777.4584
 11
1116.4009
 21
3667.8104
  0
LINE
  8
0-2
  6
CONTINUOUS
 62
    3
 10
1227.4137
 20
3777.4584
 11
1206.3225
 21
3777.4584
  0
LINE
  8
0-2
  6
CONTINUOUS
 62
    3
 10
1142.6359
 20
3667.8104
 11
1227.4137
 21
3777.4584
  0
LINE
  8
0-2
  6
CONTINUOUS
 62
    3
 10
1239.228
 20
3777.4584
 11
1157.332
 21
3667.8104
  0
LINE
  8
0-2
  6
CONTINUOUS
 62
    3
 10
1265.2534
 20
3777.4584
 11
1239.228
 21
3777.4584
  0
LINE
  8
0-2
  6
CONTINUOUS
 62
    3
 10
1189.7053
 20
3667.8104
 11
1265.2534
 21
3777.4584
  0
LINE
  8
0-2
  6
CONTINUOUS
 62
    3
 10
1279.402
 20
3777.4584
 11
1207.305
 21
3667.8104
  0
LINE
  8
0-2
  6
CONTINUOUS
 62
    3
 10
1309.7985
 20
3777.4584
 11
1279.402
 21
3777.4584
  0
LINE
  8
0-2
  6
CONTINUOUS
 62
    3
 10
1245.1157
 20
3667.8104
 11
1309.7985
 21
3777.4584
  0
LINE
  8
0-2
  6
CONTINUOUS
 62
    3
 10
1325.9744
 20
3777.4584
 11
1265.2363
 21
3667.8104
  0
LINE
  8
0-2
  6
CONTINUOUS
 62
    3
 10
1360.0851
 20
3777.4584
 11
1325.9744
 21
3777.4584
  0
LINE
  8
0-2
  6
CONTINUOUS
 62
    3
 10
1307.6669
 20
3667.8104
 11
1360.0851
 21
3777.4584
  0
LINE
  8
0-2
  6
CONTINUOUS
 62
    3
 10
1377.9378
 20
3777.4584
 11
1329.8738
 21
3667.8104
  0
LINE
  8
0-2
  6
CONTINUOUS
 62
    3
 10
1415.0238
 20
3777.4584
 11
1377.9378
 21
3777.4584
  0
LINE
  8
0-2
  6
CONTINUOUS
 62
    3
 10
1376.0045
 20
3667.8104
 11
1415.0238
 21
3777.4584
  0
LINE
  8
0-2
  6
CONTINUOUS
 62
    3
 10
1399.817
 20
3667.8104
 11
1434.1671
 21
3777.4584
  0
LINE
  8
0-2
  6
CONTINUOUS
 62
    3
 10
1473.425
 20
3777.4584
 11
1434.1671
 21
3777.4584
  0
LINE
  8
0-2
  6
CONTINUOUS
 62
    3
 10
1473.425
 20
3777.4584
 11
1448.6501
 21
3667.8104
  0
LINE
  8
0-2
  6
CONTINUOUS
 62
    3
 10
1473.553
 20
3667.8104
 11
1493.4446
 21
3777.4584
  0
LINE
  8
0-2
  6
CONTINUOUS
 62
    3
 10
1534.0254
 20
3777.4584
 11
1493.4446
 21
3777.4584
  0
LINE
  8
0-2
  6
CONTINUOUS
 62
    3
 10
1534.0254
 20
3777.4584
 11
1524.0311
 21
3667.8104
  0
LINE
  8
0-2
  6
CONTINUOUS
 62
    3
 10
1554.4881
 20
3777.4584
 11
1549.4849
 21
3667.8104
  0
LINE
  8
0-2
  6
CONTINUOUS
 62
    3
 10
1574.9999
 20
3777.4584
 11
1554.4881
 21
3777.4584
  0
LINE
  8
0-2
  6
CONTINUOUS
 62
    3
 10
1524.0311
 20
3532.8103
 11
1524.0311
 21
3152.8103
  0
LINE
  8
0-2
  6
CONTINUOUS
 62
    3
 10
1473.553
 20
3532.8103
 11
1473.553
 21
3152.8103
  0
LINE
  8
0-2
  6
CONTINUOUS
 62
    3
 10
1376.0045
 20
3532.8103
 11
1376.0045
 21
3152.8103
  0
LINE
  8
0-2
  6
CONTINUOUS
 62
    3
 10
1329.8738
 20
3532.8103
 11
1329.8738
 21
3152.8103
  0
LINE
  8
0-2
  6
CONTINUOUS
 62
    3
 10
1245.1157
 20
3532.8103
 11
1245.1157
 21
3152.8103
  0
LINE
  8
0-2
  6
CONTINUOUS
 62
    3
 10
1207.305
 20
3532.8103
 11
1207.305
 21
3152.8103
  0
LINE
  8
0-2
  6
CONTINUOUS
 62
    3
 10
1142.6359
 20
3532.8103
 11
1142.6359
 21
3152.8103
  0
LINE
  8
0-2
  6
CONTINUOUS
 62
    3
 10
1473.553
 20
3152.8103
 11
1376.0045
 21
3179.3905
  0
LINE
  8
0-2
  6
CONTINUOUS
 62
    3
 10
1207.305
 20
3152.8103
 11
1142.6359
 21
3179.3905
  0
LINE
  8
0-2
  6
CONTINUOUS
 62
    3
 10
1262.2251
 20
3532.8103
 11
1262.2251
 21
3152.8103
  0
LINE
  8
0-2
  6
CONTINUOUS
 62
    3
 10
1282.2258
 20
3532.8103
 11
1282.2258
 21
3152.8103
  0
LINE
  8
0-2
  6
CONTINUOUS
 62
    3
 10
1064.9997
 20
3039.7398
 11
1064.9997
 21
3130.8822
  0
LINE
  8
0-2
  6
CONTINUOUS
 62
    3
 10
1064.9997
 20
3017.8102
 11
1165.0002
 21
2908.1609
  0
LINE
  8
0-2
  6
CONTINUOUS
 62
    3
 10
1486.1528
 20
2917.2241
 11
1486.9757
 21
2916.9823
  0
LINE
  8
0-2
  6
CONTINUOUS
 62
    3
 10
1486.9757
 20
2916.9823
 11
1487.7492
 21
2916.654
  0
LINE
  8
0-2
  6
CONTINUOUS
 62
    3
 10
1487.7492
 20
2916.654
 11
1488.4726
 21
2916.2448
  0
LINE
  8
0-2
  6
CONTINUOUS
 62
    3
 10
1488.4726
 20
2916.2448
 11
1489.1481
 21
2915.7604
  0
LINE
  8
0-2
  6
CONTINUOUS
 62
    3
 10
1489.1481
 20
2915.7604
 11
1489.7761
 21
2915.207
  0
LINE
  8
0-2
  6
CONTINUOUS
 62
    3
 10
1489.7761
 20
2915.207
 11
1490.3577
 21
2914.5918
  0
LINE
  8
0-2
  6
CONTINUOUS
 62
    3
 10
1490.3577
 20
2914.5918
 11
1490.8936
 21
2913.9204
  0
LINE
  8
0-2
  6
CONTINUOUS
 62
    3
 10
1490.8936
 20
2913.9204
 11
1491.385
 21
2913.1988
  0
LINE
  8
0-2
  6
CONTINUOUS
 62
    3
 10
1491.385
 20
2913.1988
 11
1491.833
 21
2912.4331
  0
LINE
  8
0-2
  6
CONTINUOUS
 62
    3
 10
1491.833
 20
2912.4331
 11
1492.2376
 21
2911.6296
  0
LINE
  8
0-2
  6
CONTINUOUS
 62
    3
 10
1492.2376
 20
2911.6296
 11
1492.5995
 21
2910.7941
  0
LINE
  8
0-2
  6
CONTINUOUS
 62
    3
 10
1492.5995
 20
2910.7941
 11
1492.9216
 21
2909.9341
  0
LINE
  8
0-2
  6
CONTINUOUS
 62
    3
 10
1492.9216
 20
2909.9341
 11
1493.2026
 21
2909.0543
  0
LINE
  8
0-2
  6
CONTINUOUS
 62
    3
 10
1493.2026
 20
2909.0543
 11
1493.4446
 21
2908.1609
  0
LINE
  8
0-2
  6
CONTINUOUS
 62
    3
 10
1481.6321
 20
2917.2733
 11
1480.6804
 21
2916.9366
  0
LINE
  8
0-2
  6
CONTINUOUS
 62
    3
 10
1480.6804
 20
2916.9366
 11
1479.7874
 21
2916.5408
  0
LINE
  8
0-2
  6
CONTINUOUS
 62
    3
 10
1479.7874
 20
2916.5408
 11
1478.9523
 21
2916.0874
  0
LINE
  8
0-2
  6
CONTINUOUS
 62
    3
 10
1478.9523
 20
2916.0874
 11
1478.1747
 21
2915.5778
  0
LINE
  8
0-2
  6
CONTINUOUS
 62
    3
 10
1478.1747
 20
2915.5778
 11
1477.4543
 21
2915.0185
  0
LINE
  8
0-2
  6
CONTINUOUS
 62
    3
 10
1477.4543
 20
2915.0185
 11
1476.7896
 21
2914.4088
  0
LINE
  8
0-2
  6
CONTINUOUS
 62
    3
 10
1476.7896
 20
2914.4088
 11
1476.1809
 21
2913.7547
  0
LINE
  8
0-2
  6
CONTINUOUS
 62
    3
 10
1476.1809
 20
2913.7547
 11
1475.6275
 21
2913.0587
  0
LINE
  8
0-2
  6
CONTINUOUS
 62
    3
 10
1475.6275
 20
2913.0587
 11
1475.1279
 21
2912.3229
  0
LINE
  8
0-2
  6
CONTINUOUS
 62
    3
 10
1475.1279
 20
2912.3229
 11
1474.6825
 21
2911.5503
  0
LINE
  8
0-2
  6
CONTINUOUS
 62
    3
 10
1474.6825
 20
2911.5503
 11
1474.2905
 21
2910.7447
  0
LINE
  8
0-2
  6
CONTINUOUS
 62
    3
 10
1474.2905
 20
2910.7447
 11
1473.9498
 21
2909.9104
  0
LINE
  8
0-2
  6
CONTINUOUS
 62
    3
 10
1473.9498
 20
2909.9104
 11
1473.6618
 21
2909.0476
  0
LINE
  8
0-2
  6
CONTINUOUS
 62
    3
 10
1473.6618
 20
2909.0476
 11
1473.425
 21
2908.1609
  0
LINE
  8
0-2
  6
CONTINUOUS
 62
    3
 10
1434.1671
 20
2908.1609
 11
1433.2451
 21
2909.6333
  0
LINE
  8
0-2
  6
CONTINUOUS
 62
    3
 10
1433.2451
 20
2909.6333
 11
1432.3124
 21
2910.9422
  0
LINE
  8
0-2
  6
CONTINUOUS
 62
    3
 10
1432.3124
 20
2910.9422
 11
1431.373
 21
2912.0978
  0
LINE
  8
0-2
  6
CONTINUOUS
 62
    3
 10
1431.373
 20
2912.0978
 11
1430.4299
 21
2913.1092
  0
LINE
  8
0-2
  6
CONTINUOUS
 62
    3
 10
1430.4299
 20
2913.1092
 11
1429.4871
 21
2913.9857
  0
LINE
  8
0-2
  6
CONTINUOUS
 62
    3
 10
1429.4871
 20
2913.9857
 11
1428.5481
 21
2914.7345
  0
LINE
  8
0-2
  6
CONTINUOUS
 62
    3
 10
1428.5481
 20
2914.7345
 11
1427.6172
 21
2915.3673
  0
LINE
  8
0-2
  6
CONTINUOUS
 62
    3
 10
1427.6172
 20
2915.3673
 11
1426.6975
 21
2915.8914
  0
LINE
  8
0-2
  6
CONTINUOUS
 62
    3
 10
1426.6975
 20
2915.8914
 11
1425.7922
 21
2916.317
  0
LINE
  8
0-2
  6
CONTINUOUS
 62
    3
 10
1425.7922
 20
2916.317
 11
1424.9059
 21
2916.6516
  0
LINE
  8
0-2
  6
CONTINUOUS
 62
    3
 10
1424.9059
 20
2916.6516
 11
1424.0422
 21
2916.9054
  0
LINE
  8
0-2
  6
CONTINUOUS
 62
    3
 10
1424.0422
 20
2916.9054
 11
1423.2041
 21
2917.088
  0
LINE
  8
0-2
  6
CONTINUOUS
 62
    3
 10
1423.2041
 20
2917.088
 11
1422.3954
 21
2917.2068
  0
LINE
  8
0-2
  6
CONTINUOUS
 62
    3
 10
1422.3954
 20
2917.2068
 11
1421.6204
 21
2917.2733
  0
LINE
  8
0-2
  6
CONTINUOUS
 62
    3
 10
1415.0238
 20
2908.1609
 11
1415.0509
 21
2909.2195
  0
LINE
  8
0-2
  6
CONTINUOUS
 62
    3
 10
1415.0509
 20
2909.2195
 11
1415.1344
 21
2910.1989
  0
LINE
  8
0-2
  6
CONTINUOUS
 62
    3
 10
1415.1344
 20
2910.1989
 11
1415.2765
 21
2911.1011
  0
LINE
  8
0-2
  6
CONTINUOUS
 62
    3
 10
1415.2765
 20
2911.1011
 11
1415.481
 21
2911.9319
  0
LINE
  8
0-2
  6
CONTINUOUS
 62
    3
 10
1415.481
 20
2911.9319
 11
1415.7501
 21
2912.695
  0
LINE
  8
0-2
  6
CONTINUOUS
 62
    3
 10
1415.7501
 20
2912.695
 11
1416.0879
 21
2913.3961
  0
LINE
  8
0-2
  6
CONTINUOUS
 62
    3
 10
1416.0879
 20
2913.3961
 11
1416.4973
 21
2914.0377
  0
LINE
  8
0-2
  6
CONTINUOUS
 62
    3
 10
1416.4973
 20
2914.0377
 11
1416.9805
 21
2914.6271
  0
LINE
  8
0-2
  6
CONTINUOUS
 62
    3
 10
1416.9805
 20
2914.6271
 11
1417.5417
 21
2915.1654
  0
LINE
  8
0-2
  6
CONTINUOUS
 62
    3
 10
1417.5417
 20
2915.1654
 11
1418.1834
 21
2915.6598
  0
LINE
  8
0-2
  6
CONTINUOUS
 62
    3
 10
1418.1834
 20
2915.6598
 11
1418.9094
 21
2916.1132
  0
LINE
  8
0-2
  6
CONTINUOUS
 62
    3
 10
1418.9094
 20
2916.1132
 11
1419.7215
 21
2916.5304
  0
LINE
  8
0-2
  6
CONTINUOUS
 62
    3
 10
1419.7215
 20
2916.5304
 11
1420.6246
 21
2916.9155
  0
LINE
  8
0-2
  6
CONTINUOUS
 62
    3
 10
1420.6246
 20
2916.9155
 11
1421.6204
 21
2917.2733
  0
LINE
  8
0-2
  6
CONTINUOUS
 62
    3
 10
1360.0851
 20
2908.1609
 11
1360.5553
 21
2909.4045
  0
LINE
  8
0-2
  6
CONTINUOUS
 62
    3
 10
1360.5553
 20
2909.4045
 11
1361.0453
 21
2910.533
  0
LINE
  8
0-2
  6
CONTINUOUS
 62
    3
 10
1361.0453
 20
2910.533
 11
1361.5534
 21
2911.5503
  0
LINE
  8
0-2
  6
CONTINUOUS
 62
    3
 10
1361.5534
 20
2911.5503
 11
1362.0808
 21
2912.4645
  0
LINE
  8
0-2
  6
CONTINUOUS
 62
    3
 10
1362.0808
 20
2912.4645
 11
1362.6264
 21
2913.279
  0
LINE
  8
0-2
  6
CONTINUOUS
 62
    3
 10
1362.6264
 20
2913.279
 11
1363.1894
 21
2914.0004
  0
LINE
  8
0-2
  6
CONTINUOUS
 62
    3
 10
1363.1894
 20
2914.0004
 11
1363.7688
 21
2914.6345
  0
LINE
  8
0-2
  6
CONTINUOUS
 62
    3
 10
1363.7688
 20
2914.6345
 11
1364.3656
 21
2915.1858
  0
LINE
  8
0-2
  6
CONTINUOUS
 62
    3
 10
1364.3656
 20
2915.1858
 11
1364.9781
 21
2915.6607
  0
LINE
  8
0-2
  6
CONTINUOUS
 62
    3
 10
1364.9781
 20
2915.6607
 11
1365.6064
 21
2916.0642
  0
LINE
  8
0-2
  6
CONTINUOUS
 62
    3
 10
1365.6064
 20
2916.0642
 11
1366.2504
 21
2916.4018
  0
LINE
  8
0-2
  6
CONTINUOUS
 62
    3
 10
1366.2504
 20
2916.4018
 11
1366.9081
 21
2916.6803
  0
LINE
  8
0-2
  6
CONTINUOUS
 62
    3
 10
1366.9081
 20
2916.6803
 11
1367.5806
 21
2916.9034
  0
LINE
  8
0-2
  6
CONTINUOUS
 62
    3
 10
1367.5806
 20
2916.9034
 11
1368.2665
 21
2917.0777
  0
LINE
  8
0-2
  6
CONTINUOUS
 62
    3
 10
1369.7749
 20
2917.0777
 11
1370.4905
 21
2916.9286
  0
LINE
  8
0-2
  6
CONTINUOUS
 62
    3
 10
1370.4905
 20
2916.9286
 11
1371.2002
 21
2916.692
  0
LINE
  8
0-2
  6
CONTINUOUS
 62
    3
 10
1371.2002
 20
2916.692
 11
1371.9039
 21
2916.3665
  0
LINE
  8
0-2
  6
CONTINUOUS
 62
    3
 10
1371.9039
 20
2916.3665
 11
1372.6017
 21
2915.9538
  0
LINE
  8
0-2
  6
CONTINUOUS
 62
    3
 10
1372.6017
 20
2915.9538
 11
1373.2939
 21
2915.454
  0
LINE
  8
0-2
  6
CONTINUOUS
 62
    3
 10
1373.2939
 20
2915.454
 11
1373.9802
 21
2914.8652
  0
LINE
  8
0-2
  6
CONTINUOUS
 62
    3
 10
1373.9802
 20
2914.8652
 11
1374.6609
 21
2914.1882
  0
LINE
  8
0-2
  6
CONTINUOUS
 62
    3
 10
1374.6609
 20
2914.1882
 11
1375.3356
 21
2913.423
  0
LINE
  8
0-2
  6
CONTINUOUS
 62
    3
 10
1375.3356
 20
2913.423
 11
1376.0045
 21
2912.5708
  0
LINE
  8
0-2
  6
CONTINUOUS
 62
    3
 10
1309.7985
 20
2908.1609
 11
1309.9351
 21
2909.1092
  0
LINE
  8
0-2
  6
CONTINUOUS
 62
    3
 10
1309.9351
 20
2909.1092
 11
1310.1281
 21
2909.9909
  0
LINE
  8
0-2
  6
CONTINUOUS
 62
    3
 10
1310.1281
 20
2909.9909
 11
1310.3734
 21
2910.8115
  0
LINE
  8
0-2
  6
CONTINUOUS
 62
    3
 10
1310.3734
 20
2910.8115
 11
1310.6674
 21
2911.5702
  0
LINE
  8
0-2
  6
CONTINUOUS
 62
    3
 10
1310.6674
 20
2911.5702
 11
1311.0044
 21
2912.2724
  0
LINE
  8
0-2
  6
CONTINUOUS
 62
    3
 10
1311.0044
 20
2912.2724
 11
1311.3819
 21
2912.9192
  0
LINE
  8
0-2
  6
CONTINUOUS
 62
    3
 10
1311.3819
 20
2912.9192
 11
1311.7953
 21
2913.513
  0
LINE
  8
0-2
  6
CONTINUOUS
 62
    3
 10
1311.7953
 20
2913.513
 11
1312.2407
 21
2914.0559
  0
LINE
  8
0-2
  6
CONTINUOUS
 62
    3
 10
1312.2407
 20
2914.0559
 11
1312.7158
 21
2914.5493
  0
LINE
  8
0-2
  6
CONTINUOUS
 62
    3
 10
1312.7158
 20
2914.5493
 11
1313.2165
 21
2914.9953
  0
LINE
  8
0-2
  6
CONTINUOUS
 62
    3
 10
1313.2165
 20
2914.9953
 11
1313.7402
 21
2915.395
  0
LINE
  8
0-2
  6
CONTINUOUS
 62
    3
 10
1313.7402
 20
2915.395
 11
1314.2851
 21
2915.7519
  0
LINE
  8
0-2
  6
CONTINUOUS
 62
    3
 10
1314.2851
 20
2915.7519
 11
1314.8466
 21
2916.0636
  0
LINE
  8
0-2
  6
CONTINUOUS
 62
    3
 10
1314.8466
 20
2916.0636
 11
1315.4253
 21
2916.3338
  0
LINE
  8
0-2
  6
CONTINUOUS
 62
    3
 10
1315.4253
 20
2916.3338
 11
1316.0165
 21
2916.5625
  0
LINE
  8
0-2
  6
CONTINUOUS
 62
    3
 10
1316.0165
 20
2916.5625
 11
1316.6204
 21
2916.751
  0
LINE
  8
0-2
  6
CONTINUOUS
 62
    3
 10
1316.6204
 20
2916.751
 11
1317.235
 21
2916.8995
  0
LINE
  8
0-2
  6
CONTINUOUS
 62
    3
 10
1317.235
 20
2916.8995
 11
1317.8579
 21
2917.0079
  0
LINE
  8
0-2
  6
CONTINUOUS
 62
    3
 10
1317.8579
 20
2917.0079
 11
1318.4896
 21
2917.0777
  0
LINE
  8
0-2
  6
CONTINUOUS
 62
    3
 10
1318.6488
 20
2917.0702
 11
1319.0047
 21
2917.0311
  0
LINE
  8
0-2
  6
CONTINUOUS
 62
    3
 10
1319.0047
 20
2917.0311
 11
1319.3536
 21
2916.9752
  0
LINE
  8
0-2
  6
CONTINUOUS
 62
    3
 10
1319.3536
 20
2916.9752
 11
1319.6973
 21
2916.9039
  0
LINE
  8
0-2
  6
CONTINUOUS
 62
    3
 10
1319.6973
 20
2916.9039
 11
1320.034
 21
2916.8149
  0
LINE
  8
0-2
  6
CONTINUOUS
 62
    3
 10
1320.034
 20
2916.8149
 11
1320.3654
 21
2916.7089
  0
LINE
  8
0-2
  6
CONTINUOUS
 62
    3
 10
1320.3654
 20
2916.7089
 11
1320.6902
 21
2916.5862
  0
LINE
  8
0-2
  6
CONTINUOUS
 62
    3
 10
1320.6902
 20
2916.5862
 11
1321.009
 21
2916.4467
  0
LINE
  8
0-2
  6
CONTINUOUS
 62
    3
 10
1321.009
 20
2916.4467
 11
1321.3211
 21
2916.2902
  0
LINE
  8
0-2
  6
CONTINUOUS
 62
    3
 10
1321.3211
 20
2916.2902
 11
1321.6281
 21
2916.1171
  0
LINE
  8
0-2
  6
CONTINUOUS
 62
    3
 10
1174.9614
 20
2908.1609
 11
1175.0831
 21
2909.158
  0
LINE
  8
0-2
  6
CONTINUOUS
 62
    3
 10
1175.0831
 20
2909.158
 11
1175.2119
 21
2910.0698
  0
LINE
  8
0-2
  6
CONTINUOUS
 62
    3
 10
1175.2119
 20
2910.0698
 11
1175.3481
 21
2910.8941
  0
LINE
  8
0-2
  6
CONTINUOUS
 62
    3
 10
1175.3481
 20
2910.8941
 11
1175.4906
 21
2911.6335
  0
LINE
  8
0-2
  6
CONTINUOUS
 62
    3
 10
1175.4906
 20
2911.6335
 11
1175.6406
 21
2912.2867
  0
LINE
  8
0-2
  6
CONTINUOUS
 62
    3
 10
1175.6406
 20
2912.2867
 11
1175.798
 21
2912.8539
  0
LINE
  8
0-2
  6
CONTINUOUS
 62
    3
 10
1175.798
 20
2912.8539
 11
1175.9616
 21
2913.3349
  0
LINE
  8
0-2
  6
CONTINUOUS
 62
    3
 10
1175.9616
 20
2913.3349
 11
1176.1335
 21
2913.7298
  0
LINE
  8
0-2
  6
CONTINUOUS
 62
    3
 10
1176.1335
 20
2913.7298
 11
1176.3116
 21
2914.0377
  0
LINE
  8
0-2
  6
CONTINUOUS
 62
    3
 10
1197.097
 20
2908.1609
 11
1197.1649
 21
2908.9513
  0
LINE
  8
0-2
  6
CONTINUOUS
 62
    3
 10
1197.1649
 20
2908.9513
 11
1197.2762
 21
2909.6975
  0
LINE
  8
0-2
  6
CONTINUOUS
 62
    3
 10
1197.2762
 20
2909.6975
 11
1197.4258
 21
2910.4012
  0
LINE
  8
0-2
  6
CONTINUOUS
 62
    3
 10
1197.4258
 20
2910.4012
 11
1197.6114
 21
2911.0619
  0
LINE
  8
0-2
  6
CONTINUOUS
 62
    3
 10
1197.6114
 20
2911.0619
 11
1197.8274
 21
2911.6786
  0
LINE
  8
0-2
  6
CONTINUOUS
 62
    3
 10
1197.8274
 20
2911.6786
 11
1198.0698
 21
2912.2511
  0
LINE
  8
0-2
  6
CONTINUOUS
 62
    3
 10
1198.0698
 20
2912.2511
 11
1198.3348
 21
2912.7807
  0
LINE
  8
0-2
  6
CONTINUOUS
 62
    3
 10
1198.3348
 20
2912.7807
 11
1198.6169
 21
2913.2647
  0
LINE
  8
0-2
  6
CONTINUOUS
 62
    3
 10
1198.6169
 20
2913.2647
 11
1198.9123
 21
2913.706
  0
LINE
  8
0-2
  6
CONTINUOUS
 62
    3
 10
1198.9123
 20
2913.706
 11
1199.2166
 21
2914.1015
  0
LINE
  8
0-2
  6
CONTINUOUS
 62
    3
 10
1199.2166
 20
2914.1015
 11
1199.5255
 21
2914.4528
  0
LINE
  8
0-2
  6
CONTINUOUS
 62
    3
 10
1199.5255
 20
2914.4528
 11
1199.8357
 21
2914.7583
  0
LINE
  8
0-2
  6
CONTINUOUS
 62
    3
 10
1199.8357
 20
2914.7583
 11
1200.1416
 21
2915.019
  0
LINE
  8
0-2
  6
CONTINUOUS
 62
    3
 10
1200.1416
 20
2915.019
 11
1200.4389
 21
2915.2337
  0
LINE
  8
0-2
  6
CONTINUOUS
 62
    3
 10
1227.4137
 20
2908.1609
 11
1227.6141
 21
2909.0404
  0
LINE
  8
0-2
  6
CONTINUOUS
 62
    3
 10
1227.6141
 20
2909.0404
 11
1227.859
 21
2909.8629
  0
LINE
  8
0-2
  6
CONTINUOUS
 62
    3
 10
1227.859
 20
2909.8629
 11
1228.1456
 21
2910.6304
  0
LINE
  8
0-2
  6
CONTINUOUS
 62
    3
 10
1228.1456
 20
2910.6304
 11
1228.4729
 21
2911.3425
  0
LINE
  8
0-2
  6
CONTINUOUS
 62
    3
 10
1228.4729
 20
2911.3425
 11
1228.8382
 21
2912.0007
  0
LINE
  8
0-2
  6
CONTINUOUS
 62
    3
 10
1228.8382
 20
2912.0007
 11
1229.2394
 21
2912.6044
  0
LINE
  8
0-2
  6
CONTINUOUS
 62
    3
 10
1229.2394
 20
2912.6044
 11
1229.6759
 21
2913.1543
  0
LINE
  8
0-2
  6
CONTINUOUS
 62
    3
 10
1229.6759
 20
2913.1543
 11
1230.1461
 21
2913.6502
  0
LINE
  8
0-2
  6
CONTINUOUS
 62
    3
 10
1230.1461
 20
2913.6502
 11
1230.6472
 21
2914.0941
  0
LINE
  8
0-2
  6
CONTINUOUS
 62
    3
 10
1230.6472
 20
2914.0941
 11
1231.1783
 21
2914.4855
  0
LINE
  8
0-2
  6
CONTINUOUS
 62
    3
 10
1231.1783
 20
2914.4855
 11
1231.7369
 21
2914.824
  0
LINE
  8
0-2
  6
CONTINUOUS
 62
    3
 10
1231.7369
 20
2914.824
 11
1232.3219
 21
2915.1111
  0
LINE
  8
0-2
  6
CONTINUOUS
 62
    3
 10
1232.3219
 20
2915.1111
 11
1232.9313
 21
2915.3471
  0
LINE
  8
0-2
  6
CONTINUOUS
 62
    3
 10
1232.9313
 20
2915.3471
 11
1233.563
 21
2915.5333
  0
LINE
  8
0-2
  6
CONTINUOUS
 62
    3
 10
1265.2363
 20
2908.1609
 11
1265.5403
 21
2909.0829
  0
LINE
  8
0-2
  6
CONTINUOUS
 62
    3
 10
1265.5403
 20
2909.0829
 11
1265.8966
 21
2909.9351
  0
LINE
  8
0-2
  6
CONTINUOUS
 62
    3
 10
1265.8966
 20
2909.9351
 11
1266.3004
 21
2910.7219
  0
LINE
  8
0-2
  6
CONTINUOUS
 62
    3
 10
1266.3004
 20
2910.7219
 11
1266.7477
 21
2911.4405
  0
LINE
  8
0-2
  6
CONTINUOUS
 62
    3
 10
1266.7477
 20
2911.4405
 11
1267.2343
 21
2912.0922
  0
LINE
  8
0-2
  6
CONTINUOUS
 62
    3
 10
1267.2343
 20
2912.0922
 11
1267.7554
 21
2912.6757
  0
LINE
  8
0-2
  6
CONTINUOUS
 62
    3
 10
1267.7554
 20
2912.6757
 11
1268.3062
 21
2913.192
  0
LINE
  8
0-2
  6
CONTINUOUS
 62
    3
 10
1268.3062
 20
2913.192
 11
1268.8822
 21
2913.6416
  0
LINE
  8
0-2
  6
CONTINUOUS
 62
    3
 10
1268.8822
 20
2913.6416
 11
1269.479
 21
2914.0258
  0
LINE
  8
0-2
  6
CONTINUOUS
 62
    3
 10
1269.479
 20
2914.0258
 11
1270.0907
 21
2914.3455
  0
LINE
  8
0-2
  6
CONTINUOUS
 62
    3
 10
1270.0907
 20
2914.3455
 11
1270.7128
 21
2914.6028
  0
LINE
  8
0-2
  6
CONTINUOUS
 62
    3
 10
1270.7128
 20
2914.6028
 11
1271.3404
 21
2914.7993
  0
LINE
  8
0-2
  6
CONTINUOUS
 62
    3
 10
1271.3404
 20
2914.7993
 11
1271.9673
 21
2914.9342
  0
LINE
  8
0-2
  6
CONTINUOUS
 62
    3
 10
1271.9673
 20
2914.9342
 11
1272.589
 21
2915.0131
  0
LINE
  8
0-2
  6
CONTINUOUS
 62
    3
 10
1272.589
 20
2915.0131
 11
1273.1992
 21
2915.0368
  0
LINE
  8
0-2
  6
CONTINUOUS
 62
    3
 10
1273.1992
 20
2915.0368
 11
1273.7919
 21
2915.0075
  0
LINE
  8
0-2
  6
CONTINUOUS
 62
    3
 10
1273.7919
 20
2915.0075
 11
1274.3624
 21
2914.9294
  0
LINE
  8
0-2
  6
CONTINUOUS
 62
    3
 10
1274.3624
 20
2914.9294
 11
1274.9043
 21
2914.8041
  0
LINE
  8
0-2
  6
CONTINUOUS
 62
    3
 10
1274.9043
 20
2914.8041
 11
1275.4117
 21
2914.6354
  0
LINE
  8
0-2
  6
CONTINUOUS
 62
    3
 10
1174.9614
 20
2908.1609
 11
1165.0002
 21
2908.1609
  0
LINE
  8
0-2
  6
CONTINUOUS
 62
    3
 10
1077.3909
 20
3017.8102
 11
1174.9614
 21
2908.1609
  0
LINE
  8
0-2
  6
CONTINUOUS
 62
    3
 10
1181.3976
 20
2908.1609
 11
1085.3972
 21
3017.8102
  0
LINE
  8
0-2
  6
CONTINUOUS
 62
    3
 10
1104.9257
 20
3017.8102
 11
1197.097
 21
2908.1609
  0
LINE
  8
0-2
  6
CONTINUOUS
 62
    3
 10
1197.097
 20
2908.1609
 11
1181.3976
 21
2908.1609
  0
LINE
  8
0-2
  6
CONTINUOUS
 62
    3
 10
1206.3225
 20
2908.1609
 11
1116.4009
 21
3017.8102
  0
LINE
  8
0-2
  6
CONTINUOUS
 62
    3
 10
1227.4137
 20
2908.1609
 11
1206.3225
 21
2908.1609
  0
LINE
  8
0-2
  6
CONTINUOUS
 62
    3
 10
1142.6359
 20
3017.8102
 11
1227.4137
 21
2908.1609
  0
LINE
  8
0-2
  6
CONTINUOUS
 62
    3
 10
1239.228
 20
2908.1609
 11
1157.332
 21
3017.8102
  0
LINE
  8
0-2
  6
CONTINUOUS
 62
    3
 10
1265.2534
 20
2908.1609
 11
1239.228
 21
2908.1609
  0
LINE
  8
0-2
  6
CONTINUOUS
 62
    3
 10
1189.7053
 20
3017.8102
 11
1265.2534
 21
2908.1609
  0
LINE
  8
0-2
  6
CONTINUOUS
 62
    3
 10
1279.402
 20
2908.1609
 11
1207.305
 21
3017.8102
  0
LINE
  8
0-2
  6
CONTINUOUS
 62
    3
 10
1309.7985
 20
2908.1609
 11
1279.402
 21
2908.1609
  0
LINE
  8
0-2
  6
CONTINUOUS
 62
    3
 10
1245.1157
 20
3017.8102
 11
1309.7985
 21
2908.1609
  0
LINE
  8
0-2
  6
CONTINUOUS
 62
    3
 10
1325.9744
 20
2908.1609
 11
1265.2363
 21
3017.8102
  0
LINE
  8
0-2
  6
CONTINUOUS
 62
    3
 10
1360.0851
 20
2908.1609
 11
1325.9744
 21
2908.1609
  0
LINE
  8
0-2
  6
CONTINUOUS
 62
    3
 10
1377.9378
 20
2908.1609
 11
1329.8738
 21
3017.8102
  0
LINE
  8
0-2
  6
CONTINUOUS
 62
    3
 10
1415.0238
 20
2908.1609
 11
1377.9378
 21
2908.1609
  0
LINE
  8
0-2
  6
CONTINUOUS
 62
    3
 10
1376.0045
 20
3017.8102
 11
1415.0238
 21
2908.1609
  0
LINE
  8
0-2
  6
CONTINUOUS
 62
    3
 10
1399.817
 20
3017.8102
 11
1434.1671
 21
2908.1609
  0
LINE
  8
0-2
  6
CONTINUOUS
 62
    3
 10
1473.425
 20
2908.1609
 11
1434.1671
 21
2908.1609
  0
LINE
  8
0-2
  6
CONTINUOUS
 62
    3
 10
1473.425
 20
2908.1609
 11
1448.6501
 21
3017.8102
  0
LINE
  8
0-2
  6
CONTINUOUS
 62
    3
 10
1473.553
 20
3017.8102
 11
1493.4446
 21
2908.1609
  0
LINE
  8
0-2
  6
CONTINUOUS
 62
    3
 10
1534.0254
 20
2908.1609
 11
1493.4446
 21
2908.1609
  0
LINE
  8
0-2
  6
CONTINUOUS
 62
    3
 10
1534.0254
 20
2908.1609
 11
1524.0311
 21
3017.8102
  0
LINE
  8
0-2
  6
CONTINUOUS
 62
    3
 10
1554.4881
 20
2908.1609
 11
1549.4849
 21
3017.8102
  0
LINE
  8
0-2
  6
CONTINUOUS
 62
    3
 10
1574.9999
 20
2908.1609
 11
1554.4881
 21
2908.1609
  0
LINE
  8
0-2
  6
CONTINUOUS
 62
    3
 10
1307.6669
 20
3017.8102
 11
1360.0851
 21
2908.1609
  0
LINE
  8
0-2
  6
CONTINUOUS
 62
    3
 10
1368.935
 20
2908.1609
 11
1368.935
 21
2731.528
  0
LINE
  8
0-8
  6
CONTINUOUS
 62
    7
 10
835.00025
 20
2667.8105
 11
835.00025
 21
3917.8102
  0
LINE
  8
0-2
  6
CONTINUOUS
 62
    3
 10
1368.2665
 20
3768.5416
 11
1368.4495
 21
3768.5283
  0
LINE
  8
0-2
  6
CONTINUOUS
 62
    3
 10
1368.4495
 20
3768.5283
 11
1368.6288
 21
3768.5179
  0
LINE
  8
0-2
  6
CONTINUOUS
 62
    3
 10
1368.6288
 20
3768.5179
 11
1368.804
 21
3768.5104
  0
LINE
  8
0-2
  6
CONTINUOUS
 62
    3
 10
1368.804
 20
3768.5104
 11
1368.9755
 21
3768.5067
  0
LINE
  8
0-2
  6
CONTINUOUS
 62
    3
 10
1368.9755
 20
3768.5067
 11
1369.1428
 21
3768.5067
  0
LINE
  8
0-2
  6
CONTINUOUS
 62
    3
 10
1369.1428
 20
3768.5067
 11
1369.3062
 21
3768.5104
  0
LINE
  8
0-2
  6
CONTINUOUS
 62
    3
 10
1369.3062
 20
3768.5104
 11
1369.4669
 21
3768.5179
  0
LINE
  8
0-2
  6
CONTINUOUS
 62
    3
 10
1369.4669
 20
3768.5179
 11
1369.6224
 21
3768.5283
  0
LINE
  8
0-2
  6
CONTINUOUS
 62
    3
 10
1369.6224
 20
3768.5283
 11
1369.7749
 21
3768.5416
  0
LINE
  8
0-2
  6
CONTINUOUS
 62
    3
 10
1481.6321
 20
3768.3479
 11
1482.122
 21
3768.3145
  0
LINE
  8
0-2
  6
CONTINUOUS
 62
    3
 10
1482.122
 20
3768.3145
 11
1482.6142
 21
3768.2915
  0
LINE
  8
0-2
  6
CONTINUOUS
 62
    3
 10
1482.6142
 20
3768.2915
 11
1483.1108
 21
3768.2774
  0
LINE
  8
0-2
  6
CONTINUOUS
 62
    3
 10
1483.1108
 20
3768.2774
 11
1483.6096
 21
3768.2744
  0
LINE
  8
0-2
  6
CONTINUOUS
 62
    3
 10
1483.6096
 20
3768.2744
 11
1484.1122
 21
3768.2796
  0
LINE
  8
0-2
  6
CONTINUOUS
 62
    3
 10
1484.1122
 20
3768.2796
 11
1484.6177
 21
3768.2937
  0
LINE
  8
0-2
  6
CONTINUOUS
 62
    3
 10
1484.6177
 20
3768.2937
 11
1485.1258
 21
3768.3189
  0
LINE
  8
0-2
  6
CONTINUOUS
 62
    3
 10
1485.1258
 20
3768.3189
 11
1485.6376
 21
3768.3516
  0
LINE
  8
0-2
  6
CONTINUOUS
 62
    3
 10
1485.6376
 20
3768.3516
 11
1486.1528
 21
3768.3961
  0
LINE
  8
0-2
  6
CONTINUOUS
 62
    3
 10
1481.6321
 20
2917.2733
 11
1482.122
 21
2917.3057
  0
LINE
  8
0-2
  6
CONTINUOUS
 62
    3
 10
1482.122
 20
2917.3057
 11
1482.6142
 21
2917.3286
  0
LINE
  8
0-2
  6
CONTINUOUS
 62
    3
 10
1482.6142
 20
2917.3286
 11
1483.1108
 21
2917.3425
  0
LINE
  8
0-2
  6
CONTINUOUS
 62
    3
 10
1483.1108
 20
2917.3425
 11
1483.6096
 21
2917.3464
  0
LINE
  8
0-2
  6
CONTINUOUS
 62
    3
 10
1483.6096
 20
2917.3464
 11
1484.1122
 21
2917.341
  0
LINE
  8
0-2
  6
CONTINUOUS
 62
    3
 10
1484.1122
 20
2917.341
 11
1484.6177
 21
2917.3265
  0
LINE
  8
0-2
  6
CONTINUOUS
 62
    3
 10
1484.6177
 20
2917.3265
 11
1485.1258
 21
2917.3018
  0
LINE
  8
0-2
  6
CONTINUOUS
 62
    3
 10
1485.1258
 20
2917.3018
 11
1485.6376
 21
2917.2677
  0
LINE
  8
0-2
  6
CONTINUOUS
 62
    3
 10
1485.6376
 20
2917.2677
 11
1486.1528
 21
2917.2241
  0
LINE
  8
0-2
  6
CONTINUOUS
 62
    3
 10
1368.2665
 20
2917.0777
 11
1368.4495
 21
2917.0921
  0
LINE
  8
0-2
  6
CONTINUOUS
 62
    3
 10
1368.4495
 20
2917.0921
 11
1368.6288
 21
2917.1029
  0
LINE
  8
0-2
  6
CONTINUOUS
 62
    3
 10
1368.6288
 20
2917.1029
 11
1368.804
 21
2917.1099
  0
LINE
  8
0-2
  6
CONTINUOUS
 62
    3
 10
1368.804
 20
2917.1099
 11
1368.9755
 21
2917.1133
  0
LINE
  8
0-2
  6
CONTINUOUS
 62
    3
 10
1368.9755
 20
2917.1133
 11
1369.1428
 21
2917.1133
  0
LINE
  8
0-2
  6
CONTINUOUS
 62
    3
 10
1369.1428
 20
2917.1133
 11
1369.3062
 21
2917.1099
  0
LINE
  8
0-2
  6
CONTINUOUS
 62
    3
 10
1369.3062
 20
2917.1099
 11
1369.4669
 21
2917.1029
  0
LINE
  8
0-2
  6
CONTINUOUS
 62
    3
 10
1369.4669
 20
2917.1029
 11
1369.6224
 21
2917.0921
  0
LINE
  8
0-2
  6
CONTINUOUS
 62
    3
 10
1369.6224
 20
2917.0921
 11
1369.7749
 21
2917.0777
  0
LINE
  8
0-2
  6
CONTINUOUS
 62
    3
 10
1065.0001
 20
3039.7391
 11
1574.9999
 21
3039.7391
  0
LINE
  8
0-2
  6
CONTINUOUS
 62
    3
 10
1064.9997
 20
3017.8102
 11
1574.9999
 21
3017.8102
  0
LINE
  8
0-2
  6
CONTINUOUS
 62
    3
 10
1065.0012
 20
3130.8807
 11
1574.9999
 21
3130.8807
  0
LINE
  8
0-2
  6
CONTINUOUS
 62
    3
 10
1065.0001
 20
3017.8102
 11
1574.9999
 21
3017.8102
  0
LINE
  8
0-2
  6
CONTINUOUS
 62
    3
 10
1064.9997
 20
3554.7391
 11
1574.9999
 21
3554.7391
  0
LINE
  8
0-2
  6
CONTINUOUS
 62
    3
 10
1064.9997
 20
3532.8103
 11
1574.9999
 21
3532.8103
  0
LINE
  8
0-2
  6
CONTINUOUS
 62
    3
 10
1065.0012
 20
3152.8103
 11
1574.9999
 21
3152.8103
  0
LINE
  8
0-8
  6
CONTINUOUS
 62
    7
 10
1423.7
 20
3917.8102
 11
835.00025
 21
3917.8102
  0
LINE
  8
0-8
  6
CONTINUOUS
 62
    7
 10
1112.2639
 20
2667.8116
 11
835.00025
 21
2667.8116
  0
LINE
  8
0-8
  6
CONTINUOUS
 62
    7
 10
1077.9484
 20
2667.8116
 11
835.00025
 21
2667.8116
  0
LINE
  8
0-8
  6
CONTINUOUS
 62
    7
 10
1077.9476
 20
2667.8116
 11
835.00025
 21
2667.8116
  0
LINE
  8
0-8
  6
CONTINUOUS
 62
    7
 10
1077.9476
 20
2667.8105
 11
835.00025
 21
2667.8105
  0
LINE
  8
0-8
  6
CONTINUOUS
 62
    7
 10
1063.8807
 20
2667.812
 11
835.00025
 21
2667.812
  0
LINE
  8
0-8
  6
CONTINUOUS
 62
    7
 10
1063.8807
 20
2667.8105
 11
835.00025
 21
2667.8105
  0
LINE
  8
0-2
  6
CONTINUOUS
 62
    3
 10
1267.51
 20
2680.5544
 11
1882.5098
 21
2680.5544
  0
LINE
  8
0-2
  6
CONTINUOUS
 62
    3
 10
1267.51
 20
2667.8118
 11
1882.5098
 21
2667.8118
  0
LINE
  8
0-2
  6
CONTINUOUS
 62
    3
 10
1267.51
 20
2718.7846
 11
1267.51
 21
2680.5544
  0
LINE
  8
0-2
  6
CONTINUOUS
 62
    3
 10
1267.51
 20
2718.7846
 11
1882.5098
 21
2718.7846
  0
LINE
  8
0-2
  6
CONTINUOUS
 62
    3
 10
1267.5
 20
2908.1609
 11
1267.5
 21
2731.528
  0
LINE
  8
0-2
  6
CONTINUOUS
 62
    3
 10
1328.9355
 20
2908.1609
 11
1328.9355
 21
2731.528
  0
LINE
  8
0-2
  6
CONTINUOUS
 62
    3
 10
1267.5082
 20
2731.528
 11
1882.5098
 21
2731.528
  0
LINE
  8
0-8
  6
CONTINUOUS
 62
    7
 10
1267.5
 20
2648.3699
 11
1267.5
 21
2563.5196
  0
LINE
  8
0-8
  6
CONTINUOUS
 62
    7
 10
1267.5
 20
2563.5196
 11
1882.4998
 21
2563.5194
  0
LINE
  8
0-8
  6
CONTINUOUS
 62
    7
 10
1882.4998
 20
2648.3699
 11
1882.4998
 21
2563.5194
  0
LINE
  8
0-2
  6
CONTINUOUS
 62
    3
 10
1882.5098
 20
2718.7852
 11
1882.5098
 21
2680.5544
  0
LINE
  8
0-2
  6
CONTINUOUS
 62
    3
 10
2084.9986
 20
3130.8807
 11
2084.9997
 21
3039.7391
  0
LINE
  8
0-2
  6
CONTINUOUS
 62
    3
 10
2085.0001
 20
3645.88
 11
2085.0001
 21
3554.7391
  0
LINE
  8
0-2
  6
CONTINUOUS
 62
    3
 10
2084.9997
 20
3017.8102
 11
1984.9996
 21
2908.1609
  0
LINE
  8
0-2
  6
CONTINUOUS
 62
    3
 10
1574.9999
 20
3917.8102
 11
1825.6697
 21
3783.244
  0
LINE
  8
0-2
  6
CONTINUOUS
 62
    3
 10
2085.0001
 20
3667.8104
 11
1984.9996
 21
3777.4584
  0
LINE
  8
0-2
  6
CONTINUOUS
 62
    3
 10
1663.847
 20
3768.3961
 11
1663.0241
 21
3768.6366
  0
LINE
  8
0-2
  6
CONTINUOUS
 62
    3
 10
1663.0241
 20
3768.6366
 11
1662.2506
 21
3768.9662
  0
LINE
  8
0-2
  6
CONTINUOUS
 62
    3
 10
1662.2506
 20
3768.9662
 11
1661.5273
 21
3769.3753
  0
LINE
  8
0-2
  6
CONTINUOUS
 62
    3
 10
1661.5273
 20
3769.3753
 11
1660.8517
 21
3769.8592
  0
LINE
  8
0-2
  6
CONTINUOUS
 62
    3
 10
1660.8517
 20
3769.8592
 11
1660.2237
 21
3770.413
  0
LINE
  8
0-2
  6
CONTINUOUS
 62
    3
 10
1660.2237
 20
3770.413
 11
1659.6421
 21
3771.0284
  0
LINE
  8
0-2
  6
CONTINUOUS
 62
    3
 10
1659.6421
 20
3771.0284
 11
1659.1062
 21
3771.6995
  0
LINE
  8
0-2
  6
CONTINUOUS
 62
    3
 10
1659.1062
 20
3771.6995
 11
1658.6148
 21
3772.4217
  0
LINE
  8
0-2
  6
CONTINUOUS
 62
    3
 10
1658.6148
 20
3772.4217
 11
1658.1668
 21
3773.1871
  0
LINE
  8
0-2
  6
CONTINUOUS
 62
    3
 10
1658.1668
 20
3773.1871
 11
1657.7622
 21
3773.9903
  0
LINE
  8
0-2
  6
CONTINUOUS
 62
    3
 10
1657.7622
 20
3773.9903
 11
1657.4003
 21
3774.8261
  0
LINE
  8
0-2
  6
CONTINUOUS
 62
    3
 10
1657.4003
 20
3774.8261
 11
1657.0782
 21
3775.6857
  0
LINE
  8
0-2
  6
CONTINUOUS
 62
    3
 10
1657.0782
 20
3775.6857
 11
1656.7972
 21
3776.5661
  0
LINE
  8
0-2
  6
CONTINUOUS
 62
    3
 10
1656.7972
 20
3776.5661
 11
1656.5552
 21
3777.4584
  0
LINE
  8
0-2
  6
CONTINUOUS
 62
    3
 10
1668.3677
 20
3768.3479
 11
1669.3194
 21
3768.6834
  0
LINE
  8
0-2
  6
CONTINUOUS
 62
    3
 10
1669.3194
 20
3768.6834
 11
1670.2124
 21
3769.0791
  0
LINE
  8
0-2
  6
CONTINUOUS
 62
    3
 10
1670.2124
 20
3769.0791
 11
1671.0475
 21
3769.5334
  0
LINE
  8
0-2
  6
CONTINUOUS
 62
    3
 10
1671.0475
 20
3769.5334
 11
1671.8251
 21
3770.0419
  0
LINE
  8
0-2
  6
CONTINUOUS
 62
    3
 10
1671.8251
 20
3770.0419
 11
1672.5455
 21
3770.6016
  0
LINE
  8
0-2
  6
CONTINUOUS
 62
    3
 10
1672.5455
 20
3770.6016
 11
1673.2103
 21
3771.2103
  0
LINE
  8
0-2
  6
CONTINUOUS
 62
    3
 10
1673.2103
 20
3771.2103
 11
1673.819
 21
3771.865
  0
LINE
  8
0-2
  6
CONTINUOUS
 62
    3
 10
1673.819
 20
3771.865
 11
1674.3724
 21
3772.562
  0
LINE
  8
0-2
  6
CONTINUOUS
 62
    3
 10
1674.3724
 20
3772.562
 11
1674.8719
 21
3773.2977
  0
LINE
  8
0-2
  6
CONTINUOUS
 62
    3
 10
1674.8719
 20
3773.2977
 11
1675.3173
 21
3774.0697
  0
LINE
  8
0-2
  6
CONTINUOUS
 62
    3
 10
1675.3173
 20
3774.0697
 11
1675.7093
 21
3774.8751
  0
LINE
  8
0-2
  6
CONTINUOUS
 62
    3
 10
1675.7093
 20
3774.8751
 11
1676.05
 21
3775.7095
  0
LINE
  8
0-2
  6
CONTINUOUS
 62
    3
 10
1676.05
 20
3775.7095
 11
1676.338
 21
3776.5728
  0
LINE
  8
0-2
  6
CONTINUOUS
 62
    3
 10
1676.338
 20
3776.5728
 11
1676.5748
 21
3777.4584
  0
LINE
  8
0-2
  6
CONTINUOUS
 62
    3
 10
1715.8328
 20
3777.4584
 11
1716.7547
 21
3775.9871
  0
LINE
  8
0-2
  6
CONTINUOUS
 62
    3
 10
1716.7547
 20
3775.9871
 11
1717.6874
 21
3774.6784
  0
LINE
  8
0-2
  6
CONTINUOUS
 62
    3
 10
1717.6874
 20
3774.6784
 11
1718.6268
 21
3773.5226
  0
LINE
  8
0-2
  6
CONTINUOUS
 62
    3
 10
1718.6268
 20
3773.5226
 11
1719.57
 21
3772.5108
  0
LINE
  8
0-2
  6
CONTINUOUS
 62
    3
 10
1719.57
 20
3772.5108
 11
1720.5127
 21
3771.6341
  0
LINE
  8
0-2
  6
CONTINUOUS
 62
    3
 10
1720.5127
 20
3771.6341
 11
1721.4517
 21
3770.8851
  0
LINE
  8
0-2
  6
CONTINUOUS
 62
    3
 10
1721.4517
 20
3770.8851
 11
1722.3826
 21
3770.2534
  0
LINE
  8
0-2
  6
CONTINUOUS
 62
    3
 10
1722.3826
 20
3770.2534
 11
1723.3023
 21
3769.7286
  0
LINE
  8
0-2
  6
CONTINUOUS
 62
    3
 10
1723.3023
 20
3769.7286
 11
1724.2076
 21
3769.3032
  0
LINE
  8
0-2
  6
CONTINUOUS
 62
    3
 10
1724.2076
 20
3769.3032
 11
1725.0939
 21
3768.9685
  0
LINE
  8
0-2
  6
CONTINUOUS
 62
    3
 10
1725.0939
 20
3768.9685
 11
1725.9576
 21
3768.7146
  0
LINE
  8
0-2
  6
CONTINUOUS
 62
    3
 10
1725.9576
 20
3768.7146
 11
1726.7957
 21
3768.532
  0
LINE
  8
0-2
  6
CONTINUOUS
 62
    3
 10
1726.7957
 20
3768.532
 11
1727.6045
 21
3768.4125
  0
LINE
  8
0-2
  6
CONTINUOUS
 62
    3
 10
1727.6045
 20
3768.4125
 11
1728.3794
 21
3768.3479
  0
LINE
  8
0-2
  6
CONTINUOUS
 62
    3
 10
1734.9761
 20
3777.4584
 11
1734.949
 21
3776.4006
  0
LINE
  8
0-2
  6
CONTINUOUS
 62
    3
 10
1734.949
 20
3776.4006
 11
1734.8655
 21
3775.4214
  0
LINE
  8
0-2
  6
CONTINUOUS
 62
    3
 10
1734.8655
 20
3775.4214
 11
1734.7233
 21
3774.5195
  0
LINE
  8
0-2
  6
CONTINUOUS
 62
    3
 10
1734.7233
 20
3774.5195
 11
1734.5188
 21
3773.6881
  0
LINE
  8
0-2
  6
CONTINUOUS
 62
    3
 10
1734.5188
 20
3773.6881
 11
1734.2497
 21
3772.9243
  0
LINE
  8
0-2
  6
CONTINUOUS
 62
    3
 10
1734.2497
 20
3772.9243
 11
1733.9119
 21
3772.2243
  0
LINE
  8
0-2
  6
CONTINUOUS
 62
    3
 10
1733.9119
 20
3772.2243
 11
1733.5026
 21
3771.5822
  0
LINE
  8
0-2
  6
CONTINUOUS
 62
    3
 10
1733.5026
 20
3771.5822
 11
1733.0193
 21
3770.9928
  0
LINE
  8
0-2
  6
CONTINUOUS
 62
    3
 10
1733.0193
 20
3770.9928
 11
1732.4581
 21
3770.4538
  0
LINE
  8
0-2
  6
CONTINUOUS
 62
    3
 10
1732.4581
 20
3770.4538
 11
1731.8164
 21
3769.9602
  0
LINE
  8
0-2
  6
CONTINUOUS
 62
    3
 10
1731.8164
 20
3769.9602
 11
1731.0904
 21
3769.5066
  0
LINE
  8
0-2
  6
CONTINUOUS
 62
    3
 10
1731.0904
 20
3769.5066
 11
1730.2783
 21
3769.0902
  0
LINE
  8
0-2
  6
CONTINUOUS
 62
    3
 10
1730.2783
 20
3769.0902
 11
1729.3753
 21
3768.7042
  0
LINE
  8
0-2
  6
CONTINUOUS
 62
    3
 10
1729.3753
 20
3768.7042
 11
1728.3794
 21
3768.3479
  0
LINE
  8
0-2
  6
CONTINUOUS
 62
    3
 10
1789.9147
 20
3777.4584
 11
1789.4445
 21
3776.2157
  0
LINE
  8
0-2
  6
CONTINUOUS
 62
    3
 10
1789.4445
 20
3776.2157
 11
1788.9546
 21
3775.0874
  0
LINE
  8
0-2
  6
CONTINUOUS
 62
    3
 10
1788.9546
 20
3775.0874
 11
1788.4464
 21
3774.0697
  0
LINE
  8
0-2
  6
CONTINUOUS
 62
    3
 10
1788.4464
 20
3774.0697
 11
1787.919
 21
3773.1551
  0
LINE
  8
0-2
  6
CONTINUOUS
 62
    3
 10
1787.919
 20
3773.1551
 11
1787.3734
 21
3772.3408
  0
LINE
  8
0-2
  6
CONTINUOUS
 62
    3
 10
1787.3734
 20
3772.3408
 11
1786.8104
 21
3771.6193
  0
LINE
  8
0-2
  6
CONTINUOUS
 62
    3
 10
1786.8104
 20
3771.6193
 11
1786.231
 21
3770.9853
  0
LINE
  8
0-2
  6
CONTINUOUS
 62
    3
 10
1786.231
 20
3770.9853
 11
1785.6342
 21
3770.4345
  0
LINE
  8
0-2
  6
CONTINUOUS
 62
    3
 10
1785.6342
 20
3770.4345
 11
1785.0217
 21
3769.9595
  0
LINE
  8
0-2
  6
CONTINUOUS
 62
    3
 10
1785.0217
 20
3769.9595
 11
1784.3934
 21
3769.5564
  0
LINE
  8
0-2
  6
CONTINUOUS
 62
    3
 10
1784.3934
 20
3769.5564
 11
1783.7494
 21
3769.2179
  0
LINE
  8
0-2
  6
CONTINUOUS
 62
    3
 10
1783.7494
 20
3769.2179
 11
1783.0917
 21
3768.9403
  0
LINE
  8
0-2
  6
CONTINUOUS
 62
    3
 10
1783.0917
 20
3768.9403
 11
1782.4192
 21
3768.7161
  0
LINE
  8
0-2
  6
CONTINUOUS
 62
    3
 10
1782.4192
 20
3768.7161
 11
1781.7333
 21
3768.5416
  0
LINE
  8
0-2
  6
CONTINUOUS
 62
    3
 10
1780.2249
 20
3768.5416
 11
1779.5093
 21
3768.6901
  0
LINE
  8
0-2
  6
CONTINUOUS
 62
    3
 10
1779.5093
 20
3768.6901
 11
1778.7996
 21
3768.9284
  0
LINE
  8
0-2
  6
CONTINUOUS
 62
    3
 10
1778.7996
 20
3768.9284
 11
1778.0959
 21
3769.2528
  0
LINE
  8
0-2
  6
CONTINUOUS
 62
    3
 10
1778.0959
 20
3769.2528
 11
1777.3981
 21
3769.6662
  0
LINE
  8
0-2
  6
CONTINUOUS
 62
    3
 10
1777.3981
 20
3769.6662
 11
1776.7059
 21
3770.1658
  0
LINE
  8
0-2
  6
CONTINUOUS
 62
    3
 10
1776.7059
 20
3770.1658
 11
1776.0196
 21
3770.7552
  0
LINE
  8
0-2
  6
CONTINUOUS
 62
    3
 10
1776.0196
 20
3770.7552
 11
1775.3389
 21
3771.4322
  0
LINE
  8
0-2
  6
CONTINUOUS
 62
    3
 10
1775.3389
 20
3771.4322
 11
1774.6642
 21
3772.1968
  0
LINE
  8
0-2
  6
CONTINUOUS
 62
    3
 10
1774.6642
 20
3772.1968
 11
1773.9953
 21
3773.049
  0
LINE
  8
0-2
  6
CONTINUOUS
 62
    3
 10
1840.2013
 20
3777.4584
 11
1840.0647
 21
3776.5104
  0
LINE
  8
0-2
  6
CONTINUOUS
 62
    3
 10
1840.0647
 20
3776.5104
 11
1839.8717
 21
3775.6285
  0
LINE
  8
0-2
  6
CONTINUOUS
 62
    3
 10
1839.8717
 20
3775.6285
 11
1839.6264
 21
3774.809
  0
LINE
  8
0-2
  6
CONTINUOUS
 62
    3
 10
1839.6264
 20
3774.809
 11
1839.3324
 21
3774.0496
  0
LINE
  8
0-2
  6
CONTINUOUS
 62
    3
 10
1839.3324
 20
3774.0496
 11
1838.9954
 21
3773.3474
  0
LINE
  8
0-2
  6
CONTINUOUS
 62
    3
 10
1838.9954
 20
3773.3474
 11
1838.618
 21
3772.7008
  0
LINE
  8
0-2
  6
CONTINUOUS
 62
    3
 10
1838.618
 20
3772.7008
 11
1838.2045
 21
3772.107
  0
LINE
  8
0-2
  6
CONTINUOUS
 62
    3
 10
1838.2045
 20
3772.107
 11
1837.7591
 21
3771.5644
  0
LINE
  8
0-2
  6
CONTINUOUS
 62
    3
 10
1837.7591
 20
3771.5644
 11
1837.284
 21
3771.0707
  0
LINE
  8
0-2
  6
CONTINUOUS
 62
    3
 10
1837.284
 20
3771.0707
 11
1836.7833
 21
3770.6246
  0
LINE
  8
0-2
  6
CONTINUOUS
 62
    3
 10
1836.7833
 20
3770.6246
 11
1836.2596
 21
3770.2245
  0
LINE
  8
0-2
  6
CONTINUOUS
 62
    3
 10
1836.2596
 20
3770.2245
 11
1835.7147
 21
3769.8689
  0
LINE
  8
0-2
  6
CONTINUOUS
 62
    3
 10
1835.7147
 20
3769.8689
 11
1835.1532
 21
3769.5564
  0
LINE
  8
0-2
  6
CONTINUOUS
 62
    3
 10
1835.1532
 20
3769.5564
 11
1834.5745
 21
3769.2869
  0
LINE
  8
0-2
  6
CONTINUOUS
 62
    3
 10
1834.5745
 20
3769.2869
 11
1833.9833
 21
3769.0575
  0
LINE
  8
0-2
  6
CONTINUOUS
 62
    3
 10
1833.9833
 20
3769.0575
 11
1833.3794
 21
3768.8682
  0
LINE
  8
0-2
  6
CONTINUOUS
 62
    3
 10
1833.3794
 20
3768.8682
 11
1832.7648
 21
3768.7198
  0
LINE
  8
0-2
  6
CONTINUOUS
 62
    3
 10
1832.7648
 20
3768.7198
 11
1832.142
 21
3768.6121
  0
LINE
  8
0-2
  6
CONTINUOUS
 62
    3
 10
1832.142
 20
3768.6121
 11
1831.5102
 21
3768.5416
  0
LINE
  8
0-2
  6
CONTINUOUS
 62
    3
 10
1831.351
 20
3768.5505
 11
1830.9951
 21
3768.5884
  0
LINE
  8
0-2
  6
CONTINUOUS
 62
    3
 10
1830.9951
 20
3768.5884
 11
1830.6462
 21
3768.6441
  0
LINE
  8
0-2
  6
CONTINUOUS
 62
    3
 10
1830.6462
 20
3768.6441
 11
1830.3025
 21
3768.7161
  0
LINE
  8
0-2
  6
CONTINUOUS
 62
    3
 10
1830.3025
 20
3768.7161
 11
1829.9659
 21
3768.8059
  0
LINE
  8
0-2
  6
CONTINUOUS
 62
    3
 10
1829.9659
 20
3768.8059
 11
1829.6344
 21
3768.9113
  0
LINE
  8
0-2
  6
CONTINUOUS
 62
    3
 10
1829.6344
 20
3768.9113
 11
1829.3096
 21
3769.0338
  0
LINE
  8
0-2
  6
CONTINUOUS
 62
    3
 10
1829.3096
 20
3769.0338
 11
1828.9908
 21
3769.1726
  0
LINE
  8
0-2
  6
CONTINUOUS
 62
    3
 10
1828.9908
 20
3769.1726
 11
1828.6787
 21
3769.3292
  0
LINE
  8
0-2
  6
CONTINUOUS
 62
    3
 10
1828.6787
 20
3769.3292
 11
1828.3717
 21
3769.5022
  0
LINE
  8
0-2
  6
CONTINUOUS
 62
    3
 10
1975.0385
 20
3777.4584
 11
1974.9167
 21
3776.4622
  0
LINE
  8
0-2
  6
CONTINUOUS
 62
    3
 10
1974.9167
 20
3776.4622
 11
1974.7879
 21
3775.5506
  0
LINE
  8
0-2
  6
CONTINUOUS
 62
    3
 10
1974.7879
 20
3775.5506
 11
1974.6517
 21
3774.7259
  0
LINE
  8
0-2
  6
CONTINUOUS
 62
    3
 10
1974.6517
 20
3774.7259
 11
1974.5092
 21
3773.9858
  0
LINE
  8
0-2
  6
CONTINUOUS
 62
    3
 10
1974.5092
 20
3773.9858
 11
1974.3592
 21
3773.3333
  0
LINE
  8
0-2
  6
CONTINUOUS
 62
    3
 10
1974.3592
 20
3773.3333
 11
1974.2019
 21
3772.7662
  0
LINE
  8
0-2
  6
CONTINUOUS
 62
    3
 10
1974.2019
 20
3772.7662
 11
1974.0382
 21
3772.2851
  0
LINE
  8
0-2
  6
CONTINUOUS
 62
    3
 10
1974.0382
 20
3772.2851
 11
1973.8663
 21
3771.8902
  0
LINE
  8
0-2
  6
CONTINUOUS
 62
    3
 10
1973.8663
 20
3771.8902
 11
1973.6882
 21
3771.5822
  0
LINE
  8
0-2
  6
CONTINUOUS
 62
    3
 10
1952.9029
 20
3777.4584
 11
1952.8349
 21
3776.67
  0
LINE
  8
0-2
  6
CONTINUOUS
 62
    3
 10
1952.8349
 20
3776.67
 11
1952.7236
 21
3775.9233
  0
LINE
  8
0-2
  6
CONTINUOUS
 62
    3
 10
1952.7236
 20
3775.9233
 11
1952.574
 21
3775.2195
  0
LINE
  8
0-2
  6
CONTINUOUS
 62
    3
 10
1952.574
 20
3775.2195
 11
1952.3884
 21
3774.5589
  0
LINE
  8
0-2
  6
CONTINUOUS
 62
    3
 10
1952.3884
 20
3774.5589
 11
1952.1724
 21
3773.942
  0
LINE
  8
0-2
  6
CONTINUOUS
 62
    3
 10
1952.1724
 20
3773.942
 11
1951.9301
 21
3773.3689
  0
LINE
  8
0-2
  6
CONTINUOUS
 62
    3
 10
1951.9301
 20
3773.3689
 11
1951.665
 21
3772.8397
  0
LINE
  8
0-2
  6
CONTINUOUS
 62
    3
 10
1951.665
 20
3772.8397
 11
1951.383
 21
3772.3549
  0
LINE
  8
0-2
  6
CONTINUOUS
 62
    3
 10
1951.383
 20
3772.3549
 11
1951.0875
 21
3771.914
  0
LINE
  8
0-2
  6
CONTINUOUS
 62
    3
 10
1951.0875
 20
3771.914
 11
1950.7832
 21
3771.5183
  0
LINE
  8
0-2
  6
CONTINUOUS
 62
    3
 10
1950.7832
 20
3771.5183
 11
1950.4744
 21
3771.168
  0
LINE
  8
0-2
  6
CONTINUOUS
 62
    3
 10
1950.4744
 20
3771.168
 11
1950.1641
 21
3770.8621
  0
LINE
  8
0-2
  6
CONTINUOUS
 62
    3
 10
1950.1641
 20
3770.8621
 11
1949.8582
 21
3770.6016
  0
LINE
  8
0-2
  6
CONTINUOUS
 62
    3
 10
1949.8582
 20
3770.6016
 11
1949.5609
 21
3770.3855
  0
LINE
  8
0-2
  6
CONTINUOUS
 62
    3
 10
1922.5862
 20
3777.4584
 11
1922.3857
 21
3776.5802
  0
LINE
  8
0-2
  6
CONTINUOUS
 62
    3
 10
1922.3857
 20
3776.5802
 11
1922.1408
 21
3775.7577
  0
LINE
  8
0-2
  6
CONTINUOUS
 62
    3
 10
1922.1408
 20
3775.7577
 11
1921.8542
 21
3774.9894
  0
LINE
  8
0-2
  6
CONTINUOUS
 62
    3
 10
1921.8542
 20
3774.9894
 11
1921.5269
 21
3774.2775
  0
LINE
  8
0-2
  6
CONTINUOUS
 62
    3
 10
1921.5269
 20
3774.2775
 11
1921.1617
 21
3773.6191
  0
LINE
  8
0-2
  6
CONTINUOUS
 62
    3
 10
1921.1617
 20
3773.6191
 11
1920.7604
 21
3773.0156
  0
LINE
  8
0-2
  6
CONTINUOUS
 62
    3
 10
1920.7604
 20
3773.0156
 11
1920.3239
 21
3772.4663
  0
LINE
  8
0-2
  6
CONTINUOUS
 62
    3
 10
1920.3239
 20
3772.4663
 11
1919.8537
 21
3771.9697
  0
LINE
  8
0-2
  6
CONTINUOUS
 62
    3
 10
1919.8537
 20
3771.9697
 11
1919.3526
 21
3771.5257
  0
LINE
  8
0-2
  6
CONTINUOUS
 62
    3
 10
1919.3526
 20
3771.5257
 11
1918.8215
 21
3771.1345
  0
LINE
  8
0-2
  6
CONTINUOUS
 62
    3
 10
1918.8215
 20
3771.1345
 11
1918.2629
 21
3770.7953
  0
LINE
  8
0-2
  6
CONTINUOUS
 62
    3
 10
1918.2629
 20
3770.7953
 11
1917.6779
 21
3770.5088
  0
LINE
  8
0-2
  6
CONTINUOUS
 62
    3
 10
1917.6779
 20
3770.5088
 11
1917.0685
 21
3770.2727
  0
LINE
  8
0-2
  6
CONTINUOUS
 62
    3
 10
1917.0685
 20
3770.2727
 11
1916.4368
 21
3770.0879
  0
LINE
  8
0-2
  6
CONTINUOUS
 62
    3
 10
1884.7635
 20
3777.4584
 11
1884.4595
 21
3776.5379
  0
LINE
  8
0-2
  6
CONTINUOUS
 62
    3
 10
1884.4595
 20
3776.5379
 11
1884.1032
 21
3775.6842
  0
LINE
  8
0-2
  6
CONTINUOUS
 62
    3
 10
1884.1032
 20
3775.6842
 11
1883.6994
 21
3774.8974
  0
LINE
  8
0-2
  6
CONTINUOUS
 62
    3
 10
1883.6994
 20
3774.8974
 11
1883.2521
 21
3774.1788
  0
LINE
  8
0-2
  6
CONTINUOUS
 62
    3
 10
1883.2521
 20
3774.1788
 11
1882.7655
 21
3773.5285
  0
LINE
  8
0-2
  6
CONTINUOUS
 62
    3
 10
1882.7655
 20
3773.5285
 11
1882.2444
 21
3772.9451
  0
LINE
  8
0-2
  6
CONTINUOUS
 62
    3
 10
1882.2444
 20
3772.9451
 11
1881.6936
 21
3772.4284
  0
LINE
  8
0-2
  6
CONTINUOUS
 62
    3
 10
1881.6936
 20
3772.4284
 11
1881.1176
 21
3771.9786
  0
LINE
  8
0-2
  6
CONTINUOUS
 62
    3
 10
1881.1176
 20
3771.9786
 11
1880.5208
 21
3771.594
  0
LINE
  8
0-2
  6
CONTINUOUS
 62
    3
 10
1880.5208
 20
3771.594
 11
1879.9091
 21
3771.2741
  0
LINE
  8
0-2
  6
CONTINUOUS
 62
    3
 10
1879.9091
 20
3771.2741
 11
1879.287
 21
3771.0173
  0
LINE
  8
0-2
  6
CONTINUOUS
 62
    3
 10
1879.287
 20
3771.0173
 11
1878.6594
 21
3770.8213
  0
LINE
  8
0-2
  6
CONTINUOUS
 62
    3
 10
1878.6594
 20
3770.8213
 11
1878.0325
 21
3770.6854
  0
LINE
  8
0-2
  6
CONTINUOUS
 62
    3
 10
1878.0325
 20
3770.6854
 11
1877.4108
 21
3770.6075
  0
LINE
  8
0-2
  6
CONTINUOUS
 62
    3
 10
1877.4108
 20
3770.6075
 11
1876.8006
 21
3770.583
  0
LINE
  8
0-2
  6
CONTINUOUS
 62
    3
 10
1876.8006
 20
3770.583
 11
1876.2079
 21
3770.6127
  0
LINE
  8
0-2
  6
CONTINUOUS
 62
    3
 10
1876.2079
 20
3770.6127
 11
1875.6374
 21
3770.6906
  0
LINE
  8
0-2
  6
CONTINUOUS
 62
    3
 10
1875.6374
 20
3770.6906
 11
1875.0955
 21
3770.8154
  0
LINE
  8
0-2
  6
CONTINUOUS
 62
    3
 10
1875.0955
 20
3770.8154
 11
1874.5882
 21
3770.9839
  0
LINE
  8
0-2
  6
CONTINUOUS
 62
    3
 10
1975.0385
 20
3777.4584
 11
1984.9996
 21
3777.4584
  0
LINE
  8
0-2
  6
CONTINUOUS
 62
    3
 10
2072.6089
 20
3667.8104
 11
1975.0385
 21
3777.4584
  0
LINE
  8
0-2
  6
CONTINUOUS
 62
    3
 10
1968.6022
 20
3777.4584
 11
2064.6026
 21
3667.8104
  0
LINE
  8
0-2
  6
CONTINUOUS
 62
    3
 10
2045.0741
 20
3667.8104
 11
1952.9029
 21
3777.4584
  0
LINE
  8
0-2
  6
CONTINUOUS
 62
    3
 10
1952.9029
 20
3777.4584
 11
1968.6022
 21
3777.4584
  0
LINE
  8
0-2
  6
CONTINUOUS
 62
    3
 10
1943.6773
 20
3777.4584
 11
2033.5989
 21
3667.8104
  0
LINE
  8
0-2
  6
CONTINUOUS
 62
    3
 10
1922.5862
 20
3777.4584
 11
1943.6773
 21
3777.4584
  0
LINE
  8
0-2
  6
CONTINUOUS
 62
    3
 10
2007.3639
 20
3667.8104
 11
1922.5862
 21
3777.4584
  0
LINE
  8
0-2
  6
CONTINUOUS
 62
    3
 10
1910.7718
 20
3777.4584
 11
1992.6678
 21
3667.8104
  0
LINE
  8
0-2
  6
CONTINUOUS
 62
    3
 10
1884.7464
 20
3777.4584
 11
1910.7718
 21
3777.4584
  0
LINE
  8
0-2
  6
CONTINUOUS
 62
    3
 10
1960.2945
 20
3667.8104
 11
1884.7464
 21
3777.4584
  0
LINE
  8
0-2
  6
CONTINUOUS
 62
    3
 10
1870.5978
 20
3777.4584
 11
1942.6949
 21
3667.8104
  0
LINE
  8
0-2
  6
CONTINUOUS
 62
    3
 10
1840.2013
 20
3777.4584
 11
1870.5978
 21
3777.4584
  0
LINE
  8
0-2
  6
CONTINUOUS
 62
    3
 10
1904.8841
 20
3667.8104
 11
1840.2013
 21
3777.4584
  0
LINE
  8
0-2
  6
CONTINUOUS
 62
    3
 10
1824.0254
 20
3777.4584
 11
1884.7635
 21
3667.8104
  0
LINE
  8
0-2
  6
CONTINUOUS
 62
    3
 10
1789.9147
 20
3777.4584
 11
1824.0254
 21
3777.4584
  0
LINE
  8
0-2
  6
CONTINUOUS
 62
    3
 10
1842.3329
 20
3667.8104
 11
1789.9147
 21
3777.4584
  0
LINE
  8
0-2
  6
CONTINUOUS
 62
    3
 10
1772.062
 20
3777.4584
 11
1820.126
 21
3667.8104
  0
LINE
  8
0-2
  6
CONTINUOUS
 62
    3
 10
1734.9761
 20
3777.4584
 11
1772.062
 21
3777.4584
  0
LINE
  8
0-2
  6
CONTINUOUS
 62
    3
 10
1773.9953
 20
3667.8104
 11
1734.9761
 21
3777.4584
  0
LINE
  8
0-2
  6
CONTINUOUS
 62
    3
 10
1750.1828
 20
3667.8104
 11
1715.8328
 21
3777.4584
  0
LINE
  8
0-2
  6
CONTINUOUS
 62
    3
 10
1676.5748
 20
3777.4584
 11
1715.8328
 21
3777.4584
  0
LINE
  8
0-2
  6
CONTINUOUS
 62
    3
 10
1676.5748
 20
3777.4584
 11
1701.3497
 21
3667.8104
  0
LINE
  8
0-2
  6
CONTINUOUS
 62
    3
 10
1676.4468
 20
3667.8104
 11
1656.5552
 21
3777.4584
  0
LINE
  8
0-2
  6
CONTINUOUS
 62
    3
 10
1615.9745
 20
3777.4584
 11
1656.5552
 21
3777.4584
  0
LINE
  8
0-2
  6
CONTINUOUS
 62
    3
 10
1615.9745
 20
3777.4584
 11
1625.9687
 21
3667.8104
  0
LINE
  8
0-2
  6
CONTINUOUS
 62
    3
 10
1595.5117
 20
3777.4584
 11
1600.5149
 21
3667.8104
  0
LINE
  8
0-2
  6
CONTINUOUS
 62
    3
 10
1574.9999
 20
3777.4584
 11
1595.5117
 21
3777.4584
  0
LINE
  8
0-2
  6
CONTINUOUS
 62
    3
 10
1625.9687
 20
3532.8103
 11
1625.9687
 21
3152.8103
  0
LINE
  8
0-2
  6
CONTINUOUS
 62
    3
 10
1676.4468
 20
3532.8103
 11
1676.4468
 21
3152.8103
  0
LINE
  8
0-2
  6
CONTINUOUS
 62
    3
 10
1773.9953
 20
3532.8103
 11
1773.9953
 21
3152.8103
  0
LINE
  8
0-2
  6
CONTINUOUS
 62
    3
 10
1820.126
 20
3532.8103
 11
1820.126
 21
3152.8103
  0
LINE
  8
0-2
  6
CONTINUOUS
 62
    3
 10
1904.8841
 20
3532.8103
 11
1904.8841
 21
3152.8103
  0
LINE
  8
0-2
  6
CONTINUOUS
 62
    3
 10
1942.6949
 20
3532.8103
 11
1942.6949
 21
3152.8103
  0
LINE
  8
0-2
  6
CONTINUOUS
 62
    3
 10
2007.3639
 20
3532.8103
 11
2007.3639
 21
3152.8103
  0
LINE
  8
0-2
  6
CONTINUOUS
 62
    3
 10
1887.7747
 20
3532.8103
 11
1887.7747
 21
3152.8103
  0
LINE
  8
0-2
  6
CONTINUOUS
 62
    3
 10
1867.774
 20
3532.8103
 11
1867.774
 21
3152.8103
  0
LINE
  8
0-2
  6
CONTINUOUS
 62
    3
 10
2085.0001
 20
3039.7398
 11
2085.0001
 21
3130.8822
  0
LINE
  8
0-2
  6
CONTINUOUS
 62
    3
 10
2085.0001
 20
3017.8102
 11
1984.9996
 21
2908.1609
  0
LINE
  8
0-2
  6
CONTINUOUS
 62
    3
 10
1663.847
 20
2917.2241
 11
1663.0241
 21
2916.9823
  0
LINE
  8
0-2
  6
CONTINUOUS
 62
    3
 10
1663.0241
 20
2916.9823
 11
1662.2506
 21
2916.654
  0
LINE
  8
0-2
  6
CONTINUOUS
 62
    3
 10
1662.2506
 20
2916.654
 11
1661.5273
 21
2916.2448
  0
LINE
  8
0-2
  6
CONTINUOUS
 62
    3
 10
1661.5273
 20
2916.2448
 11
1660.8517
 21
2915.7604
  0
LINE
  8
0-2
  6
CONTINUOUS
 62
    3
 10
1660.8517
 20
2915.7604
 11
1660.2237
 21
2915.207
  0
LINE
  8
0-2
  6
CONTINUOUS
 62
    3
 10
1660.2237
 20
2915.207
 11
1659.6421
 21
2914.5918
  0
LINE
  8
0-2
  6
CONTINUOUS
 62
    3
 10
1659.6421
 20
2914.5918
 11
1659.1062
 21
2913.9204
  0
LINE
  8
0-2
  6
CONTINUOUS
 62
    3
 10
1659.1062
 20
2913.9204
 11
1658.6148
 21
2913.1988
  0
LINE
  8
0-2
  6
CONTINUOUS
 62
    3
 10
1658.6148
 20
2913.1988
 11
1658.1668
 21
2912.4331
  0
LINE
  8
0-2
  6
CONTINUOUS
 62
    3
 10
1658.1668
 20
2912.4331
 11
1657.7622
 21
2911.6296
  0
LINE
  8
0-2
  6
CONTINUOUS
 62
    3
 10
1657.7622
 20
2911.6296
 11
1657.4003
 21
2910.7941
  0
LINE
  8
0-2
  6
CONTINUOUS
 62
    3
 10
1657.4003
 20
2910.7941
 11
1657.0782
 21
2909.9341
  0
LINE
  8
0-2
  6
CONTINUOUS
 62
    3
 10
1657.0782
 20
2909.9341
 11
1656.7972
 21
2909.0543
  0
LINE
  8
0-2
  6
CONTINUOUS
 62
    3
 10
1656.7972
 20
2909.0543
 11
1656.5552
 21
2908.1609
  0
LINE
  8
0-2
  6
CONTINUOUS
 62
    3
 10
1668.3677
 20
2917.2733
 11
1669.3194
 21
2916.9366
  0
LINE
  8
0-2
  6
CONTINUOUS
 62
    3
 10
1669.3194
 20
2916.9366
 11
1670.2124
 21
2916.5408
  0
LINE
  8
0-2
  6
CONTINUOUS
 62
    3
 10
1670.2124
 20
2916.5408
 11
1671.0475
 21
2916.0874
  0
LINE
  8
0-2
  6
CONTINUOUS
 62
    3
 10
1671.0475
 20
2916.0874
 11
1671.8251
 21
2915.5778
  0
LINE
  8
0-2
  6
CONTINUOUS
 62
    3
 10
1671.8251
 20
2915.5778
 11
1672.5455
 21
2915.0185
  0
LINE
  8
0-2
  6
CONTINUOUS
 62
    3
 10
1672.5455
 20
2915.0185
 11
1673.2103
 21
2914.4088
  0
LINE
  8
0-2
  6
CONTINUOUS
 62
    3
 10
1673.2103
 20
2914.4088
 11
1673.819
 21
2913.7547
  0
LINE
  8
0-2
  6
CONTINUOUS
 62
    3
 10
1673.819
 20
2913.7547
 11
1674.3724
 21
2913.0587
  0
LINE
  8
0-2
  6
CONTINUOUS
 62
    3
 10
1674.3724
 20
2913.0587
 11
1674.8719
 21
2912.3229
  0
LINE
  8
0-2
  6
CONTINUOUS
 62
    3
 10
1674.8719
 20
2912.3229
 11
1675.3173
 21
2911.5503
  0
LINE
  8
0-2
  6
CONTINUOUS
 62
    3
 10
1675.3173
 20
2911.5503
 11
1675.7093
 21
2910.7447
  0
LINE
  8
0-2
  6
CONTINUOUS
 62
    3
 10
1675.7093
 20
2910.7447
 11
1676.05
 21
2909.9104
  0
LINE
  8
0-2
  6
CONTINUOUS
 62
    3
 10
1676.05
 20
2909.9104
 11
1676.338
 21
2909.0476
  0
LINE
  8
0-2
  6
CONTINUOUS
 62
    3
 10
1676.338
 20
2909.0476
 11
1676.5748
 21
2908.1609
  0
LINE
  8
0-2
  6
CONTINUOUS
 62
    3
 10
1715.8328
 20
2908.1609
 11
1716.7547
 21
2909.6333
  0
LINE
  8
0-2
  6
CONTINUOUS
 62
    3
 10
1716.7547
 20
2909.6333
 11
1717.6874
 21
2910.9422
  0
LINE
  8
0-2
  6
CONTINUOUS
 62
    3
 10
1717.6874
 20
2910.9422
 11
1718.6268
 21
2912.0978
  0
LINE
  8
0-2
  6
CONTINUOUS
 62
    3
 10
1718.6268
 20
2912.0978
 11
1719.57
 21
2913.1092
  0
LINE
  8
0-2
  6
CONTINUOUS
 62
    3
 10
1719.57
 20
2913.1092
 11
1720.5127
 21
2913.9857
  0
LINE
  8
0-2
  6
CONTINUOUS
 62
    3
 10
1720.5127
 20
2913.9857
 11
1721.4517
 21
2914.7345
  0
LINE
  8
0-2
  6
CONTINUOUS
 62
    3
 10
1721.4517
 20
2914.7345
 11
1722.3826
 21
2915.3673
  0
LINE
  8
0-2
  6
CONTINUOUS
 62
    3
 10
1722.3826
 20
2915.3673
 11
1723.3023
 21
2915.8914
  0
LINE
  8
0-2
  6
CONTINUOUS
 62
    3
 10
1723.3023
 20
2915.8914
 11
1724.2076
 21
2916.317
  0
LINE
  8
0-2
  6
CONTINUOUS
 62
    3
 10
1724.2076
 20
2916.317
 11
1725.0939
 21
2916.6516
  0
LINE
  8
0-2
  6
CONTINUOUS
 62
    3
 10
1725.0939
 20
2916.6516
 11
1725.9576
 21
2916.9054
  0
LINE
  8
0-2
  6
CONTINUOUS
 62
    3
 10
1725.9576
 20
2916.9054
 11
1726.7957
 21
2917.088
  0
LINE
  8
0-2
  6
CONTINUOUS
 62
    3
 10
1726.7957
 20
2917.088
 11
1727.6045
 21
2917.2068
  0
LINE
  8
0-2
  6
CONTINUOUS
 62
    3
 10
1727.6045
 20
2917.2068
 11
1728.3794
 21
2917.2733
  0
LINE
  8
0-2
  6
CONTINUOUS
 62
    3
 10
1734.9761
 20
2908.1609
 11
1734.949
 21
2909.2195
  0
LINE
  8
0-2
  6
CONTINUOUS
 62
    3
 10
1734.949
 20
2909.2195
 11
1734.8655
 21
2910.1989
  0
LINE
  8
0-2
  6
CONTINUOUS
 62
    3
 10
1734.8655
 20
2910.1989
 11
1734.7233
 21
2911.1011
  0
LINE
  8
0-2
  6
CONTINUOUS
 62
    3
 10
1734.7233
 20
2911.1011
 11
1734.5188
 21
2911.9319
  0
LINE
  8
0-2
  6
CONTINUOUS
 62
    3
 10
1734.5188
 20
2911.9319
 11
1734.2497
 21
2912.695
  0
LINE
  8
0-2
  6
CONTINUOUS
 62
    3
 10
1734.2497
 20
2912.695
 11
1733.9119
 21
2913.3961
  0
LINE
  8
0-2
  6
CONTINUOUS
 62
    3
 10
1733.9119
 20
2913.3961
 11
1733.5026
 21
2914.0377
  0
LINE
  8
0-2
  6
CONTINUOUS
 62
    3
 10
1733.5026
 20
2914.0377
 11
1733.0193
 21
2914.6271
  0
LINE
  8
0-2
  6
CONTINUOUS
 62
    3
 10
1733.0193
 20
2914.6271
 11
1732.4581
 21
2915.1654
  0
LINE
  8
0-2
  6
CONTINUOUS
 62
    3
 10
1732.4581
 20
2915.1654
 11
1731.8164
 21
2915.6598
  0
LINE
  8
0-2
  6
CONTINUOUS
 62
    3
 10
1731.8164
 20
2915.6598
 11
1731.0904
 21
2916.1132
  0
LINE
  8
0-2
  6
CONTINUOUS
 62
    3
 10
1731.0904
 20
2916.1132
 11
1730.2783
 21
2916.5304
  0
LINE
  8
0-2
  6
CONTINUOUS
 62
    3
 10
1730.2783
 20
2916.5304
 11
1729.3753
 21
2916.9155
  0
LINE
  8
0-2
  6
CONTINUOUS
 62
    3
 10
1729.3753
 20
2916.9155
 11
1728.3794
 21
2917.2733
  0
LINE
  8
0-2
  6
CONTINUOUS
 62
    3
 10
1789.9147
 20
2908.1609
 11
1789.4445
 21
2909.4045
  0
LINE
  8
0-2
  6
CONTINUOUS
 62
    3
 10
1789.4445
 20
2909.4045
 11
1788.9546
 21
2910.533
  0
LINE
  8
0-2
  6
CONTINUOUS
 62
    3
 10
1788.9546
 20
2910.533
 11
1788.4464
 21
2911.5503
  0
LINE
  8
0-2
  6
CONTINUOUS
 62
    3
 10
1788.4464
 20
2911.5503
 11
1787.919
 21
2912.4645
  0
LINE
  8
0-2
  6
CONTINUOUS
 62
    3
 10
1787.919
 20
2912.4645
 11
1787.3734
 21
2913.279
  0
LINE
  8
0-2
  6
CONTINUOUS
 62
    3
 10
1787.3734
 20
2913.279
 11
1786.8104
 21
2914.0004
  0
LINE
  8
0-2
  6
CONTINUOUS
 62
    3
 10
1786.8104
 20
2914.0004
 11
1786.231
 21
2914.6345
  0
LINE
  8
0-2
  6
CONTINUOUS
 62
    3
 10
1786.231
 20
2914.6345
 11
1785.6342
 21
2915.1858
  0
LINE
  8
0-2
  6
CONTINUOUS
 62
    3
 10
1785.6342
 20
2915.1858
 11
1785.0217
 21
2915.6607
  0
LINE
  8
0-2
  6
CONTINUOUS
 62
    3
 10
1785.0217
 20
2915.6607
 11
1784.3934
 21
2916.0642
  0
LINE
  8
0-2
  6
CONTINUOUS
 62
    3
 10
1784.3934
 20
2916.0642
 11
1783.7494
 21
2916.4018
  0
LINE
  8
0-2
  6
CONTINUOUS
 62
    3
 10
1783.7494
 20
2916.4018
 11
1783.0917
 21
2916.6803
  0
LINE
  8
0-2
  6
CONTINUOUS
 62
    3
 10
1783.0917
 20
2916.6803
 11
1782.4192
 21
2916.9034
  0
LINE
  8
0-2
  6
CONTINUOUS
 62
    3
 10
1782.4192
 20
2916.9034
 11
1781.7333
 21
2917.0777
  0
LINE
  8
0-2
  6
CONTINUOUS
 62
    3
 10
1780.2249
 20
2917.0777
 11
1779.5093
 21
2916.9286
  0
LINE
  8
0-2
  6
CONTINUOUS
 62
    3
 10
1779.5093
 20
2916.9286
 11
1778.7996
 21
2916.692
  0
LINE
  8
0-2
  6
CONTINUOUS
 62
    3
 10
1778.7996
 20
2916.692
 11
1778.0959
 21
2916.3665
  0
LINE
  8
0-2
  6
CONTINUOUS
 62
    3
 10
1778.0959
 20
2916.3665
 11
1777.3981
 21
2915.9538
  0
LINE
  8
0-2
  6
CONTINUOUS
 62
    3
 10
1777.3981
 20
2915.9538
 11
1776.7059
 21
2915.454
  0
LINE
  8
0-2
  6
CONTINUOUS
 62
    3
 10
1776.7059
 20
2915.454
 11
1776.0196
 21
2914.8652
  0
LINE
  8
0-2
  6
CONTINUOUS
 62
    3
 10
1776.0196
 20
2914.8652
 11
1775.3389
 21
2914.1882
  0
LINE
  8
0-2
  6
CONTINUOUS
 62
    3
 10
1775.3389
 20
2914.1882
 11
1774.6642
 21
2913.423
  0
LINE
  8
0-2
  6
CONTINUOUS
 62
    3
 10
1774.6642
 20
2913.423
 11
1773.9953
 21
2912.5708
  0
LINE
  8
0-2
  6
CONTINUOUS
 62
    3
 10
1840.2013
 20
2908.1609
 11
1840.0647
 21
2909.1092
  0
LINE
  8
0-2
  6
CONTINUOUS
 62
    3
 10
1840.0647
 20
2909.1092
 11
1839.8717
 21
2909.9909
  0
LINE
  8
0-2
  6
CONTINUOUS
 62
    3
 10
1839.8717
 20
2909.9909
 11
1839.6264
 21
2910.8115
  0
LINE
  8
0-2
  6
CONTINUOUS
 62
    3
 10
1839.6264
 20
2910.8115
 11
1839.3324
 21
2911.5702
  0
LINE
  8
0-2
  6
CONTINUOUS
 62
    3
 10
1839.3324
 20
2911.5702
 11
1838.9954
 21
2912.2724
  0
LINE
  8
0-2
  6
CONTINUOUS
 62
    3
 10
1838.9954
 20
2912.2724
 11
1838.618
 21
2912.9192
  0
LINE
  8
0-2
  6
CONTINUOUS
 62
    3
 10
1838.618
 20
2912.9192
 11
1838.2045
 21
2913.513
  0
LINE
  8
0-2
  6
CONTINUOUS
 62
    3
 10
1838.2045
 20
2913.513
 11
1837.7591
 21
2914.0559
  0
LINE
  8
0-2
  6
CONTINUOUS
 62
    3
 10
1837.7591
 20
2914.0559
 11
1837.284
 21
2914.5493
  0
LINE
  8
0-2
  6
CONTINUOUS
 62
    3
 10
1837.284
 20
2914.5493
 11
1836.7833
 21
2914.9953
  0
LINE
  8
0-2
  6
CONTINUOUS
 62
    3
 10
1836.7833
 20
2914.9953
 11
1836.2596
 21
2915.395
  0
LINE
  8
0-2
  6
CONTINUOUS
 62
    3
 10
1836.2596
 20
2915.395
 11
1835.7147
 21
2915.7519
  0
LINE
  8
0-2
  6
CONTINUOUS
 62
    3
 10
1835.7147
 20
2915.7519
 11
1835.1532
 21
2916.0636
  0
LINE
  8
0-2
  6
CONTINUOUS
 62
    3
 10
1835.1532
 20
2916.0636
 11
1834.5745
 21
2916.3338
  0
LINE
  8
0-2
  6
CONTINUOUS
 62
    3
 10
1834.5745
 20
2916.3338
 11
1833.9833
 21
2916.5625
  0
LINE
  8
0-2
  6
CONTINUOUS
 62
    3
 10
1833.9833
 20
2916.5625
 11
1833.3794
 21
2916.751
  0
LINE
  8
0-2
  6
CONTINUOUS
 62
    3
 10
1833.3794
 20
2916.751
 11
1832.7648
 21
2916.8995
  0
LINE
  8
0-2
  6
CONTINUOUS
 62
    3
 10
1832.7648
 20
2916.8995
 11
1832.142
 21
2917.0079
  0
LINE
  8
0-2
  6
CONTINUOUS
 62
    3
 10
1832.142
 20
2917.0079
 11
1831.5102
 21
2917.0777
  0
LINE
  8
0-2
  6
CONTINUOUS
 62
    3
 10
1831.351
 20
2917.0702
 11
1830.9951
 21
2917.0311
  0
LINE
  8
0-2
  6
CONTINUOUS
 62
    3
 10
1830.9951
 20
2917.0311
 11
1830.6462
 21
2916.9752
  0
LINE
  8
0-2
  6
CONTINUOUS
 62
    3
 10
1830.6462
 20
2916.9752
 11
1830.3025
 21
2916.9039
  0
LINE
  8
0-2
  6
CONTINUOUS
 62
    3
 10
1830.3025
 20
2916.9039
 11
1829.9659
 21
2916.8149
  0
LINE
  8
0-2
  6
CONTINUOUS
 62
    3
 10
1829.9659
 20
2916.8149
 11
1829.6344
 21
2916.7089
  0
LINE
  8
0-2
  6
CONTINUOUS
 62
    3
 10
1829.6344
 20
2916.7089
 11
1829.3096
 21
2916.5862
  0
LINE
  8
0-2
  6
CONTINUOUS
 62
    3
 10
1829.3096
 20
2916.5862
 11
1828.9908
 21
2916.4467
  0
LINE
  8
0-2
  6
CONTINUOUS
 62
    3
 10
1828.9908
 20
2916.4467
 11
1828.6787
 21
2916.2902
  0
LINE
  8
0-2
  6
CONTINUOUS
 62
    3
 10
1828.6787
 20
2916.2902
 11
1828.3717
 21
2916.1171
  0
LINE
  8
0-2
  6
CONTINUOUS
 62
    3
 10
1975.0385
 20
2908.1609
 11
1974.9167
 21
2909.158
  0
LINE
  8
0-2
  6
CONTINUOUS
 62
    3
 10
1974.9167
 20
2909.158
 11
1974.7879
 21
2910.0698
  0
LINE
  8
0-2
  6
CONTINUOUS
 62
    3
 10
1974.7879
 20
2910.0698
 11
1974.6517
 21
2910.8941
  0
LINE
  8
0-2
  6
CONTINUOUS
 62
    3
 10
1974.6517
 20
2910.8941
 11
1974.5092
 21
2911.6335
  0
LINE
  8
0-2
  6
CONTINUOUS
 62
    3
 10
1974.5092
 20
2911.6335
 11
1974.3592
 21
2912.2867
  0
LINE
  8
0-2
  6
CONTINUOUS
 62
    3
 10
1974.3592
 20
2912.2867
 11
1974.2019
 21
2912.8539
  0
LINE
  8
0-2
  6
CONTINUOUS
 62
    3
 10
1974.2019
 20
2912.8539
 11
1974.0382
 21
2913.3349
  0
LINE
  8
0-2
  6
CONTINUOUS
 62
    3
 10
1974.0382
 20
2913.3349
 11
1973.8663
 21
2913.7298
  0
LINE
  8
0-2
  6
CONTINUOUS
 62
    3
 10
1973.8663
 20
2913.7298
 11
1973.6882
 21
2914.0377
  0
LINE
  8
0-2
  6
CONTINUOUS
 62
    3
 10
1952.9029
 20
2908.1609
 11
1952.8349
 21
2908.9513
  0
LINE
  8
0-2
  6
CONTINUOUS
 62
    3
 10
1952.8349
 20
2908.9513
 11
1952.7236
 21
2909.6975
  0
LINE
  8
0-2
  6
CONTINUOUS
 62
    3
 10
1952.7236
 20
2909.6975
 11
1952.574
 21
2910.4012
  0
LINE
  8
0-2
  6
CONTINUOUS
 62
    3
 10
1952.574
 20
2910.4012
 11
1952.3884
 21
2911.0619
  0
LINE
  8
0-2
  6
CONTINUOUS
 62
    3
 10
1952.3884
 20
2911.0619
 11
1952.1724
 21
2911.6786
  0
LINE
  8
0-2
  6
CONTINUOUS
 62
    3
 10
1952.1724
 20
2911.6786
 11
1951.9301
 21
2912.2511
  0
LINE
  8
0-2
  6
CONTINUOUS
 62
    3
 10
1951.9301
 20
2912.2511
 11
1951.665
 21
2912.7807
  0
LINE
  8
0-2
  6
CONTINUOUS
 62
    3
 10
1951.665
 20
2912.7807
 11
1951.383
 21
2913.2647
  0
LINE
  8
0-2
  6
CONTINUOUS
 62
    3
 10
1951.383
 20
2913.2647
 11
1951.0875
 21
2913.706
  0
LINE
  8
0-2
  6
CONTINUOUS
 62
    3
 10
1951.0875
 20
2913.706
 11
1950.7832
 21
2914.1015
  0
LINE
  8
0-2
  6
CONTINUOUS
 62
    3
 10
1950.7832
 20
2914.1015
 11
1950.4744
 21
2914.4528
  0
LINE
  8
0-2
  6
CONTINUOUS
 62
    3
 10
1950.4744
 20
2914.4528
 11
1950.1641
 21
2914.7583
  0
LINE
  8
0-2
  6
CONTINUOUS
 62
    3
 10
1950.1641
 20
2914.7583
 11
1949.8582
 21
2915.019
  0
LINE
  8
0-2
  6
CONTINUOUS
 62
    3
 10
1949.8582
 20
2915.019
 11
1949.5609
 21
2915.2337
  0
LINE
  8
0-2
  6
CONTINUOUS
 62
    3
 10
1922.5862
 20
2908.1609
 11
1922.3857
 21
2909.0404
  0
LINE
  8
0-2
  6
CONTINUOUS
 62
    3
 10
1922.3857
 20
2909.0404
 11
1922.1408
 21
2909.8629
  0
LINE
  8
0-2
  6
CONTINUOUS
 62
    3
 10
1922.1408
 20
2909.8629
 11
1921.8542
 21
2910.6304
  0
LINE
  8
0-2
  6
CONTINUOUS
 62
    3
 10
1921.8542
 20
2910.6304
 11
1921.5269
 21
2911.3425
  0
LINE
  8
0-2
  6
CONTINUOUS
 62
    3
 10
1921.5269
 20
2911.3425
 11
1921.1617
 21
2912.0007
  0
LINE
  8
0-2
  6
CONTINUOUS
 62
    3
 10
1921.1617
 20
2912.0007
 11
1920.7604
 21
2912.6044
  0
LINE
  8
0-2
  6
CONTINUOUS
 62
    3
 10
1920.7604
 20
2912.6044
 11
1920.3239
 21
2913.1543
  0
LINE
  8
0-2
  6
CONTINUOUS
 62
    3
 10
1920.3239
 20
2913.1543
 11
1919.8537
 21
2913.6502
  0
LINE
  8
0-2
  6
CONTINUOUS
 62
    3
 10
1919.8537
 20
2913.6502
 11
1919.3526
 21
2914.0941
  0
LINE
  8
0-2
  6
CONTINUOUS
 62
    3
 10
1919.3526
 20
2914.0941
 11
1918.8215
 21
2914.4855
  0
LINE
  8
0-2
  6
CONTINUOUS
 62
    3
 10
1918.8215
 20
2914.4855
 11
1918.2629
 21
2914.824
  0
LINE
  8
0-2
  6
CONTINUOUS
 62
    3
 10
1918.2629
 20
2914.824
 11
1917.6779
 21
2915.1111
  0
LINE
  8
0-2
  6
CONTINUOUS
 62
    3
 10
1917.6779
 20
2915.1111
 11
1917.0685
 21
2915.3471
  0
LINE
  8
0-2
  6
CONTINUOUS
 62
    3
 10
1917.0685
 20
2915.3471
 11
1916.4368
 21
2915.5333
  0
LINE
  8
0-2
  6
CONTINUOUS
 62
    3
 10
1884.7635
 20
2908.1609
 11
1884.4595
 21
2909.0829
  0
LINE
  8
0-2
  6
CONTINUOUS
 62
    3
 10
1884.4595
 20
2909.0829
 11
1884.1032
 21
2909.9351
  0
LINE
  8
0-2
  6
CONTINUOUS
 62
    3
 10
1884.1032
 20
2909.9351
 11
1883.6994
 21
2910.7219
  0
LINE
  8
0-2
  6
CONTINUOUS
 62
    3
 10
1883.6994
 20
2910.7219
 11
1883.2521
 21
2911.4405
  0
LINE
  8
0-2
  6
CONTINUOUS
 62
    3
 10
1883.2521
 20
2911.4405
 11
1882.7655
 21
2912.0922
  0
LINE
  8
0-2
  6
CONTINUOUS
 62
    3
 10
1882.7655
 20
2912.0922
 11
1882.2444
 21
2912.6757
  0
LINE
  8
0-2
  6
CONTINUOUS
 62
    3
 10
1882.2444
 20
2912.6757
 11
1881.6936
 21
2913.192
  0
LINE
  8
0-2
  6
CONTINUOUS
 62
    3
 10
1881.6936
 20
2913.192
 11
1881.1176
 21
2913.6416
  0
LINE
  8
0-2
  6
CONTINUOUS
 62
    3
 10
1881.1176
 20
2913.6416
 11
1880.5208
 21
2914.0258
  0
LINE
  8
0-2
  6
CONTINUOUS
 62
    3
 10
1880.5208
 20
2914.0258
 11
1879.9091
 21
2914.3455
  0
LINE
  8
0-2
  6
CONTINUOUS
 62
    3
 10
1879.9091
 20
2914.3455
 11
1879.287
 21
2914.6028
  0
LINE
  8
0-2
  6
CONTINUOUS
 62
    3
 10
1879.287
 20
2914.6028
 11
1878.6594
 21
2914.7993
  0
LINE
  8
0-2
  6
CONTINUOUS
 62
    3
 10
1878.6594
 20
2914.7993
 11
1878.0325
 21
2914.9342
  0
LINE
  8
0-2
  6
CONTINUOUS
 62
    3
 10
1878.0325
 20
2914.9342
 11
1877.4108
 21
2915.0131
  0
LINE
  8
0-2
  6
CONTINUOUS
 62
    3
 10
1877.4108
 20
2915.0131
 11
1876.8006
 21
2915.0368
  0
LINE
  8
0-2
  6
CONTINUOUS
 62
    3
 10
1876.8006
 20
2915.0368
 11
1876.2079
 21
2915.0075
  0
LINE
  8
0-2
  6
CONTINUOUS
 62
    3
 10
1876.2079
 20
2915.0075
 11
1875.6374
 21
2914.9294
  0
LINE
  8
0-2
  6
CONTINUOUS
 62
    3
 10
1875.6374
 20
2914.9294
 11
1875.0955
 21
2914.8041
  0
LINE
  8
0-2
  6
CONTINUOUS
 62
    3
 10
1875.0955
 20
2914.8041
 11
1874.5882
 21
2914.6354
  0
LINE
  8
0-2
  6
CONTINUOUS
 62
    3
 10
1975.0385
 20
2908.1609
 11
1984.9996
 21
2908.1609
  0
LINE
  8
0-2
  6
CONTINUOUS
 62
    3
 10
2072.6089
 20
3017.8102
 11
1975.0385
 21
2908.1609
  0
LINE
  8
0-2
  6
CONTINUOUS
 62
    3
 10
1968.6022
 20
2908.1609
 11
2064.6026
 21
3017.8102
  0
LINE
  8
0-2
  6
CONTINUOUS
 62
    3
 10
2045.0741
 20
3017.8102
 11
1952.9029
 21
2908.1609
  0
LINE
  8
0-2
  6
CONTINUOUS
 62
    3
 10
1952.9029
 20
2908.1609
 11
1968.6022
 21
2908.1609
  0
LINE
  8
0-2
  6
CONTINUOUS
 62
    3
 10
1943.6773
 20
2908.1609
 11
2033.5989
 21
3017.8102
  0
LINE
  8
0-2
  6
CONTINUOUS
 62
    3
 10
1922.5862
 20
2908.1609
 11
1943.6773
 21
2908.1609
  0
LINE
  8
0-2
  6
CONTINUOUS
 62
    3
 10
2007.3639
 20
3017.8102
 11
1922.5862
 21
2908.1609
  0
LINE
  8
0-2
  6
CONTINUOUS
 62
    3
 10
1910.7718
 20
2908.1609
 11
1992.6678
 21
3017.8102
  0
LINE
  8
0-2
  6
CONTINUOUS
 62
    3
 10
1884.7464
 20
2908.1609
 11
1910.7718
 21
2908.1609
  0
LINE
  8
0-2
  6
CONTINUOUS
 62
    3
 10
1960.2945
 20
3017.8102
 11
1884.7464
 21
2908.1609
  0
LINE
  8
0-2
  6
CONTINUOUS
 62
    3
 10
1870.5978
 20
2908.1609
 11
1942.6949
 21
3017.8102
  0
LINE
  8
0-2
  6
CONTINUOUS
 62
    3
 10
1840.2013
 20
2908.1609
 11
1870.5978
 21
2908.1609
  0
LINE
  8
0-2
  6
CONTINUOUS
 62
    3
 10
1904.8841
 20
3017.8102
 11
1840.2013
 21
2908.1609
  0
LINE
  8
0-2
  6
CONTINUOUS
 62
    3
 10
1824.0254
 20
2908.1609
 11
1884.7635
 21
3017.8102
  0
LINE
  8
0-2
  6
CONTINUOUS
 62
    3
 10
1789.9147
 20
2908.1609
 11
1824.0254
 21
2908.1609
  0
LINE
  8
0-2
  6
CONTINUOUS
 62
    3
 10
1772.062
 20
2908.1609
 11
1820.126
 21
3017.8102
  0
LINE
  8
0-2
  6
CONTINUOUS
 62
    3
 10
1734.9761
 20
2908.1609
 11
1772.062
 21
2908.1609
  0
LINE
  8
0-2
  6
CONTINUOUS
 62
    3
 10
1773.9953
 20
3017.8102
 11
1734.9761
 21
2908.1609
  0
LINE
  8
0-2
  6
CONTINUOUS
 62
    3
 10
1750.1828
 20
3017.8102
 11
1715.8328
 21
2908.1609
  0
LINE
  8
0-2
  6
CONTINUOUS
 62
    3
 10
1676.5748
 20
2908.1609
 11
1715.8328
 21
2908.1609
  0
LINE
  8
0-2
  6
CONTINUOUS
 62
    3
 10
1676.5748
 20
2908.1609
 11
1701.3497
 21
3017.8102
  0
LINE
  8
0-2
  6
CONTINUOUS
 62
    3
 10
1676.4468
 20
3017.8102
 11
1656.5552
 21
2908.1609
  0
LINE
  8
0-2
  6
CONTINUOUS
 62
    3
 10
1615.9745
 20
2908.1609
 11
1656.5552
 21
2908.1609
  0
LINE
  8
0-2
  6
CONTINUOUS
 62
    3
 10
1615.9745
 20
2908.1609
 11
1625.9687
 21
3017.8102
  0
LINE
  8
0-2
  6
CONTINUOUS
 62
    3
 10
1595.5117
 20
2908.1609
 11
1600.5149
 21
3017.8102
  0
LINE
  8
0-2
  6
CONTINUOUS
 62
    3
 10
1574.9999
 20
2908.1609
 11
1595.5117
 21
2908.1609
  0
LINE
  8
0-2
  6
CONTINUOUS
 62
    3
 10
1842.3329
 20
3017.8102
 11
1789.9147
 21
2908.1609
  0
LINE
  8
0-2
  6
CONTINUOUS
 62
    3
 10
1781.0648
 20
2908.1609
 11
1781.0648
 21
2731.528
  0
LINE
  8
0-2
  6
CONTINUOUS
 62
    3
 10
1781.7333
 20
3768.5416
 11
1781.5503
 21
3768.5283
  0
LINE
  8
0-2
  6
CONTINUOUS
 62
    3
 10
1781.5503
 20
3768.5283
 11
1781.371
 21
3768.5179
  0
LINE
  8
0-2
  6
CONTINUOUS
 62
    3
 10
1781.371
 20
3768.5179
 11
1781.1958
 21
3768.5104
  0
LINE
  8
0-2
  6
CONTINUOUS
 62
    3
 10
1781.1958
 20
3768.5104
 11
1781.0244
 21
3768.5067
  0
LINE
  8
0-2
  6
CONTINUOUS
 62
    3
 10
1781.0244
 20
3768.5067
 11
1780.857
 21
3768.5067
  0
LINE
  8
0-2
  6
CONTINUOUS
 62
    3
 10
1780.857
 20
3768.5067
 11
1780.6937
 21
3768.5104
  0
LINE
  8
0-2
  6
CONTINUOUS
 62
    3
 10
1780.6937
 20
3768.5104
 11
1780.5329
 21
3768.5179
  0
LINE
  8
0-2
  6
CONTINUOUS
 62
    3
 10
1780.5329
 20
3768.5179
 11
1780.3774
 21
3768.5283
  0
LINE
  8
0-2
  6
CONTINUOUS
 62
    3
 10
1780.3774
 20
3768.5283
 11
1780.2249
 21
3768.5416
  0
LINE
  8
0-2
  6
CONTINUOUS
 62
    3
 10
1668.3677
 20
3768.3479
 11
1667.8778
 21
3768.3145
  0
LINE
  8
0-2
  6
CONTINUOUS
 62
    3
 10
1667.8778
 20
3768.3145
 11
1667.3856
 21
3768.2915
  0
LINE
  8
0-2
  6
CONTINUOUS
 62
    3
 10
1667.3856
 20
3768.2915
 11
1666.889
 21
3768.2774
  0
LINE
  8
0-2
  6
CONTINUOUS
 62
    3
 10
1666.889
 20
3768.2774
 11
1666.3902
 21
3768.2744
  0
LINE
  8
0-2
  6
CONTINUOUS
 62
    3
 10
1666.3902
 20
3768.2744
 11
1665.8876
 21
3768.2796
  0
LINE
  8
0-2
  6
CONTINUOUS
 62
    3
 10
1665.8876
 20
3768.2796
 11
1665.3821
 21
3768.2937
  0
LINE
  8
0-2
  6
CONTINUOUS
 62
    3
 10
1665.3821
 20
3768.2937
 11
1664.874
 21
3768.3189
  0
LINE
  8
0-2
  6
CONTINUOUS
 62
    3
 10
1664.874
 20
3768.3189
 11
1664.3622
 21
3768.3516
  0
LINE
  8
0-2
  6
CONTINUOUS
 62
    3
 10
1664.3622
 20
3768.3516
 11
1663.847
 21
3768.3961
  0
LINE
  8
0-2
  6
CONTINUOUS
 62
    3
 10
1668.3677
 20
2917.2733
 11
1667.8778
 21
2917.3057
  0
LINE
  8
0-2
  6
CONTINUOUS
 62
    3
 10
1667.8778
 20
2917.3057
 11
1667.3856
 21
2917.3286
  0
LINE
  8
0-2
  6
CONTINUOUS
 62
    3
 10
1667.3856
 20
2917.3286
 11
1666.889
 21
2917.3425
  0
LINE
  8
0-2
  6
CONTINUOUS
 62
    3
 10
1666.889
 20
2917.3425
 11
1666.3902
 21
2917.3464
  0
LINE
  8
0-2
  6
CONTINUOUS
 62
    3
 10
1666.3902
 20
2917.3464
 11
1665.8876
 21
2917.341
  0
LINE
  8
0-2
  6
CONTINUOUS
 62
    3
 10
1665.8876
 20
2917.341
 11
1665.3821
 21
2917.3265
  0
LINE
  8
0-2
  6
CONTINUOUS
 62
    3
 10
1665.3821
 20
2917.3265
 11
1664.874
 21
2917.3018
  0
LINE
  8
0-2
  6
CONTINUOUS
 62
    3
 10
1664.874
 20
2917.3018
 11
1664.3622
 21
2917.2677
  0
LINE
  8
0-2
  6
CONTINUOUS
 62
    3
 10
1664.3622
 20
2917.2677
 11
1663.847
 21
2917.2241
  0
LINE
  8
0-2
  6
CONTINUOUS
 62
    3
 10
1781.7333
 20
2917.0777
 11
1781.5503
 21
2917.0921
  0
LINE
  8
0-2
  6
CONTINUOUS
 62
    3
 10
1781.5503
 20
2917.0921
 11
1781.371
 21
2917.1029
  0
LINE
  8
0-2
  6
CONTINUOUS
 62
    3
 10
1781.371
 20
2917.1029
 11
1781.1958
 21
2917.1099
  0
LINE
  8
0-2
  6
CONTINUOUS
 62
    3
 10
1781.1958
 20
2917.1099
 11
1781.0244
 21
2917.1133
  0
LINE
  8
0-2
  6
CONTINUOUS
 62
    3
 10
1781.0244
 20
2917.1133
 11
1780.857
 21
2917.1133
  0
LINE
  8
0-2
  6
CONTINUOUS
 62
    3
 10
1780.857
 20
2917.1133
 11
1780.6937
 21
2917.1099
  0
LINE
  8
0-2
  6
CONTINUOUS
 62
    3
 10
1780.6937
 20
2917.1099
 11
1780.5329
 21
2917.1029
  0
LINE
  8
0-2
  6
CONTINUOUS
 62
    3
 10
1780.5329
 20
2917.1029
 11
1780.3774
 21
2917.0921
  0
LINE
  8
0-2
  6
CONTINUOUS
 62
    3
 10
1780.3774
 20
2917.0921
 11
1780.2249
 21
2917.0777
  0
LINE
  8
0-2
  6
CONTINUOUS
 62
    3
 10
2084.9997
 20
3039.7391
 11
1574.9999
 21
3039.7391
  0
LINE
  8
0-2
  6
CONTINUOUS
 62
    3
 10
2085.0001
 20
3017.8102
 11
1574.9999
 21
3017.8102
  0
LINE
  8
0-2
  6
CONTINUOUS
 62
    3
 10
2084.9986
 20
3130.8807
 11
1574.9999
 21
3130.8807
  0
LINE
  8
0-2
  6
CONTINUOUS
 62
    3
 10
2084.9997
 20
3017.8102
 11
1574.9999
 21
3017.8102
  0
LINE
  8
0-2
  6
CONTINUOUS
 62
    3
 10
2085.0001
 20
3554.7391
 11
1574.9999
 21
3554.7391
  0
LINE
  8
0-2
  6
CONTINUOUS
 62
    3
 10
2085.0001
 20
3532.8103
 11
1574.9999
 21
3532.8103
  0
LINE
  8
0-2
  6
CONTINUOUS
 62
    3
 10
2084.9986
 20
3152.8103
 11
1574.9999
 21
3152.8103
  0
LINE
  8
0-2
  6
CONTINUOUS
 62
    3
 10
1882.4998
 20
2908.1609
 11
1882.4998
 21
2731.528
  0
LINE
  8
0-2
  6
CONTINUOUS
 62
    3
 10
1821.0643
 20
2908.1609
 11
1821.0643
 21
2731.528
  0
LINE
  8
0-1
  6
CENTER2
 62
    7
 10
1574.9999
 20
3917.8102
 11
1574.9999
 21
510.06847
  0
LINE
  8
0-2
  6
CONTINUOUS
 62
    3
 10
1625.9685
 20
3152.8095
 11
1524.0311
 21
3179.3905
  0
LINE
  8
0-2
  6
CONTINUOUS
 62
    3
 10
1773.9953
 20
3152.8103
 11
1676.4468
 21
3179.3905
  0
LINE
  8
0-2
  6
CONTINUOUS
 62
    3
 10
2007.3639
 20
3152.8103
 11
1942.6949
 21
3179.3905
  0
LINE
  8
0-2
  6
CONTINUOUS
 62
    3
 10
1904.8841
 20
3152.8103
 11
1887.7747
 21
3158.1758
  0
LINE
  8
0-2
  6
CONTINUOUS
 62
    3
 10
1867.774
 20
3164.448
 11
1820.126
 21
3179.3905
  0
ARC
  8
0-2
  6
CONTINUOUS
 62
    3
 10
1272.5001
 20
2401.6103
 40
6.3715974
 50
270
 51
90
  0
ARC
  8
0-2
  6
CONTINUOUS
 62
    3
 10
1877.5003
 20
2401.6103
 40
6.3715974
 50
90
 51
270
  0
CIRCLE
  8
0-2
  6
CONTINUOUS
 62
    3
 10
1575.0014
 20
1120.0685
 40
302.49995
  0
LINE
  8
0-2
  6
CONTINUOUS
 62
    3
 10
1065.0012
 20
3152.8099
 11
1063.265
 21
3152.6433
  0
LINE
  8
0-2
  6
CONTINUOUS
 62
    3
 10
1063.265
 20
3152.6433
 11
1061.5815
 21
3152.1486
  0
LINE
  8
0-2
  6
CONTINUOUS
 62
    3
 10
1061.5815
 20
3152.1486
 11
1060.002
 21
3151.3409
  0
LINE
  8
0-2
  6
CONTINUOUS
 62
    3
 10
1060.002
 20
3151.3409
 11
1058.5743
 21
3150.2447
  0
LINE
  8
0-2
  6
CONTINUOUS
 62
    3
 10
1058.5743
 20
3150.2447
 11
1057.342
 21
3148.8933
  0
LINE
  8
0-2
  6
CONTINUOUS
 62
    3
 10
1057.342
 20
3148.8933
 11
1056.3423
 21
3147.3277
  0
LINE
  8
0-2
  6
CONTINUOUS
 62
    3
 10
1056.3423
 20
3147.3277
 11
1055.6058
 21
3145.5955
  0
LINE
  8
0-2
  6
CONTINUOUS
 62
    3
 10
1055.6058
 20
3145.5955
 11
1055.1547
 21
3143.7494
  0
LINE
  8
0-2
  6
CONTINUOUS
 62
    3
 10
1055.1547
 20
3143.7494
 11
1055.0028
 21
3141.8455
  0
LINE
  8
0-2
  6
CONTINUOUS
 62
    3
 10
1055.0028
 20
3141.8455
 11
1055.1547
 21
3139.9415
  0
LINE
  8
0-2
  6
CONTINUOUS
 62
    3
 10
1055.1547
 20
3139.9415
 11
1055.6058
 21
3138.0954
  0
LINE
  8
0-2
  6
CONTINUOUS
 62
    3
 10
1055.6058
 20
3138.0954
 11
1056.3423
 21
3136.3633
  0
LINE
  8
0-2
  6
CONTINUOUS
 62
    3
 10
1056.3423
 20
3136.3633
 11
1057.342
 21
3134.7977
  0
LINE
  8
0-2
  6
CONTINUOUS
 62
    3
 10
1057.342
 20
3134.7977
 11
1058.5743
 21
3133.4463
  0
LINE
  8
0-2
  6
CONTINUOUS
 62
    3
 10
1058.5743
 20
3133.4463
 11
1060.002
 21
3132.35
  0
LINE
  8
0-2
  6
CONTINUOUS
 62
    3
 10
1060.002
 20
3132.35
 11
1061.5815
 21
3131.5423
  0
LINE
  8
0-2
  6
CONTINUOUS
 62
    3
 10
1061.5815
 20
3131.5423
 11
1063.265
 21
3131.0477
  0
LINE
  8
0-2
  6
CONTINUOUS
 62
    3
 10
1063.265
 20
3131.0477
 11
1065.0012
 21
3130.8811
  0
LINE
  8
0-2
  6
CONTINUOUS
 62
    3
 10
1065.0001
 20
3039.7387
 11
1063.2639
 21
3039.5721
  0
LINE
  8
0-2
  6
CONTINUOUS
 62
    3
 10
1063.2639
 20
3039.5721
 11
1061.5804
 21
3039.0774
  0
LINE
  8
0-2
  6
CONTINUOUS
 62
    3
 10
1061.5804
 20
3039.0774
 11
1060.0009
 21
3038.2697
  0
LINE
  8
0-2
  6
CONTINUOUS
 62
    3
 10
1060.0009
 20
3038.2697
 11
1058.5732
 21
3037.1735
  0
LINE
  8
0-2
  6
CONTINUOUS
 62
    3
 10
1058.5732
 20
3037.1735
 11
1057.3409
 21
3035.822
  0
LINE
  8
0-2
  6
CONTINUOUS
 62
    3
 10
1057.3409
 20
3035.822
 11
1056.3412
 21
3034.2565
  0
LINE
  8
0-2
  6
CONTINUOUS
 62
    3
 10
1056.3412
 20
3034.2565
 11
1055.6046
 21
3032.5243
  0
LINE
  8
0-2
  6
CONTINUOUS
 62
    3
 10
1055.6046
 20
3032.5243
 11
1055.1536
 21
3030.6782
  0
LINE
  8
0-2
  6
CONTINUOUS
 62
    3
 10
1055.1536
 20
3030.6782
 11
1055.0017
 21
3028.7743
  0
LINE
  8
0-2
  6
CONTINUOUS
 62
    3
 10
1055.0017
 20
3028.7743
 11
1055.1536
 21
3026.8703
  0
LINE
  8
0-2
  6
CONTINUOUS
 62
    3
 10
1055.1536
 20
3026.8703
 11
1055.6046
 21
3025.0242
  0
LINE
  8
0-2
  6
CONTINUOUS
 62
    3
 10
1055.6046
 20
3025.0242
 11
1056.3412
 21
3023.2921
  0
LINE
  8
0-2
  6
CONTINUOUS
 62
    3
 10
1056.3412
 20
3023.2921
 11
1057.3409
 21
3021.7265
  0
LINE
  8
0-2
  6
CONTINUOUS
 62
    3
 10
1057.3409
 20
3021.7265
 11
1058.5732
 21
3020.3751
  0
LINE
  8
0-2
  6
CONTINUOUS
 62
    3
 10
1058.5732
 20
3020.3751
 11
1060.0009
 21
3019.2788
  0
LINE
  8
0-2
  6
CONTINUOUS
 62
    3
 10
1060.0009
 20
3019.2788
 11
1061.5804
 21
3018.4711
  0
LINE
  8
0-2
  6
CONTINUOUS
 62
    3
 10
1061.5804
 20
3018.4711
 11
1063.2639
 21
3017.9765
  0
LINE
  8
0-2
  6
CONTINUOUS
 62
    3
 10
1063.2639
 20
3017.9765
 11
1065.0001
 21
3017.8099
  0
LINE
  8
0-2
  6
CONTINUOUS
 62
    3
 10
1064.9997
 20
3667.81
 11
1063.2635
 21
3667.6434
  0
LINE
  8
0-2
  6
CONTINUOUS
 62
    3
 10
1063.2635
 20
3667.6434
 11
1061.5801
 21
3667.1487
  0
LINE
  8
0-2
  6
CONTINUOUS
 62
    3
 10
1061.5801
 20
3667.1487
 11
1060.0005
 21
3666.341
  0
LINE
  8
0-2
  6
CONTINUOUS
 62
    3
 10
1060.0005
 20
3666.341
 11
1058.5729
 21
3665.2448
  0
LINE
  8
0-2
  6
CONTINUOUS
 62
    3
 10
1058.5729
 20
3665.2448
 11
1057.3405
 21
3663.8933
  0
LINE
  8
0-2
  6
CONTINUOUS
 62
    3
 10
1057.3405
 20
3663.8933
 11
1056.3408
 21
3662.3278
  0
LINE
  8
0-2
  6
CONTINUOUS
 62
    3
 10
1056.3408
 20
3662.3278
 11
1055.6043
 21
3660.5956
  0
LINE
  8
0-2
  6
CONTINUOUS
 62
    3
 10
1055.6043
 20
3660.5956
 11
1055.1532
 21
3658.7495
  0
LINE
  8
0-2
  6
CONTINUOUS
 62
    3
 10
1055.1532
 20
3658.7495
 11
1055.0013
 21
3656.8456
  0
LINE
  8
0-2
  6
CONTINUOUS
 62
    3
 10
1055.0013
 20
3656.8456
 11
1055.1532
 21
3654.9416
  0
LINE
  8
0-2
  6
CONTINUOUS
 62
    3
 10
1055.1532
 20
3654.9416
 11
1055.6043
 21
3653.0955
  0
LINE
  8
0-2
  6
CONTINUOUS
 62
    3
 10
1055.6043
 20
3653.0955
 11
1056.3408
 21
3651.3634
  0
LINE
  8
0-2
  6
CONTINUOUS
 62
    3
 10
1056.3408
 20
3651.3634
 11
1057.3405
 21
3649.7978
  0
LINE
  8
0-2
  6
CONTINUOUS
 62
    3
 10
1057.3405
 20
3649.7978
 11
1058.5729
 21
3648.4463
  0
LINE
  8
0-2
  6
CONTINUOUS
 62
    3
 10
1058.5729
 20
3648.4463
 11
1060.0005
 21
3647.3501
  0
LINE
  8
0-2
  6
CONTINUOUS
 62
    3
 10
1060.0005
 20
3647.3501
 11
1061.5801
 21
3646.5424
  0
LINE
  8
0-2
  6
CONTINUOUS
 62
    3
 10
1061.5801
 20
3646.5424
 11
1063.2635
 21
3646.0477
  0
LINE
  8
0-2
  6
CONTINUOUS
 62
    3
 10
1063.2635
 20
3646.0477
 11
1064.9997
 21
3645.8812
  0
LINE
  8
0-2
  6
CONTINUOUS
 62
    3
 10
1064.9997
 20
3554.7387
 11
1063.2635
 21
3554.5722
  0
LINE
  8
0-2
  6
CONTINUOUS
 62
    3
 10
1063.2635
 20
3554.5722
 11
1061.5801
 21
3554.0775
  0
LINE
  8
0-2
  6
CONTINUOUS
 62
    3
 10
1061.5801
 20
3554.0775
 11
1060.0005
 21
3553.2698
  0
LINE
  8
0-2
  6
CONTINUOUS
 62
    3
 10
1060.0005
 20
3553.2698
 11
1058.5729
 21
3552.1736
  0
LINE
  8
0-2
  6
CONTINUOUS
 62
    3
 10
1058.5729
 20
3552.1736
 11
1057.3405
 21
3550.8221
  0
LINE
  8
0-2
  6
CONTINUOUS
 62
    3
 10
1057.3405
 20
3550.8221
 11
1056.3408
 21
3549.2565
  0
LINE
  8
0-2
  6
CONTINUOUS
 62
    3
 10
1056.3408
 20
3549.2565
 11
1055.6043
 21
3547.5244
  0
LINE
  8
0-2
  6
CONTINUOUS
 62
    3
 10
1055.6043
 20
3547.5244
 11
1055.1532
 21
3545.6783
  0
LINE
  8
0-2
  6
CONTINUOUS
 62
    3
 10
1055.1532
 20
3545.6783
 11
1055.0013
 21
3543.7743
  0
LINE
  8
0-2
  6
CONTINUOUS
 62
    3
 10
1055.0013
 20
3543.7743
 11
1055.1532
 21
3541.8704
  0
LINE
  8
0-2
  6
CONTINUOUS
 62
    3
 10
1055.1532
 20
3541.8704
 11
1055.6043
 21
3540.0243
  0
LINE
  8
0-2
  6
CONTINUOUS
 62
    3
 10
1055.6043
 20
3540.0243
 11
1056.3408
 21
3538.2922
  0
LINE
  8
0-2
  6
CONTINUOUS
 62
    3
 10
1056.3408
 20
3538.2922
 11
1057.3405
 21
3536.7266
  0
LINE
  8
0-2
  6
CONTINUOUS
 62
    3
 10
1057.3405
 20
3536.7266
 11
1058.5729
 21
3535.3751
  0
LINE
  8
0-2
  6
CONTINUOUS
 62
    3
 10
1058.5729
 20
3535.3751
 11
1060.0005
 21
3534.2789
  0
LINE
  8
0-2
  6
CONTINUOUS
 62
    3
 10
1060.0005
 20
3534.2789
 11
1061.5801
 21
3533.4712
  0
LINE
  8
0-2
  6
CONTINUOUS
 62
    3
 10
1061.5801
 20
3533.4712
 11
1063.2635
 21
3532.9765
  0
LINE
  8
0-2
  6
CONTINUOUS
 62
    3
 10
1063.2635
 20
3532.9765
 11
1064.9997
 21
3532.81
  0
LINE
  8
0-2
  6
CONTINUOUS
 62
    3
 10
1534.0261
 20
3777.4597
 11
1534.55
 21
3775.547
  0
LINE
  8
0-2
  6
CONTINUOUS
 62
    3
 10
1534.55
 20
3775.547
 11
1535.3687
 21
3773.763
  0
LINE
  8
0-2
  6
CONTINUOUS
 62
    3
 10
1535.3687
 20
3773.763
 11
1536.4575
 21
3772.1621
  0
LINE
  8
0-2
  6
CONTINUOUS
 62
    3
 10
1536.4575
 20
3772.1621
 11
1537.7833
 21
3770.7928
  0
LINE
  8
0-2
  6
CONTINUOUS
 62
    3
 10
1537.7833
 20
3770.7928
 11
1539.3057
 21
3769.6968
  0
LINE
  8
0-2
  6
CONTINUOUS
 62
    3
 10
1539.3057
 20
3769.6968
 11
1540.9786
 21
3768.9074
  0
LINE
  8
0-2
  6
CONTINUOUS
 62
    3
 10
1540.9786
 20
3768.9074
 11
1542.7511
 21
3768.4485
  0
LINE
  8
0-2
  6
CONTINUOUS
 62
    3
 10
1542.7511
 20
3768.4485
 11
1544.5693
 21
3768.3341
  0
LINE
  8
0-2
  6
CONTINUOUS
 62
    3
 10
1544.5693
 20
3768.3341
 11
1546.378
 21
3768.5677
  0
LINE
  8
0-2
  6
CONTINUOUS
 62
    3
 10
1546.378
 20
3768.5677
 11
1548.1222
 21
3769.1421
  0
LINE
  8
0-2
  6
CONTINUOUS
 62
    3
 10
1548.1222
 20
3769.1421
 11
1549.749
 21
3770.04
  0
LINE
  8
0-2
  6
CONTINUOUS
 62
    3
 10
1549.749
 20
3770.04
 11
1551.2089
 21
3771.234
  0
LINE
  8
0-2
  6
CONTINUOUS
 62
    3
 10
1551.2089
 20
3771.234
 11
1552.4575
 21
3772.6878
  0
LINE
  8
0-2
  6
CONTINUOUS
 62
    3
 10
1552.4575
 20
3772.6878
 11
1553.4569
 21
3774.3574
  0
LINE
  8
0-2
  6
CONTINUOUS
 62
    3
 10
1553.4569
 20
3774.3574
 11
1554.1768
 21
3776.1919
  0
LINE
  8
0-2
  6
CONTINUOUS
 62
    3
 10
1554.1768
 20
3776.1919
 11
1554.4866
 21
3777.4597
  0
LINE
  8
0-2
  6
CONTINUOUS
 62
    3
 10
1278.2246
 20
3564.828
 11
1278.1334
 21
3565.9704
  0
LINE
  8
0-2
  6
CONTINUOUS
 62
    3
 10
1278.1334
 20
3565.9704
 11
1277.8628
 21
3567.0781
  0
LINE
  8
0-2
  6
CONTINUOUS
 62
    3
 10
1277.8628
 20
3567.0781
 11
1277.4208
 21
3568.1175
  0
LINE
  8
0-2
  6
CONTINUOUS
 62
    3
 10
1277.4208
 20
3568.1175
 11
1276.821
 21
3569.0569
  0
LINE
  8
0-2
  6
CONTINUOUS
 62
    3
 10
1276.821
 20
3569.0569
 11
1276.0815
 21
3569.8678
  0
LINE
  8
0-2
  6
CONTINUOUS
 62
    3
 10
1276.0815
 20
3569.8678
 11
1275.2249
 21
3570.5255
  0
LINE
  8
0-2
  6
CONTINUOUS
 62
    3
 10
1275.2249
 20
3570.5255
 11
1274.2771
 21
3571.0102
  0
LINE
  8
0-2
  6
CONTINUOUS
 62
    3
 10
1274.2771
 20
3571.0102
 11
1273.267
 21
3571.307
  0
LINE
  8
0-2
  6
CONTINUOUS
 62
    3
 10
1273.267
 20
3571.307
 11
1272.2252
 21
3571.407
  0
LINE
  8
0-2
  6
CONTINUOUS
 62
    3
 10
1272.2252
 20
3571.407
 11
1271.1835
 21
3571.307
  0
LINE
  8
0-2
  6
CONTINUOUS
 62
    3
 10
1271.1835
 20
3571.307
 11
1270.1734
 21
3571.0102
  0
LINE
  8
0-2
  6
CONTINUOUS
 62
    3
 10
1270.1734
 20
3571.0102
 11
1269.2256
 21
3570.5255
  0
LINE
  8
0-2
  6
CONTINUOUS
 62
    3
 10
1269.2256
 20
3570.5255
 11
1268.369
 21
3569.8678
  0
LINE
  8
0-2
  6
CONTINUOUS
 62
    3
 10
1268.369
 20
3569.8678
 11
1267.6295
 21
3569.0569
  0
LINE
  8
0-2
  6
CONTINUOUS
 62
    3
 10
1267.6295
 20
3569.0569
 11
1267.0297
 21
3568.1175
  0
LINE
  8
0-2
  6
CONTINUOUS
 62
    3
 10
1267.0297
 20
3568.1175
 11
1266.5877
 21
3567.0781
  0
LINE
  8
0-2
  6
CONTINUOUS
 62
    3
 10
1266.5877
 20
3567.0781
 11
1266.3171
 21
3565.9704
  0
LINE
  8
0-2
  6
CONTINUOUS
 62
    3
 10
1266.3171
 20
3565.9704
 11
1266.2259
 21
3564.828
  0
LINE
  8
0-2
  6
CONTINUOUS
 62
    3
 10
1266.2259
 20
3564.828
 11
1266.3171
 21
3563.6856
  0
LINE
  8
0-2
  6
CONTINUOUS
 62
    3
 10
1266.3171
 20
3563.6856
 11
1266.5877
 21
3562.5779
  0
LINE
  8
0-2
  6
CONTINUOUS
 62
    3
 10
1266.5877
 20
3562.5779
 11
1267.0297
 21
3561.5385
  0
LINE
  8
0-2
  6
CONTINUOUS
 62
    3
 10
1267.0297
 20
3561.5385
 11
1267.6295
 21
3560.5992
  0
LINE
  8
0-2
  6
CONTINUOUS
 62
    3
 10
1267.6295
 20
3560.5992
 11
1268.369
 21
3559.7883
  0
LINE
  8
0-2
  6
CONTINUOUS
 62
    3
 10
1268.369
 20
3559.7883
 11
1269.2256
 21
3559.1305
  0
LINE
  8
0-2
  6
CONTINUOUS
 62
    3
 10
1269.2256
 20
3559.1305
 11
1270.1734
 21
3558.6458
  0
LINE
  8
0-2
  6
CONTINUOUS
 62
    3
 10
1270.1734
 20
3558.6458
 11
1271.1835
 21
3558.349
  0
LINE
  8
0-2
  6
CONTINUOUS
 62
    3
 10
1271.1835
 20
3558.349
 11
1272.2252
 21
3558.2491
  0
LINE
  8
0-2
  6
CONTINUOUS
 62
    3
 10
1272.2252
 20
3558.2491
 11
1273.267
 21
3558.349
  0
LINE
  8
0-2
  6
CONTINUOUS
 62
    3
 10
1273.267
 20
3558.349
 11
1274.2771
 21
3558.6458
  0
LINE
  8
0-2
  6
CONTINUOUS
 62
    3
 10
1274.2771
 20
3558.6458
 11
1275.2249
 21
3559.1305
  0
LINE
  8
0-2
  6
CONTINUOUS
 62
    3
 10
1275.2249
 20
3559.1305
 11
1276.0815
 21
3559.7883
  0
LINE
  8
0-2
  6
CONTINUOUS
 62
    3
 10
1276.0815
 20
3559.7883
 11
1276.821
 21
3560.5992
  0
LINE
  8
0-2
  6
CONTINUOUS
 62
    3
 10
1276.821
 20
3560.5992
 11
1277.4208
 21
3561.5385
  0
LINE
  8
0-2
  6
CONTINUOUS
 62
    3
 10
1277.4208
 20
3561.5385
 11
1277.8628
 21
3562.5779
  0
LINE
  8
0-2
  6
CONTINUOUS
 62
    3
 10
1277.8628
 20
3562.5779
 11
1278.1334
 21
3563.6856
  0
LINE
  8
0-2
  6
CONTINUOUS
 62
    3
 10
1278.1334
 20
3563.6856
 11
1278.2246
 21
3564.828
  0
LINE
  8
0-2
  6
CONTINUOUS
 62
    3
 10
1278.2246
 20
3624.9117
 11
1278.1334
 21
3626.0541
  0
LINE
  8
0-2
  6
CONTINUOUS
 62
    3
 10
1278.1334
 20
3626.0541
 11
1277.8628
 21
3627.1618
  0
LINE
  8
0-2
  6
CONTINUOUS
 62
    3
 10
1277.8628
 20
3627.1618
 11
1277.4208
 21
3628.2012
  0
LINE
  8
0-2
  6
CONTINUOUS
 62
    3
 10
1277.4208
 20
3628.2012
 11
1276.821
 21
3629.1406
  0
LINE
  8
0-2
  6
CONTINUOUS
 62
    3
 10
1276.821
 20
3629.1406
 11
1276.0815
 21
3629.9515
  0
LINE
  8
0-2
  6
CONTINUOUS
 62
    3
 10
1276.0815
 20
3629.9515
 11
1275.2249
 21
3630.6092
  0
LINE
  8
0-2
  6
CONTINUOUS
 62
    3
 10
1275.2249
 20
3630.6092
 11
1274.2771
 21
3631.0939
  0
LINE
  8
0-2
  6
CONTINUOUS
 62
    3
 10
1274.2771
 20
3631.0939
 11
1273.267
 21
3631.3907
  0
LINE
  8
0-2
  6
CONTINUOUS
 62
    3
 10
1273.267
 20
3631.3907
 11
1272.2252
 21
3631.4907
  0
LINE
  8
0-2
  6
CONTINUOUS
 62
    3
 10
1272.2252
 20
3631.4907
 11
1271.1835
 21
3631.3907
  0
LINE
  8
0-2
  6
CONTINUOUS
 62
    3
 10
1271.1835
 20
3631.3907
 11
1270.1734
 21
3631.0939
  0
LINE
  8
0-2
  6
CONTINUOUS
 62
    3
 10
1270.1734
 20
3631.0939
 11
1269.2256
 21
3630.6092
  0
LINE
  8
0-2
  6
CONTINUOUS
 62
    3
 10
1269.2256
 20
3630.6092
 11
1268.369
 21
3629.9515
  0
LINE
  8
0-2
  6
CONTINUOUS
 62
    3
 10
1268.369
 20
3629.9515
 11
1267.6295
 21
3629.1406
  0
LINE
  8
0-2
  6
CONTINUOUS
 62
    3
 10
1267.6295
 20
3629.1406
 11
1267.0297
 21
3628.2012
  0
LINE
  8
0-2
  6
CONTINUOUS
 62
    3
 10
1267.0297
 20
3628.2012
 11
1266.5877
 21
3627.1618
  0
LINE
  8
0-2
  6
CONTINUOUS
 62
    3
 10
1266.5877
 20
3627.1618
 11
1266.3171
 21
3626.0541
  0
LINE
  8
0-2
  6
CONTINUOUS
 62
    3
 10
1266.3171
 20
3626.0541
 11
1266.2259
 21
3624.9117
  0
LINE
  8
0-2
  6
CONTINUOUS
 62
    3
 10
1266.2259
 20
3624.9117
 11
1266.3171
 21
3623.7693
  0
LINE
  8
0-2
  6
CONTINUOUS
 62
    3
 10
1266.3171
 20
3623.7693
 11
1266.5877
 21
3622.6616
  0
LINE
  8
0-2
  6
CONTINUOUS
 62
    3
 10
1266.5877
 20
3622.6616
 11
1267.0297
 21
3621.6223
  0
LINE
  8
0-2
  6
CONTINUOUS
 62
    3
 10
1267.0297
 20
3621.6223
 11
1267.6295
 21
3620.6829
  0
LINE
  8
0-2
  6
CONTINUOUS
 62
    3
 10
1267.6295
 20
3620.6829
 11
1268.369
 21
3619.872
  0
LINE
  8
0-2
  6
CONTINUOUS
 62
    3
 10
1268.369
 20
3619.872
 11
1269.2256
 21
3619.2142
  0
LINE
  8
0-2
  6
CONTINUOUS
 62
    3
 10
1269.2256
 20
3619.2142
 11
1270.1734
 21
3618.7295
  0
LINE
  8
0-2
  6
CONTINUOUS
 62
    3
 10
1270.1734
 20
3618.7295
 11
1271.1835
 21
3618.4327
  0
LINE
  8
0-2
  6
CONTINUOUS
 62
    3
 10
1271.1835
 20
3618.4327
 11
1272.2252
 21
3618.3328
  0
LINE
  8
0-2
  6
CONTINUOUS
 62
    3
 10
1272.2252
 20
3618.3328
 11
1273.267
 21
3618.4327
  0
LINE
  8
0-2
  6
CONTINUOUS
 62
    3
 10
1273.267
 20
3618.4327
 11
1274.2771
 21
3618.7295
  0
LINE
  8
0-2
  6
CONTINUOUS
 62
    3
 10
1274.2771
 20
3618.7295
 11
1275.2249
 21
3619.2142
  0
LINE
  8
0-2
  6
CONTINUOUS
 62
    3
 10
1275.2249
 20
3619.2142
 11
1276.0815
 21
3619.872
  0
LINE
  8
0-2
  6
CONTINUOUS
 62
    3
 10
1276.0815
 20
3619.872
 11
1276.821
 21
3620.6829
  0
LINE
  8
0-2
  6
CONTINUOUS
 62
    3
 10
1276.821
 20
3620.6829
 11
1277.4208
 21
3621.6223
  0
LINE
  8
0-2
  6
CONTINUOUS
 62
    3
 10
1277.4208
 20
3621.6223
 11
1277.8628
 21
3622.6616
  0
LINE
  8
0-2
  6
CONTINUOUS
 62
    3
 10
1277.8628
 20
3622.6616
 11
1278.1334
 21
3623.7693
  0
LINE
  8
0-2
  6
CONTINUOUS
 62
    3
 10
1278.1334
 20
3623.7693
 11
1278.2246
 21
3624.9117
  0
LINE
  8
0-2
  6
CONTINUOUS
 62
    3
 10
1278.2246
 20
3120.7926
 11
1278.1334
 21
3121.935
  0
LINE
  8
0-2
  6
CONTINUOUS
 62
    3
 10
1278.1334
 20
3121.935
 11
1277.8628
 21
3123.0427
  0
LINE
  8
0-2
  6
CONTINUOUS
 62
    3
 10
1277.8628
 20
3123.0427
 11
1277.4208
 21
3124.082
  0
LINE
  8
0-2
  6
CONTINUOUS
 62
    3
 10
1277.4208
 20
3124.082
 11
1276.821
 21
3125.0214
  0
LINE
  8
0-2
  6
CONTINUOUS
 62
    3
 10
1276.821
 20
3125.0214
 11
1276.0815
 21
3125.8323
  0
LINE
  8
0-2
  6
CONTINUOUS
 62
    3
 10
1276.0815
 20
3125.8323
 11
1275.2249
 21
3126.4901
  0
LINE
  8
0-2
  6
CONTINUOUS
 62
    3
 10
1275.2249
 20
3126.4901
 11
1274.2771
 21
3126.9747
  0
LINE
  8
0-2
  6
CONTINUOUS
 62
    3
 10
1274.2771
 20
3126.9747
 11
1273.267
 21
3127.2716
  0
LINE
  8
0-2
  6
CONTINUOUS
 62
    3
 10
1273.267
 20
3127.2716
 11
1272.2252
 21
3127.3715
  0
LINE
  8
0-2
  6
CONTINUOUS
 62
    3
 10
1272.2252
 20
3127.3715
 11
1271.1835
 21
3127.2716
  0
LINE
  8
0-2
  6
CONTINUOUS
 62
    3
 10
1271.1835
 20
3127.2716
 11
1270.1734
 21
3126.9747
  0
LINE
  8
0-2
  6
CONTINUOUS
 62
    3
 10
1270.1734
 20
3126.9747
 11
1269.2256
 21
3126.4901
  0
LINE
  8
0-2
  6
CONTINUOUS
 62
    3
 10
1269.2256
 20
3126.4901
 11
1268.369
 21
3125.8323
  0
LINE
  8
0-2
  6
CONTINUOUS
 62
    3
 10
1268.369
 20
3125.8323
 11
1267.6295
 21
3125.0214
  0
LINE
  8
0-2
  6
CONTINUOUS
 62
    3
 10
1267.6295
 20
3125.0214
 11
1267.0297
 21
3124.082
  0
LINE
  8
0-2
  6
CONTINUOUS
 62
    3
 10
1267.0297
 20
3124.082
 11
1266.5877
 21
3123.0427
  0
LINE
  8
0-2
  6
CONTINUOUS
 62
    3
 10
1266.5877
 20
3123.0427
 11
1266.3171
 21
3121.935
  0
LINE
  8
0-2
  6
CONTINUOUS
 62
    3
 10
1266.3171
 20
3121.935
 11
1266.2259
 21
3120.7926
  0
LINE
  8
0-2
  6
CONTINUOUS
 62
    3
 10
1266.2259
 20
3120.7926
 11
1266.3171
 21
3119.6501
  0
LINE
  8
0-2
  6
CONTINUOUS
 62
    3
 10
1266.3171
 20
3119.6501
 11
1266.5877
 21
3118.5424
  0
LINE
  8
0-2
  6
CONTINUOUS
 62
    3
 10
1266.5877
 20
3118.5424
 11
1267.0297
 21
3117.5031
  0
LINE
  8
0-2
  6
CONTINUOUS
 62
    3
 10
1267.0297
 20
3117.5031
 11
1267.6295
 21
3116.5637
  0
LINE
  8
0-2
  6
CONTINUOUS
 62
    3
 10
1267.6295
 20
3116.5637
 11
1268.369
 21
3115.7528
  0
LINE
  8
0-2
  6
CONTINUOUS
 62
    3
 10
1268.369
 20
3115.7528
 11
1269.2256
 21
3115.095
  0
LINE
  8
0-2
  6
CONTINUOUS
 62
    3
 10
1269.2256
 20
3115.095
 11
1270.1734
 21
3114.6104
  0
LINE
  8
0-2
  6
CONTINUOUS
 62
    3
 10
1270.1734
 20
3114.6104
 11
1271.1835
 21
3114.3136
  0
LINE
  8
0-2
  6
CONTINUOUS
 62
    3
 10
1271.1835
 20
3114.3136
 11
1272.2252
 21
3114.2136
  0
LINE
  8
0-2
  6
CONTINUOUS
 62
    3
 10
1272.2252
 20
3114.2136
 11
1273.267
 21
3114.3136
  0
LINE
  8
0-2
  6
CONTINUOUS
 62
    3
 10
1273.267
 20
3114.3136
 11
1274.2771
 21
3114.6104
  0
LINE
  8
0-2
  6
CONTINUOUS
 62
    3
 10
1274.2771
 20
3114.6104
 11
1275.2249
 21
3115.095
  0
LINE
  8
0-2
  6
CONTINUOUS
 62
    3
 10
1275.2249
 20
3115.095
 11
1276.0815
 21
3115.7528
  0
LINE
  8
0-2
  6
CONTINUOUS
 62
    3
 10
1276.0815
 20
3115.7528
 11
1276.821
 21
3116.5637
  0
LINE
  8
0-2
  6
CONTINUOUS
 62
    3
 10
1276.821
 20
3116.5637
 11
1277.4208
 21
3117.5031
  0
LINE
  8
0-2
  6
CONTINUOUS
 62
    3
 10
1277.4208
 20
3117.5031
 11
1277.8628
 21
3118.5424
  0
LINE
  8
0-2
  6
CONTINUOUS
 62
    3
 10
1277.8628
 20
3118.5424
 11
1278.1334
 21
3119.6501
  0
LINE
  8
0-2
  6
CONTINUOUS
 62
    3
 10
1278.1334
 20
3119.6501
 11
1278.2246
 21
3120.7926
  0
LINE
  8
0-2
  6
CONTINUOUS
 62
    3
 10
1278.2246
 20
3060.7089
 11
1278.1334
 21
3061.8513
  0
LINE
  8
0-2
  6
CONTINUOUS
 62
    3
 10
1278.1334
 20
3061.8513
 11
1277.8628
 21
3062.959
  0
LINE
  8
0-2
  6
CONTINUOUS
 62
    3
 10
1277.8628
 20
3062.959
 11
1277.4208
 21
3063.9983
  0
LINE
  8
0-2
  6
CONTINUOUS
 62
    3
 10
1277.4208
 20
3063.9983
 11
1276.821
 21
3064.9377
  0
LINE
  8
0-2
  6
CONTINUOUS
 62
    3
 10
1276.821
 20
3064.9377
 11
1276.0815
 21
3065.7486
  0
LINE
  8
0-2
  6
CONTINUOUS
 62
    3
 10
1276.0815
 20
3065.7486
 11
1275.2249
 21
3066.4064
  0
LINE
  8
0-2
  6
CONTINUOUS
 62
    3
 10
1275.2249
 20
3066.4064
 11
1274.2771
 21
3066.891
  0
LINE
  8
0-2
  6
CONTINUOUS
 62
    3
 10
1274.2771
 20
3066.891
 11
1273.267
 21
3067.1878
  0
LINE
  8
0-2
  6
CONTINUOUS
 62
    3
 10
1273.267
 20
3067.1878
 11
1272.2252
 21
3067.2878
  0
LINE
  8
0-2
  6
CONTINUOUS
 62
    3
 10
1272.2252
 20
3067.2878
 11
1271.1835
 21
3067.1878
  0
LINE
  8
0-2
  6
CONTINUOUS
 62
    3
 10
1271.1835
 20
3067.1878
 11
1270.1734
 21
3066.891
  0
LINE
  8
0-2
  6
CONTINUOUS
 62
    3
 10
1270.1734
 20
3066.891
 11
1269.2256
 21
3066.4064
  0
LINE
  8
0-2
  6
CONTINUOUS
 62
    3
 10
1269.2256
 20
3066.4064
 11
1268.369
 21
3065.7486
  0
LINE
  8
0-2
  6
CONTINUOUS
 62
    3
 10
1268.369
 20
3065.7486
 11
1267.6295
 21
3064.9377
  0
LINE
  8
0-2
  6
CONTINUOUS
 62
    3
 10
1267.6295
 20
3064.9377
 11
1267.0297
 21
3063.9983
  0
LINE
  8
0-2
  6
CONTINUOUS
 62
    3
 10
1267.0297
 20
3063.9983
 11
1266.5877
 21
3062.959
  0
LINE
  8
0-2
  6
CONTINUOUS
 62
    3
 10
1266.5877
 20
3062.959
 11
1266.3171
 21
3061.8513
  0
LINE
  8
0-2
  6
CONTINUOUS
 62
    3
 10
1266.3171
 20
3061.8513
 11
1266.2259
 21
3060.7089
  0
LINE
  8
0-2
  6
CONTINUOUS
 62
    3
 10
1266.2259
 20
3060.7089
 11
1266.3171
 21
3059.5664
  0
LINE
  8
0-2
  6
CONTINUOUS
 62
    3
 10
1266.3171
 20
3059.5664
 11
1266.5877
 21
3058.4587
  0
LINE
  8
0-2
  6
CONTINUOUS
 62
    3
 10
1266.5877
 20
3058.4587
 11
1267.0297
 21
3057.4194
  0
LINE
  8
0-2
  6
CONTINUOUS
 62
    3
 10
1267.0297
 20
3057.4194
 11
1267.6295
 21
3056.48
  0
LINE
  8
0-2
  6
CONTINUOUS
 62
    3
 10
1267.6295
 20
3056.48
 11
1268.369
 21
3055.6691
  0
LINE
  8
0-2
  6
CONTINUOUS
 62
    3
 10
1268.369
 20
3055.6691
 11
1269.2256
 21
3055.0113
  0
LINE
  8
0-2
  6
CONTINUOUS
 62
    3
 10
1269.2256
 20
3055.0113
 11
1270.1734
 21
3054.5267
  0
LINE
  8
0-2
  6
CONTINUOUS
 62
    3
 10
1270.1734
 20
3054.5267
 11
1271.1835
 21
3054.2299
  0
LINE
  8
0-2
  6
CONTINUOUS
 62
    3
 10
1271.1835
 20
3054.2299
 11
1272.2252
 21
3054.1299
  0
LINE
  8
0-2
  6
CONTINUOUS
 62
    3
 10
1272.2252
 20
3054.1299
 11
1273.267
 21
3054.2299
  0
LINE
  8
0-2
  6
CONTINUOUS
 62
    3
 10
1273.267
 20
3054.2299
 11
1274.2771
 21
3054.5267
  0
LINE
  8
0-2
  6
CONTINUOUS
 62
    3
 10
1274.2771
 20
3054.5267
 11
1275.2249
 21
3055.0113
  0
LINE
  8
0-2
  6
CONTINUOUS
 62
    3
 10
1275.2249
 20
3055.0113
 11
1276.0815
 21
3055.6691
  0
LINE
  8
0-2
  6
CONTINUOUS
 62
    3
 10
1276.0815
 20
3055.6691
 11
1276.821
 21
3056.48
  0
LINE
  8
0-2
  6
CONTINUOUS
 62
    3
 10
1276.821
 20
3056.48
 11
1277.4208
 21
3057.4194
  0
LINE
  8
0-2
  6
CONTINUOUS
 62
    3
 10
1277.4208
 20
3057.4194
 11
1277.8628
 21
3058.4587
  0
LINE
  8
0-2
  6
CONTINUOUS
 62
    3
 10
1277.8628
 20
3058.4587
 11
1278.1334
 21
3059.5664
  0
LINE
  8
0-2
  6
CONTINUOUS
 62
    3
 10
1278.1334
 20
3059.5664
 11
1278.2246
 21
3060.7089
  0
LINE
  8
0-2
  6
CONTINUOUS
 62
    3
 10
1554.4866
 20
2908.1611
 11
1553.9628
 21
2910.0738
  0
LINE
  8
0-2
  6
CONTINUOUS
 62
    3
 10
1553.9628
 20
2910.0738
 11
1553.144
 21
2911.8577
  0
LINE
  8
0-2
  6
CONTINUOUS
 62
    3
 10
1553.144
 20
2911.8577
 11
1552.0552
 21
2913.4587
  0
LINE
  8
0-2
  6
CONTINUOUS
 62
    3
 10
1552.0552
 20
2913.4587
 11
1550.7295
 21
2914.8279
  0
LINE
  8
0-2
  6
CONTINUOUS
 62
    3
 10
1550.7295
 20
2914.8279
 11
1549.207
 21
2915.9239
  0
LINE
  8
0-2
  6
CONTINUOUS
 62
    3
 10
1549.207
 20
2915.9239
 11
1547.5341
 21
2916.7134
  0
LINE
  8
0-2
  6
CONTINUOUS
 62
    3
 10
1547.5341
 20
2916.7134
 11
1545.7617
 21
2917.1723
  0
LINE
  8
0-2
  6
CONTINUOUS
 62
    3
 10
1545.7617
 20
2917.1723
 11
1543.9435
 21
2917.2867
  0
LINE
  8
0-2
  6
CONTINUOUS
 62
    3
 10
1543.9435
 20
2917.2867
 11
1542.1348
 21
2917.0531
  0
LINE
  8
0-2
  6
CONTINUOUS
 62
    3
 10
1542.1348
 20
2917.0531
 11
1540.3905
 21
2916.4786
  0
LINE
  8
0-2
  6
CONTINUOUS
 62
    3
 10
1540.3905
 20
2916.4786
 11
1538.7638
 21
2915.5808
  0
LINE
  8
0-2
  6
CONTINUOUS
 62
    3
 10
1538.7638
 20
2915.5808
 11
1537.3039
 21
2914.3868
  0
LINE
  8
0-2
  6
CONTINUOUS
 62
    3
 10
1537.3039
 20
2914.3868
 11
1536.0553
 21
2912.9329
  0
LINE
  8
0-2
  6
CONTINUOUS
 62
    3
 10
1536.0553
 20
2912.9329
 11
1535.0558
 21
2911.2634
  0
LINE
  8
0-2
  6
CONTINUOUS
 62
    3
 10
1535.0558
 20
2911.2634
 11
1534.3359
 21
2909.4289
  0
LINE
  8
0-2
  6
CONTINUOUS
 62
    3
 10
1534.3359
 20
2909.4289
 11
1534.0261
 21
2908.1611
  0
LINE
  8
0-2
  6
CONTINUOUS
 62
    3
 10
1354.9344
 20
2888.8524
 11
1354.8432
 21
2889.9949
  0
LINE
  8
0-2
  6
CONTINUOUS
 62
    3
 10
1354.8432
 20
2889.9949
 11
1354.5726
 21
2891.1026
  0
LINE
  8
0-2
  6
CONTINUOUS
 62
    3
 10
1354.5726
 20
2891.1026
 11
1354.1306
 21
2892.1419
  0
LINE
  8
0-2
  6
CONTINUOUS
 62
    3
 10
1354.1306
 20
2892.1419
 11
1353.5308
 21
2893.0813
  0
LINE
  8
0-2
  6
CONTINUOUS
 62
    3
 10
1353.5308
 20
2893.0813
 11
1352.7914
 21
2893.8922
  0
LINE
  8
0-2
  6
CONTINUOUS
 62
    3
 10
1352.7914
 20
2893.8922
 11
1351.9347
 21
2894.55
  0
LINE
  8
0-2
  6
CONTINUOUS
 62
    3
 10
1351.9347
 20
2894.55
 11
1350.9869
 21
2895.0346
  0
LINE
  8
0-2
  6
CONTINUOUS
 62
    3
 10
1350.9869
 20
2895.0346
 11
1349.9768
 21
2895.3314
  0
LINE
  8
0-2
  6
CONTINUOUS
 62
    3
 10
1349.9768
 20
2895.3314
 11
1348.9351
 21
2895.4314
  0
LINE
  8
0-2
  6
CONTINUOUS
 62
    3
 10
1348.9351
 20
2895.4314
 11
1347.8933
 21
2895.3314
  0
LINE
  8
0-2
  6
CONTINUOUS
 62
    3
 10
1347.8933
 20
2895.3314
 11
1346.8832
 21
2895.0346
  0
LINE
  8
0-2
  6
CONTINUOUS
 62
    3
 10
1346.8832
 20
2895.0346
 11
1345.9354
 21
2894.55
  0
LINE
  8
0-2
  6
CONTINUOUS
 62
    3
 10
1345.9354
 20
2894.55
 11
1345.0788
 21
2893.8922
  0
LINE
  8
0-2
  6
CONTINUOUS
 62
    3
 10
1345.0788
 20
2893.8922
 11
1344.3393
 21
2893.0813
  0
LINE
  8
0-2
  6
CONTINUOUS
 62
    3
 10
1344.3393
 20
2893.0813
 11
1343.7395
 21
2892.1419
  0
LINE
  8
0-2
  6
CONTINUOUS
 62
    3
 10
1343.7395
 20
2892.1419
 11
1343.2975
 21
2891.1026
  0
LINE
  8
0-2
  6
CONTINUOUS
 62
    3
 10
1343.2975
 20
2891.1026
 11
1343.0269
 21
2889.9949
  0
LINE
  8
0-2
  6
CONTINUOUS
 62
    3
 10
1343.0269
 20
2889.9949
 11
1342.9357
 21
2888.8524
  0
LINE
  8
0-2
  6
CONTINUOUS
 62
    3
 10
1342.9357
 20
2888.8524
 11
1343.0269
 21
2887.71
  0
LINE
  8
0-2
  6
CONTINUOUS
 62
    3
 10
1343.0269
 20
2887.71
 11
1343.2975
 21
2886.6023
  0
LINE
  8
0-2
  6
CONTINUOUS
 62
    3
 10
1343.2975
 20
2886.6023
 11
1343.7395
 21
2885.563
  0
LINE
  8
0-2
  6
CONTINUOUS
 62
    3
 10
1343.7395
 20
2885.563
 11
1344.3393
 21
2884.6236
  0
LINE
  8
0-2
  6
CONTINUOUS
 62
    3
 10
1344.3393
 20
2884.6236
 11
1345.0788
 21
2883.8127
  0
LINE
  8
0-2
  6
CONTINUOUS
 62
    3
 10
1345.0788
 20
2883.8127
 11
1345.9354
 21
2883.1549
  0
LINE
  8
0-2
  6
CONTINUOUS
 62
    3
 10
1345.9354
 20
2883.1549
 11
1346.8832
 21
2882.6703
  0
LINE
  8
0-2
  6
CONTINUOUS
 62
    3
 10
1346.8832
 20
2882.6703
 11
1347.8933
 21
2882.3734
  0
LINE
  8
0-2
  6
CONTINUOUS
 62
    3
 10
1347.8933
 20
2882.3734
 11
1348.9351
 21
2882.2735
  0
LINE
  8
0-2
  6
CONTINUOUS
 62
    3
 10
1348.9351
 20
2882.2735
 11
1349.9768
 21
2882.3734
  0
LINE
  8
0-2
  6
CONTINUOUS
 62
    3
 10
1349.9768
 20
2882.3734
 11
1350.9869
 21
2882.6703
  0
LINE
  8
0-2
  6
CONTINUOUS
 62
    3
 10
1350.9869
 20
2882.6703
 11
1351.9347
 21
2883.1549
  0
LINE
  8
0-2
  6
CONTINUOUS
 62
    3
 10
1351.9347
 20
2883.1549
 11
1352.7914
 21
2883.8127
  0
LINE
  8
0-2
  6
CONTINUOUS
 62
    3
 10
1352.7914
 20
2883.8127
 11
1353.5308
 21
2884.6236
  0
LINE
  8
0-2
  6
CONTINUOUS
 62
    3
 10
1353.5308
 20
2884.6236
 11
1354.1306
 21
2885.563
  0
LINE
  8
0-2
  6
CONTINUOUS
 62
    3
 10
1354.1306
 20
2885.563
 11
1354.5726
 21
2886.6023
  0
LINE
  8
0-2
  6
CONTINUOUS
 62
    3
 10
1354.5726
 20
2886.6023
 11
1354.8432
 21
2887.71
  0
LINE
  8
0-2
  6
CONTINUOUS
 62
    3
 10
1354.8432
 20
2887.71
 11
1354.9344
 21
2888.8524
  0
LINE
  8
0-2
  6
CONTINUOUS
 62
    3
 10
1354.9344
 20
2750.0636
 11
1354.8432
 21
2751.206
  0
LINE
  8
0-2
  6
CONTINUOUS
 62
    3
 10
1354.8432
 20
2751.206
 11
1354.5726
 21
2752.3137
  0
LINE
  8
0-2
  6
CONTINUOUS
 62
    3
 10
1354.5726
 20
2752.3137
 11
1354.1306
 21
2753.353
  0
LINE
  8
0-2
  6
CONTINUOUS
 62
    3
 10
1354.1306
 20
2753.353
 11
1353.5308
 21
2754.2924
  0
LINE
  8
0-2
  6
CONTINUOUS
 62
    3
 10
1353.5308
 20
2754.2924
 11
1352.7914
 21
2755.1033
  0
LINE
  8
0-2
  6
CONTINUOUS
 62
    3
 10
1352.7914
 20
2755.1033
 11
1351.9347
 21
2755.7611
  0
LINE
  8
0-2
  6
CONTINUOUS
 62
    3
 10
1351.9347
 20
2755.7611
 11
1350.9869
 21
2756.2457
  0
LINE
  8
0-2
  6
CONTINUOUS
 62
    3
 10
1350.9869
 20
2756.2457
 11
1349.9768
 21
2756.5426
  0
LINE
  8
0-2
  6
CONTINUOUS
 62
    3
 10
1349.9768
 20
2756.5426
 11
1348.9351
 21
2756.6425
  0
LINE
  8
0-2
  6
CONTINUOUS
 62
    3
 10
1348.9351
 20
2756.6425
 11
1347.8933
 21
2756.5426
  0
LINE
  8
0-2
  6
CONTINUOUS
 62
    3
 10
1347.8933
 20
2756.5426
 11
1346.8832
 21
2756.2457
  0
LINE
  8
0-2
  6
CONTINUOUS
 62
    3
 10
1346.8832
 20
2756.2457
 11
1345.9354
 21
2755.7611
  0
LINE
  8
0-2
  6
CONTINUOUS
 62
    3
 10
1345.9354
 20
2755.7611
 11
1345.0788
 21
2755.1033
  0
LINE
  8
0-2
  6
CONTINUOUS
 62
    3
 10
1345.0788
 20
2755.1033
 11
1344.3393
 21
2754.2924
  0
LINE
  8
0-2
  6
CONTINUOUS
 62
    3
 10
1344.3393
 20
2754.2924
 11
1343.7395
 21
2753.353
  0
LINE
  8
0-2
  6
CONTINUOUS
 62
    3
 10
1343.7395
 20
2753.353
 11
1343.2975
 21
2752.3137
  0
LINE
  8
0-2
  6
CONTINUOUS
 62
    3
 10
1343.2975
 20
2752.3137
 11
1343.0269
 21
2751.206
  0
LINE
  8
0-2
  6
CONTINUOUS
 62
    3
 10
1343.0269
 20
2751.206
 11
1342.9357
 21
2750.0636
  0
LINE
  8
0-2
  6
CONTINUOUS
 62
    3
 10
1342.9357
 20
2750.0636
 11
1343.0269
 21
2748.9211
  0
LINE
  8
0-2
  6
CONTINUOUS
 62
    3
 10
1343.0269
 20
2748.9211
 11
1343.2975
 21
2747.8134
  0
LINE
  8
0-2
  6
CONTINUOUS
 62
    3
 10
1343.2975
 20
2747.8134
 11
1343.7395
 21
2746.7741
  0
LINE
  8
0-2
  6
CONTINUOUS
 62
    3
 10
1343.7395
 20
2746.7741
 11
1344.3393
 21
2745.8347
  0
LINE
  8
0-2
  6
CONTINUOUS
 62
    3
 10
1344.3393
 20
2745.8347
 11
1345.0788
 21
2745.0238
  0
LINE
  8
0-2
  6
CONTINUOUS
 62
    3
 10
1345.0788
 20
2745.0238
 11
1345.9354
 21
2744.366
  0
LINE
  8
0-2
  6
CONTINUOUS
 62
    3
 10
1345.9354
 20
2744.366
 11
1346.8832
 21
2743.8814
  0
LINE
  8
0-2
  6
CONTINUOUS
 62
    3
 10
1346.8832
 20
2743.8814
 11
1347.8933
 21
2743.5846
  0
LINE
  8
0-2
  6
CONTINUOUS
 62
    3
 10
1347.8933
 20
2743.5846
 11
1348.9351
 21
2743.4846
  0
LINE
  8
0-2
  6
CONTINUOUS
 62
    3
 10
1348.9351
 20
2743.4846
 11
1349.9768
 21
2743.5846
  0
LINE
  8
0-2
  6
CONTINUOUS
 62
    3
 10
1349.9768
 20
2743.5846
 11
1350.9869
 21
2743.8814
  0
LINE
  8
0-2
  6
CONTINUOUS
 62
    3
 10
1350.9869
 20
2743.8814
 11
1351.9347
 21
2744.366
  0
LINE
  8
0-2
  6
CONTINUOUS
 62
    3
 10
1351.9347
 20
2744.366
 11
1352.7914
 21
2745.0238
  0
LINE
  8
0-2
  6
CONTINUOUS
 62
    3
 10
1352.7914
 20
2745.0238
 11
1353.5308
 21
2745.8347
  0
LINE
  8
0-2
  6
CONTINUOUS
 62
    3
 10
1353.5308
 20
2745.8347
 11
1354.1306
 21
2746.7741
  0
LINE
  8
0-2
  6
CONTINUOUS
 62
    3
 10
1354.1306
 20
2746.7741
 11
1354.5726
 21
2747.8134
  0
LINE
  8
0-2
  6
CONTINUOUS
 62
    3
 10
1354.5726
 20
2747.8134
 11
1354.8432
 21
2748.9211
  0
LINE
  8
0-2
  6
CONTINUOUS
 62
    3
 10
1354.8432
 20
2748.9211
 11
1354.9344
 21
2750.0636
  0
ARC
  8
0-2
  6
CONTINUOUS
 62
    3
 10
1882.5098
 20
2725.1567
 40
6.3715974
 50
270
 51
90
  0
ARC
  8
0-2
  6
CONTINUOUS
 62
    3
 10
1882.5098
 20
2674.1831
 40
6.3715974
 50
270
 51
90
  0
ARC
  8
0-2
  6
CONTINUOUS
 62
    3
 10
1267.51
 20
2725.1567
 40
6.3715974
 50
90
 51
270
  0
ARC
  8
0-2
  6
CONTINUOUS
 62
    3
 10
1267.51
 20
2674.1831
 40
6.3715974
 50
90
 51
270
  0
LINE
  8
0-2
  6
CONTINUOUS
 62
    3
 10
2084.9986
 20
3130.8811
 11
2086.7348
 21
3131.0477
  0
LINE
  8
0-2
  6
CONTINUOUS
 62
    3
 10
2086.7348
 20
3131.0477
 11
2088.4183
 21
3131.5423
  0
LINE
  8
0-2
  6
CONTINUOUS
 62
    3
 10
2088.4183
 20
3131.5423
 11
2089.9978
 21
3132.35
  0
LINE
  8
0-2
  6
CONTINUOUS
 62
    3
 10
2089.9978
 20
3132.35
 11
2091.4255
 21
3133.4463
  0
LINE
  8
0-2
  6
CONTINUOUS
 62
    3
 10
2091.4255
 20
3133.4463
 11
2092.6578
 21
3134.7977
  0
LINE
  8
0-2
  6
CONTINUOUS
 62
    3
 10
2092.6578
 20
3134.7977
 11
2093.6575
 21
3136.3633
  0
LINE
  8
0-2
  6
CONTINUOUS
 62
    3
 10
2093.6575
 20
3136.3633
 11
2094.3941
 21
3138.0954
  0
LINE
  8
0-2
  6
CONTINUOUS
 62
    3
 10
2094.3941
 20
3138.0954
 11
2094.8451
 21
3139.9415
  0
LINE
  8
0-2
  6
CONTINUOUS
 62
    3
 10
2094.8451
 20
3139.9415
 11
2094.997
 21
3141.8455
  0
LINE
  8
0-2
  6
CONTINUOUS
 62
    3
 10
2094.997
 20
3141.8455
 11
2094.8451
 21
3143.7494
  0
LINE
  8
0-2
  6
CONTINUOUS
 62
    3
 10
2094.8451
 20
3143.7494
 11
2094.3941
 21
3145.5955
  0
LINE
  8
0-2
  6
CONTINUOUS
 62
    3
 10
2094.3941
 20
3145.5955
 11
2093.6575
 21
3147.3277
  0
LINE
  8
0-2
  6
CONTINUOUS
 62
    3
 10
2093.6575
 20
3147.3277
 11
2092.6578
 21
3148.8933
  0
LINE
  8
0-2
  6
CONTINUOUS
 62
    3
 10
2092.6578
 20
3148.8933
 11
2091.4255
 21
3150.2447
  0
LINE
  8
0-2
  6
CONTINUOUS
 62
    3
 10
2091.4255
 20
3150.2447
 11
2089.9978
 21
3151.3409
  0
LINE
  8
0-2
  6
CONTINUOUS
 62
    3
 10
2089.9978
 20
3151.3409
 11
2088.4183
 21
3152.1486
  0
LINE
  8
0-2
  6
CONTINUOUS
 62
    3
 10
2088.4183
 20
3152.1486
 11
2086.7348
 21
3152.6433
  0
LINE
  8
0-2
  6
CONTINUOUS
 62
    3
 10
2086.7348
 20
3152.6433
 11
2084.9986
 21
3152.8099
  0
LINE
  8
0-2
  6
CONTINUOUS
 62
    3
 10
2084.9997
 20
3017.8099
 11
2086.7359
 21
3017.9765
  0
LINE
  8
0-2
  6
CONTINUOUS
 62
    3
 10
2086.7359
 20
3017.9765
 11
2088.4194
 21
3018.4711
  0
LINE
  8
0-2
  6
CONTINUOUS
 62
    3
 10
2088.4194
 20
3018.4711
 11
2089.9989
 21
3019.2788
  0
LINE
  8
0-2
  6
CONTINUOUS
 62
    3
 10
2089.9989
 20
3019.2788
 11
2091.4266
 21
3020.3751
  0
LINE
  8
0-2
  6
CONTINUOUS
 62
    3
 10
2091.4266
 20
3020.3751
 11
2092.659
 21
3021.7265
  0
LINE
  8
0-2
  6
CONTINUOUS
 62
    3
 10
2092.659
 20
3021.7265
 11
2093.6586
 21
3023.2921
  0
LINE
  8
0-2
  6
CONTINUOUS
 62
    3
 10
2093.6586
 20
3023.2921
 11
2094.3952
 21
3025.0242
  0
LINE
  8
0-2
  6
CONTINUOUS
 62
    3
 10
2094.3952
 20
3025.0242
 11
2094.8462
 21
3026.8703
  0
LINE
  8
0-2
  6
CONTINUOUS
 62
    3
 10
2094.8462
 20
3026.8703
 11
2094.9981
 21
3028.7743
  0
LINE
  8
0-2
  6
CONTINUOUS
 62
    3
 10
2094.9981
 20
3028.7743
 11
2094.8462
 21
3030.6782
  0
LINE
  8
0-2
  6
CONTINUOUS
 62
    3
 10
2094.8462
 20
3030.6782
 11
2094.3952
 21
3032.5243
  0
LINE
  8
0-2
  6
CONTINUOUS
 62
    3
 10
2094.3952
 20
3032.5243
 11
2093.6586
 21
3034.2565
  0
LINE
  8
0-2
  6
CONTINUOUS
 62
    3
 10
2093.6586
 20
3034.2565
 11
2092.659
 21
3035.822
  0
LINE
  8
0-2
  6
CONTINUOUS
 62
    3
 10
2092.659
 20
3035.822
 11
2091.4266
 21
3037.1735
  0
LINE
  8
0-2
  6
CONTINUOUS
 62
    3
 10
2091.4266
 20
3037.1735
 11
2089.9989
 21
3038.2697
  0
LINE
  8
0-2
  6
CONTINUOUS
 62
    3
 10
2089.9989
 20
3038.2697
 11
2088.4194
 21
3039.0774
  0
LINE
  8
0-2
  6
CONTINUOUS
 62
    3
 10
2088.4194
 20
3039.0774
 11
2086.7359
 21
3039.5721
  0
LINE
  8
0-2
  6
CONTINUOUS
 62
    3
 10
2086.7359
 20
3039.5721
 11
2084.9997
 21
3039.7387
  0
LINE
  8
0-2
  6
CONTINUOUS
 62
    3
 10
2085.0001
 20
3645.8812
 11
2086.7363
 21
3646.0477
  0
LINE
  8
0-2
  6
CONTINUOUS
 62
    3
 10
2086.7363
 20
3646.0477
 11
2088.4198
 21
3646.5424
  0
LINE
  8
0-2
  6
CONTINUOUS
 62
    3
 10
2088.4198
 20
3646.5424
 11
2089.9993
 21
3647.3501
  0
LINE
  8
0-2
  6
CONTINUOUS
 62
    3
 10
2089.9993
 20
3647.3501
 11
2091.427
 21
3648.4463
  0
LINE
  8
0-2
  6
CONTINUOUS
 62
    3
 10
2091.427
 20
3648.4463
 11
2092.6593
 21
3649.7978
  0
LINE
  8
0-2
  6
CONTINUOUS
 62
    3
 10
2092.6593
 20
3649.7978
 11
2093.659
 21
3651.3634
  0
LINE
  8
0-2
  6
CONTINUOUS
 62
    3
 10
2093.659
 20
3651.3634
 11
2094.3955
 21
3653.0955
  0
LINE
  8
0-2
  6
CONTINUOUS
 62
    3
 10
2094.3955
 20
3653.0955
 11
2094.8466
 21
3654.9416
  0
LINE
  8
0-2
  6
CONTINUOUS
 62
    3
 10
2094.8466
 20
3654.9416
 11
2094.9985
 21
3656.8456
  0
LINE
  8
0-2
  6
CONTINUOUS
 62
    3
 10
2094.9985
 20
3656.8456
 11
2094.8466
 21
3658.7495
  0
LINE
  8
0-2
  6
CONTINUOUS
 62
    3
 10
2094.8466
 20
3658.7495
 11
2094.3955
 21
3660.5956
  0
LINE
  8
0-2
  6
CONTINUOUS
 62
    3
 10
2094.3955
 20
3660.5956
 11
2093.659
 21
3662.3278
  0
LINE
  8
0-2
  6
CONTINUOUS
 62
    3
 10
2093.659
 20
3662.3278
 11
2092.6593
 21
3663.8933
  0
LINE
  8
0-2
  6
CONTINUOUS
 62
    3
 10
2092.6593
 20
3663.8933
 11
2091.427
 21
3665.2448
  0
LINE
  8
0-2
  6
CONTINUOUS
 62
    3
 10
2091.427
 20
3665.2448
 11
2089.9993
 21
3666.341
  0
LINE
  8
0-2
  6
CONTINUOUS
 62
    3
 10
2089.9993
 20
3666.341
 11
2088.4198
 21
3667.1487
  0
LINE
  8
0-2
  6
CONTINUOUS
 62
    3
 10
2088.4198
 20
3667.1487
 11
2086.7363
 21
3667.6434
  0
LINE
  8
0-2
  6
CONTINUOUS
 62
    3
 10
2086.7363
 20
3667.6434
 11
2085.0001
 21
3667.81
  0
LINE
  8
0-2
  6
CONTINUOUS
 62
    3
 10
2085.0001
 20
3532.81
 11
2086.7363
 21
3532.9765
  0
LINE
  8
0-2
  6
CONTINUOUS
 62
    3
 10
2086.7363
 20
3532.9765
 11
2088.4198
 21
3533.4712
  0
LINE
  8
0-2
  6
CONTINUOUS
 62
    3
 10
2088.4198
 20
3533.4712
 11
2089.9993
 21
3534.2789
  0
LINE
  8
0-2
  6
CONTINUOUS
 62
    3
 10
2089.9993
 20
3534.2789
 11
2091.427
 21
3535.3751
  0
LINE
  8
0-2
  6
CONTINUOUS
 62
    3
 10
2091.427
 20
3535.3751
 11
2092.6593
 21
3536.7266
  0
LINE
  8
0-2
  6
CONTINUOUS
 62
    3
 10
2092.6593
 20
3536.7266
 11
2093.659
 21
3538.2922
  0
LINE
  8
0-2
  6
CONTINUOUS
 62
    3
 10
2093.659
 20
3538.2922
 11
2094.3955
 21
3540.0243
  0
LINE
  8
0-2
  6
CONTINUOUS
 62
    3
 10
2094.3955
 20
3540.0243
 11
2094.8466
 21
3541.8704
  0
LINE
  8
0-2
  6
CONTINUOUS
 62
    3
 10
2094.8466
 20
3541.8704
 11
2094.9985
 21
3543.7743
  0
LINE
  8
0-2
  6
CONTINUOUS
 62
    3
 10
2094.9985
 20
3543.7743
 11
2094.8466
 21
3545.6783
  0
LINE
  8
0-2
  6
CONTINUOUS
 62
    3
 10
2094.8466
 20
3545.6783
 11
2094.3955
 21
3547.5244
  0
LINE
  8
0-2
  6
CONTINUOUS
 62
    3
 10
2094.3955
 20
3547.5244
 11
2093.659
 21
3549.2565
  0
LINE
  8
0-2
  6
CONTINUOUS
 62
    3
 10
2093.659
 20
3549.2565
 11
2092.6593
 21
3550.8221
  0
LINE
  8
0-2
  6
CONTINUOUS
 62
    3
 10
2092.6593
 20
3550.8221
 11
2091.427
 21
3552.1736
  0
LINE
  8
0-2
  6
CONTINUOUS
 62
    3
 10
2091.427
 20
3552.1736
 11
2089.9993
 21
3553.2698
  0
LINE
  8
0-2
  6
CONTINUOUS
 62
    3
 10
2089.9993
 20
3553.2698
 11
2088.4198
 21
3554.0775
  0
LINE
  8
0-2
  6
CONTINUOUS
 62
    3
 10
2088.4198
 20
3554.0775
 11
2086.7363
 21
3554.5722
  0
LINE
  8
0-2
  6
CONTINUOUS
 62
    3
 10
2086.7363
 20
3554.5722
 11
2085.0001
 21
3554.7387
  0
LINE
  8
0-2
  6
CONTINUOUS
 62
    3
 10
1595.5132
 20
3777.4597
 11
1596.037
 21
3775.547
  0
LINE
  8
0-2
  6
CONTINUOUS
 62
    3
 10
1596.037
 20
3775.547
 11
1596.8558
 21
3773.763
  0
LINE
  8
0-2
  6
CONTINUOUS
 62
    3
 10
1596.8558
 20
3773.763
 11
1597.9446
 21
3772.1621
  0
LINE
  8
0-2
  6
CONTINUOUS
 62
    3
 10
1597.9446
 20
3772.1621
 11
1599.2704
 21
3770.7928
  0
LINE
  8
0-2
  6
CONTINUOUS
 62
    3
 10
1599.2704
 20
3770.7928
 11
1600.7928
 21
3769.6968
  0
LINE
  8
0-2
  6
CONTINUOUS
 62
    3
 10
1600.7928
 20
3769.6968
 11
1602.4657
 21
3768.9074
  0
LINE
  8
0-2
  6
CONTINUOUS
 62
    3
 10
1602.4657
 20
3768.9074
 11
1604.2381
 21
3768.4485
  0
LINE
  8
0-2
  6
CONTINUOUS
 62
    3
 10
1604.2381
 20
3768.4485
 11
1606.0563
 21
3768.3341
  0
LINE
  8
0-2
  6
CONTINUOUS
 62
    3
 10
1606.0563
 20
3768.3341
 11
1607.865
 21
3768.5677
  0
LINE
  8
0-2
  6
CONTINUOUS
 62
    3
 10
1607.865
 20
3768.5677
 11
1609.6093
 21
3769.1421
  0
LINE
  8
0-2
  6
CONTINUOUS
 62
    3
 10
1609.6093
 20
3769.1421
 11
1611.236
 21
3770.04
  0
LINE
  8
0-2
  6
CONTINUOUS
 62
    3
 10
1611.236
 20
3770.04
 11
1612.6959
 21
3771.234
  0
LINE
  8
0-2
  6
CONTINUOUS
 62
    3
 10
1612.6959
 20
3771.234
 11
1613.9446
 21
3772.6878
  0
LINE
  8
0-2
  6
CONTINUOUS
 62
    3
 10
1613.9446
 20
3772.6878
 11
1614.944
 21
3774.3574
  0
LINE
  8
0-2
  6
CONTINUOUS
 62
    3
 10
1614.944
 20
3774.3574
 11
1615.6639
 21
3776.1919
  0
LINE
  8
0-2
  6
CONTINUOUS
 62
    3
 10
1615.6639
 20
3776.1919
 11
1615.9737
 21
3777.4597
  0
LINE
  8
0-2
  6
CONTINUOUS
 62
    3
 10
1871.7752
 20
3564.828
 11
1871.8664
 21
3563.6856
  0
LINE
  8
0-2
  6
CONTINUOUS
 62
    3
 10
1871.8664
 20
3563.6856
 11
1872.137
 21
3562.5779
  0
LINE
  8
0-2
  6
CONTINUOUS
 62
    3
 10
1872.137
 20
3562.5779
 11
1872.579
 21
3561.5385
  0
LINE
  8
0-2
  6
CONTINUOUS
 62
    3
 10
1872.579
 20
3561.5385
 11
1873.1788
 21
3560.5992
  0
LINE
  8
0-2
  6
CONTINUOUS
 62
    3
 10
1873.1788
 20
3560.5992
 11
1873.9183
 21
3559.7883
  0
LINE
  8
0-2
  6
CONTINUOUS
 62
    3
 10
1873.9183
 20
3559.7883
 11
1874.7749
 21
3559.1305
  0
LINE
  8
0-2
  6
CONTINUOUS
 62
    3
 10
1874.7749
 20
3559.1305
 11
1875.7227
 21
3558.6458
  0
LINE
  8
0-2
  6
CONTINUOUS
 62
    3
 10
1875.7227
 20
3558.6458
 11
1876.7328
 21
3558.349
  0
LINE
  8
0-2
  6
CONTINUOUS
 62
    3
 10
1876.7328
 20
3558.349
 11
1877.7746
 21
3558.2491
  0
LINE
  8
0-2
  6
CONTINUOUS
 62
    3
 10
1877.7746
 20
3558.2491
 11
1878.8163
 21
3558.349
  0
LINE
  8
0-2
  6
CONTINUOUS
 62
    3
 10
1878.8163
 20
3558.349
 11
1879.8265
 21
3558.6458
  0
LINE
  8
0-2
  6
CONTINUOUS
 62
    3
 10
1879.8265
 20
3558.6458
 11
1880.7742
 21
3559.1305
  0
LINE
  8
0-2
  6
CONTINUOUS
 62
    3
 10
1880.7742
 20
3559.1305
 11
1881.6309
 21
3559.7883
  0
LINE
  8
0-2
  6
CONTINUOUS
 62
    3
 10
1881.6309
 20
3559.7883
 11
1882.3703
 21
3560.5992
  0
LINE
  8
0-2
  6
CONTINUOUS
 62
    3
 10
1882.3703
 20
3560.5992
 11
1882.9701
 21
3561.5385
  0
LINE
  8
0-2
  6
CONTINUOUS
 62
    3
 10
1882.9701
 20
3561.5385
 11
1883.4121
 21
3562.5779
  0
LINE
  8
0-2
  6
CONTINUOUS
 62
    3
 10
1883.4121
 20
3562.5779
 11
1883.6828
 21
3563.6856
  0
LINE
  8
0-2
  6
CONTINUOUS
 62
    3
 10
1883.6828
 20
3563.6856
 11
1883.7739
 21
3564.828
  0
LINE
  8
0-2
  6
CONTINUOUS
 62
    3
 10
1883.7739
 20
3564.828
 11
1883.6828
 21
3565.9704
  0
LINE
  8
0-2
  6
CONTINUOUS
 62
    3
 10
1883.6828
 20
3565.9704
 11
1883.4121
 21
3567.0781
  0
LINE
  8
0-2
  6
CONTINUOUS
 62
    3
 10
1883.4121
 20
3567.0781
 11
1882.9701
 21
3568.1175
  0
LINE
  8
0-2
  6
CONTINUOUS
 62
    3
 10
1882.9701
 20
3568.1175
 11
1882.3703
 21
3569.0569
  0
LINE
  8
0-2
  6
CONTINUOUS
 62
    3
 10
1882.3703
 20
3569.0569
 11
1881.6309
 21
3569.8678
  0
LINE
  8
0-2
  6
CONTINUOUS
 62
    3
 10
1881.6309
 20
3569.8678
 11
1880.7742
 21
3570.5255
  0
LINE
  8
0-2
  6
CONTINUOUS
 62
    3
 10
1880.7742
 20
3570.5255
 11
1879.8265
 21
3571.0102
  0
LINE
  8
0-2
  6
CONTINUOUS
 62
    3
 10
1879.8265
 20
3571.0102
 11
1878.8163
 21
3571.307
  0
LINE
  8
0-2
  6
CONTINUOUS
 62
    3
 10
1878.8163
 20
3571.307
 11
1877.7746
 21
3571.407
  0
LINE
  8
0-2
  6
CONTINUOUS
 62
    3
 10
1877.7746
 20
3571.407
 11
1876.7328
 21
3571.307
  0
LINE
  8
0-2
  6
CONTINUOUS
 62
    3
 10
1876.7328
 20
3571.307
 11
1875.7227
 21
3571.0102
  0
LINE
  8
0-2
  6
CONTINUOUS
 62
    3
 10
1875.7227
 20
3571.0102
 11
1874.7749
 21
3570.5255
  0
LINE
  8
0-2
  6
CONTINUOUS
 62
    3
 10
1874.7749
 20
3570.5255
 11
1873.9183
 21
3569.8678
  0
LINE
  8
0-2
  6
CONTINUOUS
 62
    3
 10
1873.9183
 20
3569.8678
 11
1873.1788
 21
3569.0569
  0
LINE
  8
0-2
  6
CONTINUOUS
 62
    3
 10
1873.1788
 20
3569.0569
 11
1872.579
 21
3568.1175
  0
LINE
  8
0-2
  6
CONTINUOUS
 62
    3
 10
1872.579
 20
3568.1175
 11
1872.137
 21
3567.0781
  0
LINE
  8
0-2
  6
CONTINUOUS
 62
    3
 10
1872.137
 20
3567.0781
 11
1871.8664
 21
3565.9704
  0
LINE
  8
0-2
  6
CONTINUOUS
 62
    3
 10
1871.8664
 20
3565.9704
 11
1871.7752
 21
3564.828
  0
LINE
  8
0-2
  6
CONTINUOUS
 62
    3
 10
1871.7752
 20
3624.9117
 11
1871.8664
 21
3623.7693
  0
LINE
  8
0-2
  6
CONTINUOUS
 62
    3
 10
1871.8664
 20
3623.7693
 11
1872.137
 21
3622.6616
  0
LINE
  8
0-2
  6
CONTINUOUS
 62
    3
 10
1872.137
 20
3622.6616
 11
1872.579
 21
3621.6223
  0
LINE
  8
0-2
  6
CONTINUOUS
 62
    3
 10
1872.579
 20
3621.6223
 11
1873.1788
 21
3620.6829
  0
LINE
  8
0-2
  6
CONTINUOUS
 62
    3
 10
1873.1788
 20
3620.6829
 11
1873.9183
 21
3619.872
  0
LINE
  8
0-2
  6
CONTINUOUS
 62
    3
 10
1873.9183
 20
3619.872
 11
1874.7749
 21
3619.2142
  0
LINE
  8
0-2
  6
CONTINUOUS
 62
    3
 10
1874.7749
 20
3619.2142
 11
1875.7227
 21
3618.7295
  0
LINE
  8
0-2
  6
CONTINUOUS
 62
    3
 10
1875.7227
 20
3618.7295
 11
1876.7328
 21
3618.4327
  0
LINE
  8
0-2
  6
CONTINUOUS
 62
    3
 10
1876.7328
 20
3618.4327
 11
1877.7746
 21
3618.3328
  0
LINE
  8
0-2
  6
CONTINUOUS
 62
    3
 10
1877.7746
 20
3618.3328
 11
1878.8163
 21
3618.4327
  0
LINE
  8
0-2
  6
CONTINUOUS
 62
    3
 10
1878.8163
 20
3618.4327
 11
1879.8265
 21
3618.7295
  0
LINE
  8
0-2
  6
CONTINUOUS
 62
    3
 10
1879.8265
 20
3618.7295
 11
1880.7742
 21
3619.2142
  0
LINE
  8
0-2
  6
CONTINUOUS
 62
    3
 10
1880.7742
 20
3619.2142
 11
1881.6309
 21
3619.872
  0
LINE
  8
0-2
  6
CONTINUOUS
 62
    3
 10
1881.6309
 20
3619.872
 11
1882.3703
 21
3620.6829
  0
LINE
  8
0-2
  6
CONTINUOUS
 62
    3
 10
1882.3703
 20
3620.6829
 11
1882.9701
 21
3621.6223
  0
LINE
  8
0-2
  6
CONTINUOUS
 62
    3
 10
1882.9701
 20
3621.6223
 11
1883.4121
 21
3622.6616
  0
LINE
  8
0-2
  6
CONTINUOUS
 62
    3
 10
1883.4121
 20
3622.6616
 11
1883.6828
 21
3623.7693
  0
LINE
  8
0-2
  6
CONTINUOUS
 62
    3
 10
1883.6828
 20
3623.7693
 11
1883.7739
 21
3624.9117
  0
LINE
  8
0-2
  6
CONTINUOUS
 62
    3
 10
1883.7739
 20
3624.9117
 11
1883.6828
 21
3626.0541
  0
LINE
  8
0-2
  6
CONTINUOUS
 62
    3
 10
1883.6828
 20
3626.0541
 11
1883.4121
 21
3627.1618
  0
LINE
  8
0-2
  6
CONTINUOUS
 62
    3
 10
1883.4121
 20
3627.1618
 11
1882.9701
 21
3628.2012
  0
LINE
  8
0-2
  6
CONTINUOUS
 62
    3
 10
1882.9701
 20
3628.2012
 11
1882.3703
 21
3629.1406
  0
LINE
  8
0-2
  6
CONTINUOUS
 62
    3
 10
1882.3703
 20
3629.1406
 11
1881.6309
 21
3629.9515
  0
LINE
  8
0-2
  6
CONTINUOUS
 62
    3
 10
1881.6309
 20
3629.9515
 11
1880.7742
 21
3630.6092
  0
LINE
  8
0-2
  6
CONTINUOUS
 62
    3
 10
1880.7742
 20
3630.6092
 11
1879.8265
 21
3631.0939
  0
LINE
  8
0-2
  6
CONTINUOUS
 62
    3
 10
1879.8265
 20
3631.0939
 11
1878.8163
 21
3631.3907
  0
LINE
  8
0-2
  6
CONTINUOUS
 62
    3
 10
1878.8163
 20
3631.3907
 11
1877.7746
 21
3631.4907
  0
LINE
  8
0-2
  6
CONTINUOUS
 62
    3
 10
1877.7746
 20
3631.4907
 11
1876.7328
 21
3631.3907
  0
LINE
  8
0-2
  6
CONTINUOUS
 62
    3
 10
1876.7328
 20
3631.3907
 11
1875.7227
 21
3631.0939
  0
LINE
  8
0-2
  6
CONTINUOUS
 62
    3
 10
1875.7227
 20
3631.0939
 11
1874.7749
 21
3630.6092
  0
LINE
  8
0-2
  6
CONTINUOUS
 62
    3
 10
1874.7749
 20
3630.6092
 11
1873.9183
 21
3629.9515
  0
LINE
  8
0-2
  6
CONTINUOUS
 62
    3
 10
1873.9183
 20
3629.9515
 11
1873.1788
 21
3629.1406
  0
LINE
  8
0-2
  6
CONTINUOUS
 62
    3
 10
1873.1788
 20
3629.1406
 11
1872.579
 21
3628.2012
  0
LINE
  8
0-2
  6
CONTINUOUS
 62
    3
 10
1872.579
 20
3628.2012
 11
1872.137
 21
3627.1618
  0
LINE
  8
0-2
  6
CONTINUOUS
 62
    3
 10
1872.137
 20
3627.1618
 11
1871.8664
 21
3626.0541
  0
LINE
  8
0-2
  6
CONTINUOUS
 62
    3
 10
1871.8664
 20
3626.0541
 11
1871.7752
 21
3624.9117
  0
LINE
  8
0-2
  6
CONTINUOUS
 62
    3
 10
1871.7752
 20
3120.7926
 11
1871.8664
 21
3119.6501
  0
LINE
  8
0-2
  6
CONTINUOUS
 62
    3
 10
1871.8664
 20
3119.6501
 11
1872.137
 21
3118.5424
  0
LINE
  8
0-2
  6
CONTINUOUS
 62
    3
 10
1872.137
 20
3118.5424
 11
1872.579
 21
3117.5031
  0
LINE
  8
0-2
  6
CONTINUOUS
 62
    3
 10
1872.579
 20
3117.5031
 11
1873.1788
 21
3116.5637
  0
LINE
  8
0-2
  6
CONTINUOUS
 62
    3
 10
1873.1788
 20
3116.5637
 11
1873.9183
 21
3115.7528
  0
LINE
  8
0-2
  6
CONTINUOUS
 62
    3
 10
1873.9183
 20
3115.7528
 11
1874.7749
 21
3115.095
  0
LINE
  8
0-2
  6
CONTINUOUS
 62
    3
 10
1874.7749
 20
3115.095
 11
1875.7227
 21
3114.6104
  0
LINE
  8
0-2
  6
CONTINUOUS
 62
    3
 10
1875.7227
 20
3114.6104
 11
1876.7328
 21
3114.3136
  0
LINE
  8
0-2
  6
CONTINUOUS
 62
    3
 10
1876.7328
 20
3114.3136
 11
1877.7746
 21
3114.2136
  0
LINE
  8
0-2
  6
CONTINUOUS
 62
    3
 10
1877.7746
 20
3114.2136
 11
1878.8163
 21
3114.3136
  0
LINE
  8
0-2
  6
CONTINUOUS
 62
    3
 10
1878.8163
 20
3114.3136
 11
1879.8265
 21
3114.6104
  0
LINE
  8
0-2
  6
CONTINUOUS
 62
    3
 10
1879.8265
 20
3114.6104
 11
1880.7742
 21
3115.095
  0
LINE
  8
0-2
  6
CONTINUOUS
 62
    3
 10
1880.7742
 20
3115.095
 11
1881.6309
 21
3115.7528
  0
LINE
  8
0-2
  6
CONTINUOUS
 62
    3
 10
1881.6309
 20
3115.7528
 11
1882.3703
 21
3116.5637
  0
LINE
  8
0-2
  6
CONTINUOUS
 62
    3
 10
1882.3703
 20
3116.5637
 11
1882.9701
 21
3117.5031
  0
LINE
  8
0-2
  6
CONTINUOUS
 62
    3
 10
1882.9701
 20
3117.5031
 11
1883.4121
 21
3118.5424
  0
LINE
  8
0-2
  6
CONTINUOUS
 62
    3
 10
1883.4121
 20
3118.5424
 11
1883.6828
 21
3119.6501
  0
LINE
  8
0-2
  6
CONTINUOUS
 62
    3
 10
1883.6828
 20
3119.6501
 11
1883.7739
 21
3120.7926
  0
LINE
  8
0-2
  6
CONTINUOUS
 62
    3
 10
1883.7739
 20
3120.7926
 11
1883.6828
 21
3121.935
  0
LINE
  8
0-2
  6
CONTINUOUS
 62
    3
 10
1883.6828
 20
3121.935
 11
1883.4121
 21
3123.0427
  0
LINE
  8
0-2
  6
CONTINUOUS
 62
    3
 10
1883.4121
 20
3123.0427
 11
1882.9701
 21
3124.082
  0
LINE
  8
0-2
  6
CONTINUOUS
 62
    3
 10
1882.9701
 20
3124.082
 11
1882.3703
 21
3125.0214
  0
LINE
  8
0-2
  6
CONTINUOUS
 62
    3
 10
1882.3703
 20
3125.0214
 11
1881.6309
 21
3125.8323
  0
LINE
  8
0-2
  6
CONTINUOUS
 62
    3
 10
1881.6309
 20
3125.8323
 11
1880.7742
 21
3126.4901
  0
LINE
  8
0-2
  6
CONTINUOUS
 62
    3
 10
1880.7742
 20
3126.4901
 11
1879.8265
 21
3126.9747
  0
LINE
  8
0-2
  6
CONTINUOUS
 62
    3
 10
1879.8265
 20
3126.9747
 11
1878.8163
 21
3127.2716
  0
LINE
  8
0-2
  6
CONTINUOUS
 62
    3
 10
1878.8163
 20
3127.2716
 11
1877.7746
 21
3127.3715
  0
LINE
  8
0-2
  6
CONTINUOUS
 62
    3
 10
1877.7746
 20
3127.3715
 11
1876.7328
 21
3127.2716
  0
LINE
  8
0-2
  6
CONTINUOUS
 62
    3
 10
1876.7328
 20
3127.2716
 11
1875.7227
 21
3126.9747
  0
LINE
  8
0-2
  6
CONTINUOUS
 62
    3
 10
1875.7227
 20
3126.9747
 11
1874.7749
 21
3126.4901
  0
LINE
  8
0-2
  6
CONTINUOUS
 62
    3
 10
1874.7749
 20
3126.4901
 11
1873.9183
 21
3125.8323
  0
LINE
  8
0-2
  6
CONTINUOUS
 62
    3
 10
1873.9183
 20
3125.8323
 11
1873.1788
 21
3125.0214
  0
LINE
  8
0-2
  6
CONTINUOUS
 62
    3
 10
1873.1788
 20
3125.0214
 11
1872.579
 21
3124.082
  0
LINE
  8
0-2
  6
CONTINUOUS
 62
    3
 10
1872.579
 20
3124.082
 11
1872.137
 21
3123.0427
  0
LINE
  8
0-2
  6
CONTINUOUS
 62
    3
 10
1872.137
 20
3123.0427
 11
1871.8664
 21
3121.935
  0
LINE
  8
0-2
  6
CONTINUOUS
 62
    3
 10
1871.8664
 20
3121.935
 11
1871.7752
 21
3120.7926
  0
LINE
  8
0-2
  6
CONTINUOUS
 62
    3
 10
1871.7752
 20
3060.7089
 11
1871.8664
 21
3059.5664
  0
LINE
  8
0-2
  6
CONTINUOUS
 62
    3
 10
1871.8664
 20
3059.5664
 11
1872.137
 21
3058.4587
  0
LINE
  8
0-2
  6
CONTINUOUS
 62
    3
 10
1872.137
 20
3058.4587
 11
1872.579
 21
3057.4194
  0
LINE
  8
0-2
  6
CONTINUOUS
 62
    3
 10
1872.579
 20
3057.4194
 11
1873.1788
 21
3056.48
  0
LINE
  8
0-2
  6
CONTINUOUS
 62
    3
 10
1873.1788
 20
3056.48
 11
1873.9183
 21
3055.6691
  0
LINE
  8
0-2
  6
CONTINUOUS
 62
    3
 10
1873.9183
 20
3055.6691
 11
1874.7749
 21
3055.0113
  0
LINE
  8
0-2
  6
CONTINUOUS
 62
    3
 10
1874.7749
 20
3055.0113
 11
1875.7227
 21
3054.5267
  0
LINE
  8
0-2
  6
CONTINUOUS
 62
    3
 10
1875.7227
 20
3054.5267
 11
1876.7328
 21
3054.2299
  0
LINE
  8
0-2
  6
CONTINUOUS
 62
    3
 10
1876.7328
 20
3054.2299
 11
1877.7746
 21
3054.1299
  0
LINE
  8
0-2
  6
CONTINUOUS
 62
    3
 10
1877.7746
 20
3054.1299
 11
1878.8163
 21
3054.2299
  0
LINE
  8
0-2
  6
CONTINUOUS
 62
    3
 10
1878.8163
 20
3054.2299
 11
1879.8265
 21
3054.5267
  0
LINE
  8
0-2
  6
CONTINUOUS
 62
    3
 10
1879.8265
 20
3054.5267
 11
1880.7742
 21
3055.0113
  0
LINE
  8
0-2
  6
CONTINUOUS
 62
    3
 10
1880.7742
 20
3055.0113
 11
1881.6309
 21
3055.6691
  0
LINE
  8
0-2
  6
CONTINUOUS
 62
    3
 10
1881.6309
 20
3055.6691
 11
1882.3703
 21
3056.48
  0
LINE
  8
0-2
  6
CONTINUOUS
 62
    3
 10
1882.3703
 20
3056.48
 11
1882.9701
 21
3057.4194
  0
LINE
  8
0-2
  6
CONTINUOUS
 62
    3
 10
1882.9701
 20
3057.4194
 11
1883.4121
 21
3058.4587
  0
LINE
  8
0-2
  6
CONTINUOUS
 62
    3
 10
1883.4121
 20
3058.4587
 11
1883.6828
 21
3059.5664
  0
LINE
  8
0-2
  6
CONTINUOUS
 62
    3
 10
1883.6828
 20
3059.5664
 11
1883.7739
 21
3060.7089
  0
LINE
  8
0-2
  6
CONTINUOUS
 62
    3
 10
1883.7739
 20
3060.7089
 11
1883.6828
 21
3061.8513
  0
LINE
  8
0-2
  6
CONTINUOUS
 62
    3
 10
1883.6828
 20
3061.8513
 11
1883.4121
 21
3062.959
  0
LINE
  8
0-2
  6
CONTINUOUS
 62
    3
 10
1883.4121
 20
3062.959
 11
1882.9701
 21
3063.9983
  0
LINE
  8
0-2
  6
CONTINUOUS
 62
    3
 10
1882.9701
 20
3063.9983
 11
1882.3703
 21
3064.9377
  0
LINE
  8
0-2
  6
CONTINUOUS
 62
    3
 10
1882.3703
 20
3064.9377
 11
1881.6309
 21
3065.7486
  0
LINE
  8
0-2
  6
CONTINUOUS
 62
    3
 10
1881.6309
 20
3065.7486
 11
1880.7742
 21
3066.4064
  0
LINE
  8
0-2
  6
CONTINUOUS
 62
    3
 10
1880.7742
 20
3066.4064
 11
1879.8265
 21
3066.891
  0
LINE
  8
0-2
  6
CONTINUOUS
 62
    3
 10
1879.8265
 20
3066.891
 11
1878.8163
 21
3067.1878
  0
LINE
  8
0-2
  6
CONTINUOUS
 62
    3
 10
1878.8163
 20
3067.1878
 11
1877.7746
 21
3067.2878
  0
LINE
  8
0-2
  6
CONTINUOUS
 62
    3
 10
1877.7746
 20
3067.2878
 11
1876.7328
 21
3067.1878
  0
LINE
  8
0-2
  6
CONTINUOUS
 62
    3
 10
1876.7328
 20
3067.1878
 11
1875.7227
 21
3066.891
  0
LINE
  8
0-2
  6
CONTINUOUS
 62
    3
 10
1875.7227
 20
3066.891
 11
1874.7749
 21
3066.4064
  0
LINE
  8
0-2
  6
CONTINUOUS
 62
    3
 10
1874.7749
 20
3066.4064
 11
1873.9183
 21
3065.7486
  0
LINE
  8
0-2
  6
CONTINUOUS
 62
    3
 10
1873.9183
 20
3065.7486
 11
1873.1788
 21
3064.9377
  0
LINE
  8
0-2
  6
CONTINUOUS
 62
    3
 10
1873.1788
 20
3064.9377
 11
1872.579
 21
3063.9983
  0
LINE
  8
0-2
  6
CONTINUOUS
 62
    3
 10
1872.579
 20
3063.9983
 11
1872.137
 21
3062.959
  0
LINE
  8
0-2
  6
CONTINUOUS
 62
    3
 10
1872.137
 20
3062.959
 11
1871.8664
 21
3061.8513
  0
LINE
  8
0-2
  6
CONTINUOUS
 62
    3
 10
1871.8664
 20
3061.8513
 11
1871.7752
 21
3060.7089
  0
LINE
  8
0-2
  6
CONTINUOUS
 62
    3
 10
1615.9737
 20
2908.1611
 11
1615.4498
 21
2910.0738
  0
LINE
  8
0-2
  6
CONTINUOUS
 62
    3
 10
1615.4498
 20
2910.0738
 11
1614.6311
 21
2911.8577
  0
LINE
  8
0-2
  6
CONTINUOUS
 62
    3
 10
1614.6311
 20
2911.8577
 11
1613.5423
 21
2913.4587
  0
LINE
  8
0-2
  6
CONTINUOUS
 62
    3
 10
1613.5423
 20
2913.4587
 11
1612.2165
 21
2914.8279
  0
LINE
  8
0-2
  6
CONTINUOUS
 62
    3
 10
1612.2165
 20
2914.8279
 11
1610.6941
 21
2915.9239
  0
LINE
  8
0-2
  6
CONTINUOUS
 62
    3
 10
1610.6941
 20
2915.9239
 11
1609.0212
 21
2916.7134
  0
LINE
  8
0-2
  6
CONTINUOUS
 62
    3
 10
1609.0212
 20
2916.7134
 11
1607.2487
 21
2917.1723
  0
LINE
  8
0-2
  6
CONTINUOUS
 62
    3
 10
1607.2487
 20
2917.1723
 11
1605.4305
 21
2917.2867
  0
LINE
  8
0-2
  6
CONTINUOUS
 62
    3
 10
1605.4305
 20
2917.2867
 11
1603.6218
 21
2917.0531
  0
LINE
  8
0-2
  6
CONTINUOUS
 62
    3
 10
1603.6218
 20
2917.0531
 11
1601.8776
 21
2916.4786
  0
LINE
  8
0-2
  6
CONTINUOUS
 62
    3
 10
1601.8776
 20
2916.4786
 11
1600.2508
 21
2915.5808
  0
LINE
  8
0-2
  6
CONTINUOUS
 62
    3
 10
1600.2508
 20
2915.5808
 11
1598.7909
 21
2914.3868
  0
LINE
  8
0-2
  6
CONTINUOUS
 62
    3
 10
1598.7909
 20
2914.3868
 11
1597.5423
 21
2912.9329
  0
LINE
  8
0-2
  6
CONTINUOUS
 62
    3
 10
1597.5423
 20
2912.9329
 11
1596.5429
 21
2911.2634
  0
LINE
  8
0-2
  6
CONTINUOUS
 62
    3
 10
1596.5429
 20
2911.2634
 11
1595.823
 21
2909.4289
  0
LINE
  8
0-2
  6
CONTINUOUS
 62
    3
 10
1595.823
 20
2909.4289
 11
1595.5132
 21
2908.1611
  0
LINE
  8
0-2
  6
CONTINUOUS
 62
    3
 10
1795.0654
 20
2888.8524
 11
1795.1566
 21
2887.71
  0
LINE
  8
0-2
  6
CONTINUOUS
 62
    3
 10
1795.1566
 20
2887.71
 11
1795.4272
 21
2886.6023
  0
LINE
  8
0-2
  6
CONTINUOUS
 62
    3
 10
1795.4272
 20
2886.6023
 11
1795.8692
 21
2885.563
  0
LINE
  8
0-2
  6
CONTINUOUS
 62
    3
 10
1795.8692
 20
2885.563
 11
1796.469
 21
2884.6236
  0
LINE
  8
0-2
  6
CONTINUOUS
 62
    3
 10
1796.469
 20
2884.6236
 11
1797.2085
 21
2883.8127
  0
LINE
  8
0-2
  6
CONTINUOUS
 62
    3
 10
1797.2085
 20
2883.8127
 11
1798.0651
 21
2883.1549
  0
LINE
  8
0-2
  6
CONTINUOUS
 62
    3
 10
1798.0651
 20
2883.1549
 11
1799.0129
 21
2882.6703
  0
LINE
  8
0-2
  6
CONTINUOUS
 62
    3
 10
1799.0129
 20
2882.6703
 11
1800.023
 21
2882.3734
  0
LINE
  8
0-2
  6
CONTINUOUS
 62
    3
 10
1800.023
 20
2882.3734
 11
1801.0648
 21
2882.2735
  0
LINE
  8
0-2
  6
CONTINUOUS
 62
    3
 10
1801.0648
 20
2882.2735
 11
1802.1065
 21
2882.3734
  0
LINE
  8
0-2
  6
CONTINUOUS
 62
    3
 10
1802.1065
 20
2882.3734
 11
1803.1167
 21
2882.6703
  0
LINE
  8
0-2
  6
CONTINUOUS
 62
    3
 10
1803.1167
 20
2882.6703
 11
1804.0644
 21
2883.1549
  0
LINE
  8
0-2
  6
CONTINUOUS
 62
    3
 10
1804.0644
 20
2883.1549
 11
1804.9211
 21
2883.8127
  0
LINE
  8
0-2
  6
CONTINUOUS
 62
    3
 10
1804.9211
 20
2883.8127
 11
1805.6605
 21
2884.6236
  0
LINE
  8
0-2
  6
CONTINUOUS
 62
    3
 10
1805.6605
 20
2884.6236
 11
1806.2603
 21
2885.563
  0
LINE
  8
0-2
  6
CONTINUOUS
 62
    3
 10
1806.2603
 20
2885.563
 11
1806.7023
 21
2886.6023
  0
LINE
  8
0-2
  6
CONTINUOUS
 62
    3
 10
1806.7023
 20
2886.6023
 11
1806.9729
 21
2887.71
  0
LINE
  8
0-2
  6
CONTINUOUS
 62
    3
 10
1806.9729
 20
2887.71
 11
1807.0641
 21
2888.8524
  0
LINE
  8
0-2
  6
CONTINUOUS
 62
    3
 10
1807.0641
 20
2888.8524
 11
1806.9729
 21
2889.9949
  0
LINE
  8
0-2
  6
CONTINUOUS
 62
    3
 10
1806.9729
 20
2889.9949
 11
1806.7023
 21
2891.1026
  0
LINE
  8
0-2
  6
CONTINUOUS
 62
    3
 10
1806.7023
 20
2891.1026
 11
1806.2603
 21
2892.1419
  0
LINE
  8
0-2
  6
CONTINUOUS
 62
    3
 10
1806.2603
 20
2892.1419
 11
1805.6605
 21
2893.0813
  0
LINE
  8
0-2
  6
CONTINUOUS
 62
    3
 10
1805.6605
 20
2893.0813
 11
1804.9211
 21
2893.8922
  0
LINE
  8
0-2
  6
CONTINUOUS
 62
    3
 10
1804.9211
 20
2893.8922
 11
1804.0644
 21
2894.55
  0
LINE
  8
0-2
  6
CONTINUOUS
 62
    3
 10
1804.0644
 20
2894.55
 11
1803.1167
 21
2895.0346
  0
LINE
  8
0-2
  6
CONTINUOUS
 62
    3
 10
1803.1167
 20
2895.0346
 11
1802.1065
 21
2895.3314
  0
LINE
  8
0-2
  6
CONTINUOUS
 62
    3
 10
1802.1065
 20
2895.3314
 11
1801.0648
 21
2895.4314
  0
LINE
  8
0-2
  6
CONTINUOUS
 62
    3
 10
1801.0648
 20
2895.4314
 11
1800.023
 21
2895.3314
  0
LINE
  8
0-2
  6
CONTINUOUS
 62
    3
 10
1800.023
 20
2895.3314
 11
1799.0129
 21
2895.0346
  0
LINE
  8
0-2
  6
CONTINUOUS
 62
    3
 10
1799.0129
 20
2895.0346
 11
1798.0651
 21
2894.55
  0
LINE
  8
0-2
  6
CONTINUOUS
 62
    3
 10
1798.0651
 20
2894.55
 11
1797.2085
 21
2893.8922
  0
LINE
  8
0-2
  6
CONTINUOUS
 62
    3
 10
1797.2085
 20
2893.8922
 11
1796.469
 21
2893.0813
  0
LINE
  8
0-2
  6
CONTINUOUS
 62
    3
 10
1796.469
 20
2893.0813
 11
1795.8692
 21
2892.1419
  0
LINE
  8
0-2
  6
CONTINUOUS
 62
    3
 10
1795.8692
 20
2892.1419
 11
1795.4272
 21
2891.1026
  0
LINE
  8
0-2
  6
CONTINUOUS
 62
    3
 10
1795.4272
 20
2891.1026
 11
1795.1566
 21
2889.9949
  0
LINE
  8
0-2
  6
CONTINUOUS
 62
    3
 10
1795.1566
 20
2889.9949
 11
1795.0654
 21
2888.8524
  0
LINE
  8
0-2
  6
CONTINUOUS
 62
    3
 10
1795.0654
 20
2750.0636
 11
1795.1566
 21
2748.9211
  0
LINE
  8
0-2
  6
CONTINUOUS
 62
    3
 10
1795.1566
 20
2748.9211
 11
1795.4272
 21
2747.8134
  0
LINE
  8
0-2
  6
CONTINUOUS
 62
    3
 10
1795.4272
 20
2747.8134
 11
1795.8692
 21
2746.7741
  0
LINE
  8
0-2
  6
CONTINUOUS
 62
    3
 10
1795.8692
 20
2746.7741
 11
1796.469
 21
2745.8347
  0
LINE
  8
0-2
  6
CONTINUOUS
 62
    3
 10
1796.469
 20
2745.8347
 11
1797.2085
 21
2745.0238
  0
LINE
  8
0-2
  6
CONTINUOUS
 62
    3
 10
1797.2085
 20
2745.0238
 11
1798.0651
 21
2744.366
  0
LINE
  8
0-2
  6
CONTINUOUS
 62
    3
 10
1798.0651
 20
2744.366
 11
1799.0129
 21
2743.8814
  0
LINE
  8
0-2
  6
CONTINUOUS
 62
    3
 10
1799.0129
 20
2743.8814
 11
1800.023
 21
2743.5846
  0
LINE
  8
0-2
  6
CONTINUOUS
 62
    3
 10
1800.023
 20
2743.5846
 11
1801.0648
 21
2743.4846
  0
LINE
  8
0-2
  6
CONTINUOUS
 62
    3
 10
1801.0648
 20
2743.4846
 11
1802.1065
 21
2743.5846
  0
LINE
  8
0-2
  6
CONTINUOUS
 62
    3
 10
1802.1065
 20
2743.5846
 11
1803.1167
 21
2743.8814
  0
LINE
  8
0-2
  6
CONTINUOUS
 62
    3
 10
1803.1167
 20
2743.8814
 11
1804.0644
 21
2744.366
  0
LINE
  8
0-2
  6
CONTINUOUS
 62
    3
 10
1804.0644
 20
2744.366
 11
1804.9211
 21
2745.0238
  0
LINE
  8
0-2
  6
CONTINUOUS
 62
    3
 10
1804.9211
 20
2745.0238
 11
1805.6605
 21
2745.8347
  0
LINE
  8
0-2
  6
CONTINUOUS
 62
    3
 10
1805.6605
 20
2745.8347
 11
1806.2603
 21
2746.7741
  0
LINE
  8
0-2
  6
CONTINUOUS
 62
    3
 10
1806.2603
 20
2746.7741
 11
1806.7023
 21
2747.8134
  0
LINE
  8
0-2
  6
CONTINUOUS
 62
    3
 10
1806.7023
 20
2747.8134
 11
1806.9729
 21
2748.9211
  0
LINE
  8
0-2
  6
CONTINUOUS
 62
    3
 10
1806.9729
 20
2748.9211
 11
1807.0641
 21
2750.0636
  0
LINE
  8
0-2
  6
CONTINUOUS
 62
    3
 10
1807.0641
 20
2750.0636
 11
1806.9729
 21
2751.206
  0
LINE
  8
0-2
  6
CONTINUOUS
 62
    3
 10
1806.9729
 20
2751.206
 11
1806.7023
 21
2752.3137
  0
LINE
  8
0-2
  6
CONTINUOUS
 62
    3
 10
1806.7023
 20
2752.3137
 11
1806.2603
 21
2753.353
  0
LINE
  8
0-2
  6
CONTINUOUS
 62
    3
 10
1806.2603
 20
2753.353
 11
1805.6605
 21
2754.2924
  0
LINE
  8
0-2
  6
CONTINUOUS
 62
    3
 10
1805.6605
 20
2754.2924
 11
1804.9211
 21
2755.1033
  0
LINE
  8
0-2
  6
CONTINUOUS
 62
    3
 10
1804.9211
 20
2755.1033
 11
1804.0644
 21
2755.7611
  0
LINE
  8
0-2
  6
CONTINUOUS
 62
    3
 10
1804.0644
 20
2755.7611
 11
1803.1167
 21
2756.2457
  0
LINE
  8
0-2
  6
CONTINUOUS
 62
    3
 10
1803.1167
 20
2756.2457
 11
1802.1065
 21
2756.5426
  0
LINE
  8
0-2
  6
CONTINUOUS
 62
    3
 10
1802.1065
 20
2756.5426
 11
1801.0648
 21
2756.6425
  0
LINE
  8
0-2
  6
CONTINUOUS
 62
    3
 10
1801.0648
 20
2756.6425
 11
1800.023
 21
2756.5426
  0
LINE
  8
0-2
  6
CONTINUOUS
 62
    3
 10
1800.023
 20
2756.5426
 11
1799.0129
 21
2756.2457
  0
LINE
  8
0-2
  6
CONTINUOUS
 62
    3
 10
1799.0129
 20
2756.2457
 11
1798.0651
 21
2755.7611
  0
LINE
  8
0-2
  6
CONTINUOUS
 62
    3
 10
1798.0651
 20
2755.7611
 11
1797.2085
 21
2755.1033
  0
LINE
  8
0-2
  6
CONTINUOUS
 62
    3
 10
1797.2085
 20
2755.1033
 11
1796.469
 21
2754.2924
  0
LINE
  8
0-2
  6
CONTINUOUS
 62
    3
 10
1796.469
 20
2754.2924
 11
1795.8692
 21
2753.353
  0
LINE
  8
0-2
  6
CONTINUOUS
 62
    3
 10
1795.8692
 20
2753.353
 11
1795.4272
 21
2752.3137
  0
LINE
  8
0-2
  6
CONTINUOUS
 62
    3
 10
1795.4272
 20
2752.3137
 11
1795.1566
 21
2751.206
  0
LINE
  8
0-2
  6
CONTINUOUS
 62
    3
 10
1795.1566
 20
2751.206
 11
1795.0654
 21
2750.0636
  0
TEXT
  8
0-d
 10
382.49967
 20
236.24984
 40
37.5
 41
1
 50
0
  1
図
  0
TEXT
  8
0-d
 10
382.49967
 20
146.24993
 40
37.5
 41
1
 50
0
  1
番
  0
TEXT
  8
0-d
 10
982.50061
 20
236.24984
 40
37.5
 41
1
 50
0
  1
承
  0
TEXT
  8
0-d
 10
982.50061
 20
146.24993
 40
37.5
 41
1
 50
0
  1
認
  0
TEXT
  8
0-d
 10
1530.0003
 20
356.24988
 40
37.5
 41
1
 50
0
  1
尺
  0
TEXT
  8
0-d
 10
1530.0003
 20
296.24964
 40
37.5
 41
1
 50
0.0000762
  1
度
  0
TEXT
  8
0-d
 10
1282.5001
 20
236.24984
 40
37.5
 41
1
 50
0
  1
製
  0
TEXT
  8
0-d
 10
1282.5001
 20
146.24993
 40
37.5
 41
1
 50
0
  1
図
  0
TEXT
  8
0-d
 10
2332.5
 20
356.24988
 40
37.5
 41
1
 50
0
  1
日
  0
TEXT
  8
0-d
 10
2332.5
 20
296.24964
 40
37.5
 41
1
 50
0.0000762
  1
付
  0
TEXT
  8
0-d
 10
1667.1394
 20
245.22337
 40
30
 41
1
 50
0
  1
株式
  0
TEXT
  8
0-d
 10
1667.1394
 20
212.77768
 40
30
 41
1
 50
0.0000152
  1
会社
  0
TEXT
  8
0-d
 10
1761.3369
 20
214.87067
 40
60
 41
1
 50
0
  1
スズキベンチレーター
  0
TEXT
  8
0-d
 10
1856.8772
 20
141.03626
 40
30
 41
1
 50
0
  1
TEL(054)296-7000  FAX(054)296-7001
  0
TEXT
  8
0-d
 10
1073.6247
 20
1873.9258
 40
45
 41
1
 50
0
  1
3
  0
TEXT
  8
0-d
 10
979.01876
 20
1806.9233
 40
45
 41
1
 50
0
  1
10
  0
TEXT
  8
0-8
 10
1514.6688
 20
2464.1906
 40
45
 41
1
 50
0
  1
605φ
  0
TEXT
  8
0-8
 10
1532.4715
 20
1855.4638
 40
45
 41
1
 50
0
  1
750
  0
TEXT
  8
0-8
 10
1497.5411
 20
1129.4584
 40
45
 41
1
 50
19.303787
  1
605φ
  0
TEXT
  8
0-8
 10
2560.0003
 20
1077.5686
 40
45
 41
1
 50
90
  1
750
  0
TEXT
  8
0-8
 10
512.56675
 20
2125.393
 40
45
 41
1
 50
90
  1
320
  0
TEXT
  8
0-8
 10
512.56675
 20
2345.7031
 40
45
 41
1
 50
90
  1
90
  0
TEXT
  8
0-d
 10
1626.5234
 20
315.15095
 40
60
 41
1
 50
0
  1
１／１５
  0
TEXT
  8
0-8
 10
521.06241
 20
1047.5681
 40
45
 41
1
 50
90
  1
≒ 1,220
  0
TEXT
  8
0-8
 10
1454.7516
 20
4058.2244
 40
45
 41
1
 50
0
  1
1,020φ
  0
TEXT
  8
0-8
 10
1514.6688
 20
2580.5998
 40
45
 41
1
 50
0
  1
615φ
  0
TEXT
  8
0-8
 10
820.42778
 20
3232.031
 40
45
 41
1
 50
90
  1
1,250
  0
TEXT
  8
0-d
 10
462.68887
 20
210.4532
 40
45
 41
1
 50
0
  1
60-D10
  0
TEXT
  8
0-d
 10
382.50004
 20
4189.0519
 40
75
 41
1
 50
0
  1
ＡＳ－６００　自然回転  直付型立面、直付袴立面・平面
  0
TEXT
  8
0-d
 10
1018.462
 20
297.93624
 40
45
 41
1
 50
0
  1
直付袴立面・平面
  0
TEXT
  8
0-2
 10
387.06275
 20
356.25828
 40
45
 41
1
 50
0
  1
ＡＳ－６００　自然回転  直付型立面、
  0
TEXT
  8
0-d
 10
1853.5187
 20
177.96888
 40
30
 41
1
 50
0
  1
〒421-2114　静岡市葵区安倍口新田１５２番地
  0
POINT
  8
0-8
 62
    2
 10
555.53146
 20
2010.7251
  0
POINT
  8
0-8
 62
    2
 10
555.53146
 20
2330.7251
  0
POINT
  8
0-8
 62
    2
 10
555.53146
 20
2420.725
  0
POINT
  8
0-8
 62
    2
 10
555.53146
 20
510.06833
  0
POINT
  8
0-8
 62
    2
 10
555.53146
 20
1730.0686
  0
POINT
  8
0-8
 62
    2
 10
2594.4691
 20
745.06885
  0
POINT
  8
0-8
 62
    2
 10
2594.4691
 20
1495.0682
  0
POINT
  8
0-8
 62
    2
 10
1200
 20
1820.9949
  0
POINT
  8
0-8
 62
    2
 10
1950
 20
1820.9949
  0
POINT
  8
0-8
 62
    2
 10
1289.5081
 20
1020.0689
  0
POINT
  8
0-8
 62
    2
 10
1860.4949
 20
1220.0676
  0
POINT
  8
0-8
 62
    2
 10
1272.5001
 20
2519.5673
  0
POINT
  8
0-8
 62
    2
 10
1877.4999
 20
2519.5673
  0
POINT
  8
0-8
 62
    2
 10
1065.0001
 20
4042.3387
  0
POINT
  8
0-8
 62
    2
 10
2085.0016
 20
4042.3387
  0
POINT
  8
0-8
 62
    2
 10
835.00025
 20
3917.8102
  0
POINT
  8
0-8
 62
    2
 10
835.00025
 20
2667.8116
  0
POINT
  8
0-8
 62
    2
 10
835.00025
 20
2667.812
  0
POINT
  8
0-8
 62
    2
 10
835.00025
 20
2667.8105
  0
POINT
  8
0-8
 62
    2
 10
835.00025
 20
2667.8116
  0
POINT
  8
0-8
 62
    2
 10
835.00025
 20
2667.8105
  0
POINT
  8
0-8
 62
    2
 10
835.00025
 20
2667.8116
  0
POINT
  8
0-8
 62
    2
 10
1882.4998
 20
2563.5194
  0
POINT
  8
0-8
 62
    2
 10
1267.5
 20
2563.5196
  0
ENDSEC
  0
EOF
