  0
SECTION
  2
HEADER
  9
$EXTMIN
 10
0
 20
0
  9
$EXTMAX
 10
4200
 20
2970
  0
ENDSEC
  0
SECTION
  2
TABLES
  0
TABLE
  2
LTYPE
 70
     9
  0
LTYPE
  2
CONTINUOUS
 70
    64
  3
実線
 72
    65
 73
     0
 40
0.0
  0
LTYPE
  2
DASHED1
 70
    64
  3
--  --  --  --  --  --  --  --  
 72
    65
 73
     2
 40
2.5
 49
1.25
 49
-1.25
  0
LTYPE
  2
DASHED2
 70
    64
  3
----    ----    ----    ----    
 72
    65
 73
     2
 40
5.0
 49
2.5
 49
-2.5
  0
LTYPE
  2
DASHED3
 70
    64
  3
------  ------  ------  ------  
 72
    65
 73
     2
 40
5.0
 49
3.75
 49
-1.25
  0
LTYPE
  2
CENTER1
 70
    64
  3
----- - ----- - ----- - ----- - 
 72
    65
 73
     4
 40
10.0
 49
6.25
 49
-1.25
 49
1.25
 49
-1.25
  0
LTYPE
  2
CENTER2
 70
    64
  3
----------  --  ----------  --  
 72
    65
 73
     4
 40
20.0
 49
12.5
 49
-2.5
 49
2.5
 49
-2.5
  0
LTYPE
  2
PHANTOM1
 70
    64
  3
--- - - --- - - --- - - --- - - 
 72
    65
 73
     6
 40
10.0
 49
3.25
 49
-1.25
 49
1.25
 49
-1.25
 49
1.25
 49
-1.25
  0
LTYPE
  2
PHANTOM2
 70
    64
  3
--------  -  -  --------  -  -  
 72
    65
 73
     6
 40
20.0
 49
10.0
 49
-2.5
 49
1.25
 49
-2.5
 49
1.25
 49
-2.5
  0
LTYPE
  2
DOT
 70
    64
  3
-   -   -   -   -   -   -   -   
 72
    65
 73
     2
 40
2.5
 49
0.625
 49
-1.875
  0
ENDTAB
  0
TABLE
  2
STYLE
 70
    1
  0
STYLE
  2
STANDARD
 70
    64
 40
0.0
 41
1.0
 42
0.0
 50
0.0
 71
     0
  3
TXT
  4
BIGFONT
  0
ENDTAB
  0
TABLE
  2
LAYER
 70
    8
  0
LAYER
  2
0-0
 70
   64
 62
    7
  6
CONTINUOUS
  0
LAYER
  2
0-1
 70
   64
 62
    7
  6
CONTINUOUS
  0
LAYER
  2
0-2
 70
   64
 62
    7
  6
CONTINUOUS
  0
LAYER
  2
0-3
 70
   64
 62
    7
  6
CONTINUOUS
  0
LAYER
  2
0-4
 70
   64
 62
    7
  6
CONTINUOUS
  0
LAYER
  2
0-8
 70
   64
 62
    7
  6
CONTINUOUS
  0
LAYER
  2
0-d
 70
   64
 62
    7
  6
CONTINUOUS
  0
LAYER
  2
ADD_LINE
 70
   64
 62
    7
  6
CONTINUOUS
  0
ENDTAB
  0
ENDSEC
  0
SECTION
  2
ENTITIES
  0
LINE
  8
0-d
  6
CONTINUOUS
 62
    7
 10
250.00004
 20
2757.7013
 11
1850.0001
 21
2757.7013
  0
LINE
  8
0-d
  6
CONTINUOUS
 62
    7
 10
250.00004
 20
2767.7016
 11
1850.0001
 21
2767.7016
  0
LINE
  8
0-d
  6
CONTINUOUS
 62
    7
 10
249.99967
 20
189.99989
 11
1850.0003
 21
189.99989
  0
LINE
  8
0-d
  6
CONTINUOUS
 62
    7
 10
249.99967
 20
89.999806
 11
249.99967
 21
269.99991
  0
LINE
  8
0-d
  6
CONTINUOUS
 62
    7
 10
249.99967
 20
89.999806
 11
1850.0003
 21
89.999806
  0
LINE
  8
0-d
  6
CONTINUOUS
 62
    7
 10
1850.0003
 20
269.99991
 11
1850.0003
 21
89.999806
  0
LINE
  8
0-d
  6
CONTINUOUS
 62
    7
 10
249.99967
 20
269.99991
 11
1850.0003
 21
269.99991
  0
LINE
  8
0-d
  6
CONTINUOUS
 62
    7
 10
1050
 20
269.99991
 11
1050
 21
89.999806
  0
LINE
  8
0-d
  6
CONTINUOUS
 62
    7
 10
650.00019
 20
89.999806
 11
650.00019
 21
189.99989
  0
LINE
  8
0-d
  6
CONTINUOUS
 62
    7
 10
1050
 20
189.99989
 11
1050
 21
269.99991
  0
LINE
  8
0-d
  6
CONTINUOUS
 62
    7
 10
849.99975
 20
89.999806
 11
849.99975
 21
189.99989
  0
LINE
  8
0-d
  6
CONTINUOUS
 62
    7
 10
285.00002
 20
89.999806
 11
285.00002
 21
189.99989
  0
LINE
  8
0-d
  6
CONTINUOUS
 62
    7
 10
685.00006
 20
89.999806
 11
685.00006
 21
189.99989
  0
LINE
  8
0-d
  6
CONTINUOUS
 62
    7
 10
885.00011
 20
89.999806
 11
885.00011
 21
189.99989
  0
LINE
  8
0-d
  6
CONTINUOUS
 62
    7
 10
1015
 20
189.99989
 11
1015
 21
269.99991
  0
LINE
  8
0-d
  6
CONTINUOUS
 62
    7
 10
1550.0004
 20
189.99989
 11
1550.0004
 21
269.99991
  0
LINE
  8
0-d
  6
CONTINUOUS
 62
    7
 10
1585.0002
 20
189.99989
 11
1585.0002
 21
269.99991
  0
LINE
  8
0-8
  6
CONTINUOUS
 62
    7
 10
330.53136
 20
1699.4204
 11
330.53136
 21
2269.8628
  0
LINE
  8
0-8
  6
CONTINUOUS
 62
    7
 10
570.00005
 20
2371.0568
 11
1530
 21
2371.0568
  0
LINE
  8
0-8
  6
CONTINUOUS
 62
    7
 10
742.50013
 20
1553.1892
 11
1357.4999
 21
1553.1892
  0
LINE
  8
0-8
  6
CONTINUOUS
 62
    7
 10
570.00005
 20
2215.3822
 11
570.00005
 21
2371.0568
  0
LINE
  8
0-8
  6
CONTINUOUS
 62
    7
 10
710.26565
 20
2269.8628
 11
330.53136
 21
2269.8628
  0
LINE
  8
0-8
  6
CONTINUOUS
 62
    7
 10
1530
 20
2215.3822
 11
1530
 21
2371.0568
  0
LINE
  8
0-2
  6
CONTINUOUS
 62
    3
 10
570.00005
 20
2000.3057
 11
570.00005
 21
1962.076
  0
LINE
  8
0-2
  6
CONTINUOUS
 62
    3
 10
570.00005
 20
1949.3328
 11
570.00005
 21
1919.4209
  0
LINE
  8
0-2
  6
CONTINUOUS
 62
    3
 10
742.50013
 20
1712.1636
 11
1357.4999
 21
1712.1636
  0
LINE
  8
0-2
  6
CONTINUOUS
 62
    3
 10
742.50013
 20
1750.3938
 11
742.50013
 21
1712.1636
  0
LINE
  8
0-2
  6
CONTINUOUS
 62
    3
 10
742.50013
 20
1699.4209
 11
1357.4999
 21
1699.4209
  0
LINE
  8
0-2
  6
CONTINUOUS
 62
    3
 10
1357.4999
 20
1750.3938
 11
1357.4999
 21
1712.1636
  0
LINE
  8
0-8
  6
CONTINUOUS
 62
    7
 10
742.50013
 20
1676.8021
 11
742.50013
 21
1553.1892
  0
LINE
  8
0-8
  6
CONTINUOUS
 62
    7
 10
1357.4999
 20
1676.8021
 11
1357.4999
 21
1553.1892
  0
LINE
  8
0-2
  6
CONTINUOUS
 62
    3
 10
1360.05
 20
2042.7641
 11
1360.05
 21
2031.5432
  0
LINE
  8
0-2
  6
CONTINUOUS
 62
    3
 10
1352.8802
 20
2037.0008
 11
1363.9586
 21
2037.0008
  0
LINE
  8
0-2
  6
CONTINUOUS
 62
    3
 10
1353.4078
 20
1806.7164
 11
1366.0683
 21
1806.7164
  0
LINE
  8
0-2
  6
CONTINUOUS
 62
    3
 10
570.00005
 20
2013.0491
 11
1050
 21
2013.0491
  0
LINE
  8
0-2
  6
CONTINUOUS
 62
    3
 10
570.00005
 20
2000.3057
 11
1050
 21
2000.3057
  0
LINE
  8
0-2
  6
CONTINUOUS
 62
    3
 10
570.00005
 20
1962.076
 11
1050
 21
1962.076
  0
LINE
  8
0-2
  6
CONTINUOUS
 62
    3
 10
570.00005
 20
1949.3328
 11
1050
 21
1949.3328
  0
LINE
  8
0-2
  6
CONTINUOUS
 62
    3
 10
570.00005
 20
1919.4209
 11
1050
 21
1919.4209
  0
LINE
  8
0-3
  6
CONTINUOUS
 62
    3
 10
1071.7955
 20
1983.58
 11
1077.5311
 21
1987.1058
  0
LINE
  8
0-3
  6
CONTINUOUS
 62
    3
 10
1077.5311
 20
1987.1058
 11
1083.2401
 21
1990.7016
  0
LINE
  8
0-3
  6
CONTINUOUS
 62
    3
 10
1083.2401
 20
1990.7016
 11
1088.8951
 21
1994.4312
  0
LINE
  8
0-3
  6
CONTINUOUS
 62
    3
 10
1088.8951
 20
1994.4312
 11
1094.4328
 21
1998.3685
  0
LINE
  8
0-3
  6
CONTINUOUS
 62
    3
 10
1094.4328
 20
1998.3685
 11
1099.7532
 21
2002.5923
  0
LINE
  8
0-3
  6
CONTINUOUS
 62
    3
 10
1099.7532
 20
2002.5923
 11
1104.7436
 21
2007.1724
  0
LINE
  8
0-3
  6
CONTINUOUS
 62
    3
 10
1104.7436
 20
2007.1724
 11
1109.2955
 21
2012.1902
  0
LINE
  8
0-3
  6
CONTINUOUS
 62
    3
 10
1109.2955
 20
2012.1902
 11
1113.3001
 21
2017.7148
  0
LINE
  8
0-3
  6
CONTINUOUS
 62
    3
 10
1113.3001
 20
2017.7148
 11
1116.7914
 21
2023.691
  0
LINE
  8
0-3
  6
CONTINUOUS
 62
    3
 10
1116.7914
 20
2023.691
 11
1120.0913
 21
2029.7938
  0
LINE
  8
0-3
  6
CONTINUOUS
 62
    3
 10
1120.0913
 20
2029.7938
 11
1123.5332
 21
2035.6789
  0
LINE
  8
0-3
  6
CONTINUOUS
 62
    3
 10
1123.5332
 20
2035.6789
 11
1127.4709
 21
2041.0014
  0
LINE
  8
0-3
  6
CONTINUOUS
 62
    3
 10
1127.4709
 20
2041.0014
 11
1132.2386
 21
2045.4142
  0
LINE
  8
0-3
  6
CONTINUOUS
 62
    3
 10
1132.2386
 20
2045.4142
 11
1137.9401
 21
2048.8259
  0
LINE
  8
0-3
  6
CONTINUOUS
 62
    3
 10
1137.9401
 20
2048.8259
 11
1144.2281
 21
2051.6136
  0
LINE
  8
0-3
  6
CONTINUOUS
 62
    3
 10
1144.2281
 20
2051.6136
 11
1147.2043
 21
2052.8028
  0
LINE
  8
0-3
  6
CONTINUOUS
 62
    3
 10
1144.2281
 20
2051.6136
 11
1148.3682
 21
2052.2718
  0
LINE
  8
0-3
  6
CONTINUOUS
 62
    3
 10
1148.3682
 20
2052.2718
 11
1152.546
 21
2052.8441
  0
LINE
  8
0-3
  6
CONTINUOUS
 62
    3
 10
1152.546
 20
2052.8441
 11
1156.7931
 21
2053.2541
  0
LINE
  8
0-3
  6
CONTINUOUS
 62
    3
 10
1156.7931
 20
2053.2541
 11
1161.144
 21
2053.409
  0
LINE
  8
0-3
  6
CONTINUOUS
 62
    3
 10
1161.144
 20
2053.409
 11
1165.6272
 21
2053.2333
  0
LINE
  8
0-3
  6
CONTINUOUS
 62
    3
 10
1165.6272
 20
2053.2333
 11
1170.1137
 21
2052.5798
  0
LINE
  8
0-3
  6
CONTINUOUS
 62
    3
 10
1170.1137
 20
2052.5798
 11
1174.2989
 21
2051.2691
  0
LINE
  8
0-3
  6
CONTINUOUS
 62
    3
 10
1174.2989
 20
2051.2691
 11
1177.867
 21
2049.0961
  0
LINE
  8
0-3
  6
CONTINUOUS
 62
    3
 10
1177.867
 20
2049.0961
 11
1180.5597
 21
2045.9212
  0
LINE
  8
0-3
  6
CONTINUOUS
 62
    3
 10
1180.5597
 20
2045.9212
 11
1182.6579
 21
2042.1087
  0
LINE
  8
0-3
  6
CONTINUOUS
 62
    3
 10
1069.5433
 20
1967.824
 11
1076.2652
 21
1968.8217
  0
LINE
  8
0-3
  6
CONTINUOUS
 62
    3
 10
1076.2652
 20
1968.8217
 11
1082.9451
 21
1969.9515
  0
LINE
  8
0-3
  6
CONTINUOUS
 62
    3
 10
1082.9451
 20
1969.9515
 11
1089.5523
 21
1971.3315
  0
LINE
  8
0-3
  6
CONTINUOUS
 62
    3
 10
1089.5523
 20
1971.3315
 11
1096.0406
 21
1973.0974
  0
LINE
  8
0-3
  6
CONTINUOUS
 62
    3
 10
1096.0406
 20
1973.0974
 11
1102.3771
 21
1975.3699
  0
LINE
  8
0-3
  6
CONTINUOUS
 62
    3
 10
1102.3771
 20
1975.3699
 11
1108.5255
 21
1978.1818
  0
LINE
  8
0-3
  6
CONTINUOUS
 62
    3
 10
1108.5255
 20
1978.1818
 11
1114.4591
 21
1981.4777
  0
LINE
  8
0-3
  6
CONTINUOUS
 62
    3
 10
1114.4591
 20
1981.4777
 11
1120.1462
 21
1985.2195
  0
LINE
  8
0-3
  6
CONTINUOUS
 62
    3
 10
1120.1462
 20
1985.2195
 11
1125.5602
 21
1989.3409
  0
LINE
  8
0-3
  6
CONTINUOUS
 62
    3
 10
1125.5602
 20
1989.3409
 11
1130.6743
 21
1993.8022
  0
LINE
  8
0-3
  6
CONTINUOUS
 62
    3
 10
1130.6743
 20
1993.8022
 11
1135.5286
 21
1998.5229
  0
LINE
  8
0-3
  6
CONTINUOUS
 62
    3
 10
1135.5286
 20
1998.5229
 11
1140.2195
 21
2003.3945
  0
LINE
  8
0-3
  6
CONTINUOUS
 62
    3
 10
1140.2195
 20
2003.3945
 11
1144.8516
 21
2008.3109
  0
LINE
  8
0-3
  6
CONTINUOUS
 62
    3
 10
1144.8516
 20
2008.3109
 11
1149.5228
 21
2013.1619
  0
LINE
  8
0-3
  6
CONTINUOUS
 62
    3
 10
1149.5228
 20
2013.1619
 11
1154.3385
 21
2017.8425
  0
LINE
  8
0-3
  6
CONTINUOUS
 62
    3
 10
1154.3385
 20
2017.8425
 11
1159.3922
 21
2022.2593
  0
LINE
  8
0-3
  6
CONTINUOUS
 62
    3
 10
1159.3922
 20
2022.2593
 11
1164.6765
 21
2026.4093
  0
LINE
  8
0-3
  6
CONTINUOUS
 62
    3
 10
1164.6765
 20
2026.4093
 11
1170.1489
 21
2030.355
  0
LINE
  8
0-3
  6
CONTINUOUS
 62
    3
 10
1170.1489
 20
2030.355
 11
1175.7524
 21
2034.1483
  0
LINE
  8
0-3
  6
CONTINUOUS
 62
    3
 10
1175.7524
 20
2034.1483
 11
1181.443
 21
2037.8455
  0
LINE
  8
0-3
  6
CONTINUOUS
 62
    3
 10
1181.443
 20
2037.8455
 11
1185.4723
 21
2040.4206
  0
LINE
  8
0-3
  6
CONTINUOUS
 62
    3
 10
1185.4723
 20
2040.4206
 11
1191.7593
 21
2043.0291
  0
LINE
  8
0-3
  6
CONTINUOUS
 62
    3
 10
1191.7593
 20
2043.0291
 11
1198.0828
 21
2045.4639
  0
LINE
  8
0-3
  6
CONTINUOUS
 62
    3
 10
1198.0828
 20
2045.4639
 11
1204.4807
 21
2047.5536
  0
LINE
  8
0-3
  6
CONTINUOUS
 62
    3
 10
1204.4807
 20
2047.5536
 11
1210.9903
 21
2049.1288
  0
LINE
  8
0-3
  6
CONTINUOUS
 62
    3
 10
1210.9903
 20
2049.1288
 11
1217.6271
 21
2050.0933
  0
LINE
  8
0-3
  6
CONTINUOUS
 62
    3
 10
1217.6271
 20
2050.0933
 11
1224.3605
 21
2050.5164
  0
LINE
  8
0-3
  6
CONTINUOUS
 62
    3
 10
1224.3605
 20
2050.5164
 11
1231.1507
 21
2050.4924
  0
LINE
  8
0-3
  6
CONTINUOUS
 62
    3
 10
1231.1507
 20
2050.4924
 11
1237.9598
 21
2050.1101
  0
LINE
  8
0-3
  6
CONTINUOUS
 62
    3
 10
1237.9598
 20
2050.1101
 11
1244.7569
 21
2049.4653
  0
LINE
  8
0-3
  6
CONTINUOUS
 62
    3
 10
1244.7569
 20
2049.4653
 11
1251.5021
 21
2048.6359
  0
LINE
  8
0-3
  6
CONTINUOUS
 62
    3
 10
1251.5021
 20
2048.6359
 11
1258.188
 21
2047.6041
  0
LINE
  8
0-3
  6
CONTINUOUS
 62
    3
 10
1258.188
 20
2047.6041
 11
1264.8169
 21
2046.3488
  0
LINE
  8
0-3
  6
CONTINUOUS
 62
    3
 10
1264.8169
 20
2046.3488
 11
1271.3785
 21
2044.8256
  0
LINE
  8
0-3
  6
CONTINUOUS
 62
    3
 10
1271.3785
 20
2044.8256
 11
1277.8777
 21
2043.0076
  0
LINE
  8
0-3
  6
CONTINUOUS
 62
    3
 10
1277.8777
 20
2043.0076
 11
1284.3112
 21
2040.8559
  0
LINE
  8
0-3
  6
CONTINUOUS
 62
    3
 10
1284.3112
 20
2040.8559
 11
1290.6531
 21
2038.3399
  0
LINE
  8
0-3
  6
CONTINUOUS
 62
    3
 10
1290.6531
 20
2038.3399
 11
1296.845
 21
2035.4315
  0
LINE
  8
0-3
  6
CONTINUOUS
 62
    3
 10
1296.845
 20
2035.4315
 11
1302.7944
 21
2032.1126
  0
LINE
  8
0-3
  6
CONTINUOUS
 62
    3
 10
1302.7944
 20
2032.1126
 11
1308.4277
 21
2028.3505
  0
LINE
  8
0-3
  6
CONTINUOUS
 62
    3
 10
1308.4277
 20
2028.3505
 11
1313.66
 21
2024.12
  0
LINE
  8
0-3
  6
CONTINUOUS
 62
    3
 10
1313.66
 20
2024.12
 11
1318.4193
 21
2019.4085
  0
LINE
  8
0-3
  6
CONTINUOUS
 62
    3
 10
1318.4193
 20
2019.4085
 11
1322.7683
 21
2014.2838
  0
LINE
  8
0-3
  6
CONTINUOUS
 62
    3
 10
1322.7683
 20
2014.2838
 11
1326.8139
 21
2008.8594
  0
LINE
  8
0-3
  6
CONTINUOUS
 62
    3
 10
1326.8139
 20
2008.8594
 11
1330.672
 21
2003.2519
  0
LINE
  8
0-3
  6
CONTINUOUS
 62
    3
 10
1330.672
 20
2003.2519
 11
1332.9133
 21
1999.9026
  0
LINE
  8
0-3
  6
CONTINUOUS
 62
    3
 10
1330.672
 20
2003.2519
 11
1333.6878
 21
1997.0061
  0
LINE
  8
0-3
  6
CONTINUOUS
 62
    3
 10
1333.6878
 20
1997.0061
 11
1336.5442
 21
1990.7315
  0
LINE
  8
0-3
  6
CONTINUOUS
 62
    3
 10
1336.5442
 20
1990.7315
 11
1339.0845
 21
1984.4141
  0
LINE
  8
0-3
  6
CONTINUOUS
 62
    3
 10
1339.0845
 20
1984.4141
 11
1341.1486
 21
1978.0175
  0
LINE
  8
0-3
  6
CONTINUOUS
 62
    3
 10
1341.1486
 20
1978.0175
 11
1342.5778
 21
1971.5252
  0
LINE
  8
0-3
  6
CONTINUOUS
 62
    3
 10
1342.5778
 20
1971.5252
 11
1343.2207
 21
1964.9111
  0
LINE
  8
0-3
  6
CONTINUOUS
 62
    3
 10
1343.2207
 20
1964.9111
 11
1343.0361
 21
1958.2021
  0
LINE
  8
0-3
  6
CONTINUOUS
 62
    3
 10
1343.0361
 20
1958.2021
 11
1342.1369
 21
1951.4633
  0
LINE
  8
0-3
  6
CONTINUOUS
 62
    3
 10
1342.1369
 20
1951.4633
 11
1340.6384
 21
1944.7728
  0
LINE
  8
0-3
  6
CONTINUOUS
 62
    3
 10
1340.6384
 20
1944.7728
 11
1338.6445
 21
1938.2077
  0
LINE
  8
0-3
  6
CONTINUOUS
 62
    3
 10
1338.6445
 20
1938.2077
 11
1336.1864
 21
1931.8579
  0
LINE
  8
0-3
  6
CONTINUOUS
 62
    3
 10
1336.1864
 20
1931.8579
 11
1333.1993
 21
1925.8132
  0
LINE
  8
0-3
  6
CONTINUOUS
 62
    3
 10
1333.1993
 20
1925.8132
 11
1329.6115
 21
1920.1681
  0
LINE
  8
0-3
  6
CONTINUOUS
 62
    3
 10
1329.6115
 20
1920.1681
 11
1325.4302
 21
1914.9545
  0
LINE
  8
0-3
  6
CONTINUOUS
 62
    3
 10
1325.4302
 20
1914.9545
 11
1320.7823
 21
1910.077
  0
LINE
  8
0-3
  6
CONTINUOUS
 62
    3
 10
1320.7823
 20
1910.077
 11
1315.8142
 21
1905.4343
  0
LINE
  8
0-3
  6
CONTINUOUS
 62
    3
 10
1315.8142
 20
1905.4343
 11
1310.665
 21
1900.9262
  0
LINE
  8
0-3
  6
CONTINUOUS
 62
    3
 10
1310.665
 20
1900.9262
 11
1309.2764
 21
1899.7325
  0
LINE
  8
0-3
  6
CONTINUOUS
 62
    3
 10
1310.665
 20
1900.9262
 11
1304.7542
 21
1897.6125
  0
LINE
  8
0-3
  6
CONTINUOUS
 62
    3
 10
1304.7542
 20
1897.6125
 11
1298.8215
 21
1894.3606
  0
LINE
  8
0-3
  6
CONTINUOUS
 62
    3
 10
1298.8215
 20
1894.3606
 11
1292.8404
 21
1891.2265
  0
LINE
  8
0-3
  6
CONTINUOUS
 62
    3
 10
1292.8404
 20
1891.2265
 11
1286.7767
 21
1888.2706
  0
LINE
  8
0-3
  6
CONTINUOUS
 62
    3
 10
1286.7767
 20
1888.2706
 11
1280.6159
 21
1885.5505
  0
LINE
  8
0-3
  6
CONTINUOUS
 62
    3
 10
1280.6159
 20
1885.5505
 11
1274.323
 21
1883.1249
  0
LINE
  8
0-3
  6
CONTINUOUS
 62
    3
 10
1274.323
 20
1883.1249
 11
1267.8985
 21
1881.0285
  0
LINE
  8
0-3
  6
CONTINUOUS
 62
    3
 10
1267.8985
 20
1881.0285
 11
1261.3661
 21
1879.269
  0
LINE
  8
0-3
  6
CONTINUOUS
 62
    3
 10
1261.3661
 20
1879.269
 11
1254.7535
 21
1877.8445
  0
LINE
  8
0-3
  6
CONTINUOUS
 62
    3
 10
1254.7535
 20
1877.8445
 11
1248.08
 21
1876.754
  0
LINE
  8
0-3
  6
CONTINUOUS
 62
    3
 10
1248.08
 20
1876.754
 11
1241.3774
 21
1875.9909
  0
LINE
  8
0-3
  6
CONTINUOUS
 62
    3
 10
1241.3774
 20
1875.9909
 11
1234.6525
 21
1875.4973
  0
LINE
  8
0-3
  6
CONTINUOUS
 62
    3
 10
1234.6525
 20
1875.4973
 11
1227.9097
 21
1875.21
  0
LINE
  8
0-3
  6
CONTINUOUS
 62
    3
 10
1227.9097
 20
1875.21
 11
1221.1531
 21
1875.0534
  0
LINE
  8
0-3
  6
CONTINUOUS
 62
    3
 10
1221.1531
 20
1875.0534
 11
1215.2958
 21
1874.971
  0
LINE
  8
0-3
  6
CONTINUOUS
 62
    3
 10
1139.7925
 20
1874.3504
 11
1146.1136
 21
1871.7924
  0
LINE
  8
0-3
  6
CONTINUOUS
 62
    3
 10
1146.1136
 20
1871.7924
 11
1152.4693
 21
1869.2633
  0
LINE
  8
0-3
  6
CONTINUOUS
 62
    3
 10
1152.4693
 20
1869.2633
 11
1158.8854
 21
1866.9334
  0
LINE
  8
0-3
  6
CONTINUOUS
 62
    3
 10
1158.8854
 20
1866.9334
 11
1165.3634
 21
1864.9905
  0
LINE
  8
0-3
  6
CONTINUOUS
 62
    3
 10
1165.3634
 20
1864.9905
 11
1171.9205
 21
1863.6202
  0
LINE
  8
0-3
  6
CONTINUOUS
 62
    3
 10
1171.9205
 20
1863.6202
 11
1178.5707
 21
1863.0063
  0
LINE
  8
0-3
  6
CONTINUOUS
 62
    3
 10
1178.5707
 20
1863.0063
 11
1185.2991
 21
1863.1028
  0
LINE
  8
0-3
  6
CONTINUOUS
 62
    3
 10
1185.2991
 20
1863.1028
 11
1192.0755
 21
1863.6023
  0
LINE
  8
0-3
  6
CONTINUOUS
 62
    3
 10
1192.0755
 20
1863.6023
 11
1193.3488
 21
1863.7144
  0
LINE
  8
0-3
  6
CONTINUOUS
 62
    3
 10
1192.0755
 20
1863.6023
 11
1197.6167
 21
1864.8383
  0
LINE
  8
0-3
  6
CONTINUOUS
 62
    3
 10
1197.6167
 20
1864.8383
 11
1202.9351
 21
1866.5484
  0
LINE
  8
0-3
  6
CONTINUOUS
 62
    3
 10
1202.9351
 20
1866.5484
 11
1207.8156
 21
1869.2106
  0
LINE
  8
0-3
  6
CONTINUOUS
 62
    3
 10
1207.8156
 20
1869.2106
 11
1211.9761
 21
1873.0313
  0
LINE
  8
0-3
  6
CONTINUOUS
 62
    3
 10
1211.9761
 20
1873.0313
 11
1215.0602
 21
1877.82
  0
LINE
  8
0-3
  6
CONTINUOUS
 62
    3
 10
1215.0602
 20
1877.82
 11
1216.7408
 21
1883.2946
  0
LINE
  8
0-3
  6
CONTINUOUS
 62
    3
 10
1216.7408
 20
1883.2946
 11
1216.864
 21
1888.9578
  0
LINE
  8
0-3
  6
CONTINUOUS
 62
    3
 10
1216.864
 20
1888.9578
 11
1215.366
 21
1894.2631
  0
LINE
  8
0-3
  6
CONTINUOUS
 62
    3
 10
1215.366
 20
1894.2631
 11
1212.5655
 21
1899.0892
  0
LINE
  8
0-3
  6
CONTINUOUS
 62
    3
 10
1212.5655
 20
1899.0892
 11
1209.1068
 21
1903.6713
  0
LINE
  8
0-3
  6
CONTINUOUS
 62
    3
 10
1079.2667
 20
1959.0894
 11
1086.0777
 21
1957.9296
  0
LINE
  8
0-3
  6
CONTINUOUS
 62
    3
 10
1086.0777
 20
1957.9296
 11
1092.8655
 21
1956.9663
  0
LINE
  8
0-3
  6
CONTINUOUS
 62
    3
 10
1092.8655
 20
1956.9663
 11
1099.6038
 21
1956.3938
  0
LINE
  8
0-3
  6
CONTINUOUS
 62
    3
 10
1099.6038
 20
1956.3938
 11
1106.2698
 21
1956.4042
  0
LINE
  8
0-3
  6
CONTINUOUS
 62
    3
 10
1106.2698
 20
1956.4042
 11
1112.8373
 21
1957.1888
  0
LINE
  8
0-3
  6
CONTINUOUS
 62
    3
 10
1112.8373
 20
1957.1888
 11
1119.3094
 21
1958.7818
  0
LINE
  8
0-3
  6
CONTINUOUS
 62
    3
 10
1119.3094
 20
1958.7818
 11
1125.6978
 21
1960.9674
  0
LINE
  8
0-3
  6
CONTINUOUS
 62
    3
 10
1125.6978
 20
1960.9674
 11
1132.0347
 21
1963.5319
  0
LINE
  8
0-3
  6
CONTINUOUS
 62
    3
 10
1132.0347
 20
1963.5319
 11
1138.3326
 21
1966.2421
  0
LINE
  8
0-3
  6
CONTINUOUS
 62
    3
 10
1138.3326
 20
1966.2421
 11
1144.624
 21
1968.9026
  0
LINE
  8
0-3
  6
CONTINUOUS
 62
    3
 10
1144.624
 20
1968.9026
 11
1150.9084
 21
1971.4629
  0
LINE
  8
0-3
  6
CONTINUOUS
 62
    3
 10
1150.9084
 20
1971.4629
 11
1157.1919
 21
1973.9474
  0
LINE
  8
0-3
  6
CONTINUOUS
 62
    3
 10
1157.1919
 20
1973.9474
 11
1163.469
 21
1976.3696
  0
LINE
  8
0-3
  6
CONTINUOUS
 62
    3
 10
1163.469
 20
1976.3696
 11
1169.746
 21
1978.7475
  0
LINE
  8
0-3
  6
CONTINUOUS
 62
    3
 10
1169.746
 20
1978.7475
 11
1176.0236
 21
1981.1036
  0
LINE
  8
0-3
  6
CONTINUOUS
 62
    3
 10
1176.0236
 20
1981.1036
 11
1175.937
 21
1975.3214
  0
LINE
  8
0-3
  6
CONTINUOUS
 62
    3
 10
1175.937
 20
1975.3214
 11
1175.8533
 21
1969.5457
  0
LINE
  8
0-3
  6
CONTINUOUS
 62
    3
 10
1175.8533
 20
1969.5457
 11
1175.7697
 21
1963.7628
  0
LINE
  8
0-3
  6
CONTINUOUS
 62
    3
 10
1175.7697
 20
1963.7628
 11
1175.6826
 21
1957.986
  0
LINE
  8
0-3
  6
CONTINUOUS
 62
    3
 10
1175.6826
 20
1957.986
 11
1175.6
 21
1952.2096
  0
LINE
  8
0-3
  6
CONTINUOUS
 62
    3
 10
1175.6
 20
1952.2096
 11
1175.5168
 21
1946.4269
  0
LINE
  8
0-3
  6
CONTINUOUS
 62
    3
 10
1175.5168
 20
1946.4269
 11
1175.4297
 21
1940.6514
  0
LINE
  8
0-3
  6
CONTINUOUS
 62
    3
 10
1175.4297
 20
1940.6514
 11
1175.3461
 21
1934.869
  0
LINE
  8
0-3
  6
CONTINUOUS
 62
    3
 10
1175.3461
 20
1934.869
 11
1175.2605
 21
1929.0913
  0
LINE
  8
0-3
  6
CONTINUOUS
 62
    3
 10
1175.2605
 20
1929.0913
 11
1175.1764
 21
1923.3108
  0
LINE
  8
0-3
  6
CONTINUOUS
 62
    3
 10
1209.1068
 20
1903.6713
 11
1207.7246
 21
1904.8897
  0
LINE
  8
0-3
  6
CONTINUOUS
 62
    3
 10
1207.7246
 20
1904.8897
 11
1205.7386
 21
1906.3624
  0
LINE
  8
0-3
  6
CONTINUOUS
 62
    3
 10
1205.7386
 20
1906.3624
 11
1203.2271
 21
1908.0472
  0
LINE
  8
0-3
  6
CONTINUOUS
 62
    3
 10
1203.2271
 20
1908.0472
 11
1200.2583
 21
1909.9033
  0
LINE
  8
0-3
  6
CONTINUOUS
 62
    3
 10
1200.2583
 20
1909.9033
 11
1196.8739
 21
1911.8942
  0
LINE
  8
0-3
  6
CONTINUOUS
 62
    3
 10
1196.8739
 20
1911.8942
 11
1193.1336
 21
1913.994
  0
LINE
  8
0-3
  6
CONTINUOUS
 62
    3
 10
1193.1336
 20
1913.994
 11
1189.0741
 21
1916.1764
  0
LINE
  8
0-3
  6
CONTINUOUS
 62
    3
 10
1189.0741
 20
1916.1764
 11
1184.726
 21
1918.4177
  0
LINE
  8
0-3
  6
CONTINUOUS
 62
    3
 10
1184.726
 20
1918.4177
 11
1180.1281
 21
1920.7011
  0
LINE
  8
0-3
  6
CONTINUOUS
 62
    3
 10
1180.1281
 20
1920.7011
 11
1175.3055
 21
1923.0097
  0
LINE
  8
0-3
  6
CONTINUOUS
 62
    3
 10
1175.3055
 20
1923.0097
 11
1170.2756
 21
1925.3272
  0
LINE
  8
0-3
  6
CONTINUOUS
 62
    3
 10
1170.2756
 20
1925.3272
 11
1165.0724
 21
1927.6477
  0
LINE
  8
0-3
  6
CONTINUOUS
 62
    3
 10
1165.0724
 20
1927.6477
 11
1159.7059
 21
1929.9561
  0
LINE
  8
0-3
  6
CONTINUOUS
 62
    3
 10
1159.7059
 20
1929.9561
 11
1154.2068
 21
1932.2461
  0
LINE
  8
0-3
  6
CONTINUOUS
 62
    3
 10
1154.2068
 20
1932.2461
 11
1148.5894
 21
1934.5124
  0
LINE
  8
0-3
  6
CONTINUOUS
 62
    3
 10
1148.5894
 20
1934.5124
 11
1142.8746
 21
1936.7438
  0
LINE
  8
0-3
  6
CONTINUOUS
 62
    3
 10
1142.8746
 20
1936.7438
 11
1137.083
 21
1938.9389
  0
LINE
  8
0-3
  6
CONTINUOUS
 62
    3
 10
1137.083
 20
1938.9389
 11
1131.2395
 21
1941.0916
  0
LINE
  8
0-3
  6
CONTINUOUS
 62
    3
 10
1131.2395
 20
1941.0916
 11
1125.3682
 21
1943.202
  0
LINE
  8
0-3
  6
CONTINUOUS
 62
    3
 10
1125.3682
 20
1943.202
 11
1119.491
 21
1945.2553
  0
LINE
  8
0-3
  6
CONTINUOUS
 62
    3
 10
1119.491
 20
1945.2553
 11
1113.6306
 21
1947.2528
  0
LINE
  8
0-3
  6
CONTINUOUS
 62
    3
 10
1113.6306
 20
1947.2528
 11
1107.8168
 21
1949.1943
  0
LINE
  8
0-3
  6
CONTINUOUS
 62
    3
 10
1107.8168
 20
1949.1943
 11
1102.0811
 21
1951.0664
  0
LINE
  8
0-3
  6
CONTINUOUS
 62
    3
 10
1102.0811
 20
1951.0664
 11
1096.4459
 21
1952.8715
  0
LINE
  8
0-3
  6
CONTINUOUS
 62
    3
 10
1096.4459
 20
1952.8715
 11
1090.9459
 21
1954.5998
  0
LINE
  8
0-3
  6
CONTINUOUS
 62
    3
 10
1090.9459
 20
1954.5998
 11
1085.6125
 21
1956.2446
  0
LINE
  8
0-3
  6
CONTINUOUS
 62
    3
 10
1085.6125
 20
1956.2446
 11
1080.4737
 21
1957.7977
  0
LINE
  8
0-3
  6
CONTINUOUS
 62
    3
 10
1080.4737
 20
1957.7977
 11
1075.5566
 21
1959.2571
  0
LINE
  8
0-3
  6
CONTINUOUS
 62
    3
 10
1075.5566
 20
1959.2571
 11
1070.8943
 21
1960.6094
  0
LINE
  8
0-3
  6
CONTINUOUS
 62
    3
 10
1176.0236
 20
1981.1036
 11
1176.1043
 21
1981.1316
  0
LINE
  8
0-3
  6
CONTINUOUS
 62
    3
 10
1084.1328
 20
1860.8431
 11
1084.1328
 21
1847.5734
  0
LINE
  8
0-3
  6
CONTINUOUS
 62
    3
 10
1084.1328
 20
1847.5734
 11
1124.4566
 21
1847.5734
  0
LINE
  8
0-3
  6
CONTINUOUS
 62
    3
 10
1124.4566
 20
1860.8431
 11
1124.4566
 21
1847.5734
  0
LINE
  8
0-3
  6
CONTINUOUS
 62
    3
 10
1084.1328
 20
1860.8431
 11
1124.4566
 21
1860.8431
  0
LINE
  8
0-3
  6
CONTINUOUS
 62
    3
 10
1105.572
 20
1860.8431
 11
1105.572
 21
1887.2935
  0
LINE
  8
0-3
  6
CONTINUOUS
 62
    3
 10
1096.5766
 20
1896.2859
 11
1050
 21
1896.2859
  0
LINE
  8
0-3
  6
CONTINUOUS
 62
    3
 10
1065.4501
 20
1996.6342
 11
1065.4501
 21
1953.0971
  0
LINE
  8
0-3
  6
CONTINUOUS
 62
    3
 10
1071.7955
 20
1983.58
 11
1071.1363
 21
1983.2078
  0
LINE
  8
0-3
  6
CONTINUOUS
 62
    3
 10
1071.1363
 20
1983.2078
 11
1070.4623
 21
1982.8169
  0
LINE
  8
0-3
  6
CONTINUOUS
 62
    3
 10
1070.4623
 20
1982.8169
 11
1069.7794
 21
1982.4069
  0
LINE
  8
0-3
  6
CONTINUOUS
 62
    3
 10
1069.7794
 20
1982.4069
 11
1069.0826
 21
1981.9771
  0
LINE
  8
0-3
  6
CONTINUOUS
 62
    3
 10
1069.0826
 20
1981.9771
 11
1068.3719
 21
1981.5342
  0
LINE
  8
0-3
  6
CONTINUOUS
 62
    3
 10
1068.3719
 20
1981.5342
 11
1067.6484
 21
1981.068
  0
LINE
  8
0-3
  6
CONTINUOUS
 62
    3
 10
1067.6484
 20
1981.068
 11
1066.914
 21
1980.586
  0
LINE
  8
0-3
  6
CONTINUOUS
 62
    3
 10
1066.914
 20
1980.586
 11
1066.1633
 21
1980.0827
  0
LINE
  8
0-3
  6
CONTINUOUS
 62
    3
 10
1066.1633
 20
1980.0827
 11
1065.4036
 21
1979.5653
  0
LINE
  8
0-3
  6
CONTINUOUS
 62
    3
 10
1069.5433
 20
1967.824
 11
1069.0549
 21
1967.7305
  0
LINE
  8
0-3
  6
CONTINUOUS
 62
    3
 10
1069.0549
 20
1967.7305
 11
1068.5733
 21
1967.6436
  0
LINE
  8
0-3
  6
CONTINUOUS
 62
    3
 10
1068.5733
 20
1967.6436
 11
1068.0997
 21
1967.5568
  0
LINE
  8
0-3
  6
CONTINUOUS
 62
    3
 10
1068.0997
 20
1967.5568
 11
1067.6321
 21
1967.4729
  0
LINE
  8
0-3
  6
CONTINUOUS
 62
    3
 10
1067.6321
 20
1967.4729
 11
1067.1733
 21
1967.3927
  0
LINE
  8
0-3
  6
CONTINUOUS
 62
    3
 10
1067.1733
 20
1967.3927
 11
1066.719
 21
1967.3172
  0
LINE
  8
0-3
  6
CONTINUOUS
 62
    3
 10
1066.719
 20
1967.3172
 11
1066.2736
 21
1967.2465
  0
LINE
  8
0-3
  6
CONTINUOUS
 62
    3
 10
1066.2736
 20
1967.2465
 11
1065.8332
 21
1967.1777
  0
LINE
  8
0-3
  6
CONTINUOUS
 62
    3
 10
1065.8332
 20
1967.1777
 11
1065.4036
 21
1967.1114
  0
LINE
  8
0-3
  6
CONTINUOUS
 62
    3
 10
1079.2667
 20
1959.0894
 11
1077.4104
 21
1959.4826
  0
LINE
  8
0-3
  6
CONTINUOUS
 62
    3
 10
1077.4104
 20
1959.4826
 11
1075.6293
 21
1959.8629
  0
LINE
  8
0-3
  6
CONTINUOUS
 62
    3
 10
1075.6293
 20
1959.8629
 11
1073.9304
 21
1960.2323
  0
LINE
  8
0-3
  6
CONTINUOUS
 62
    3
 10
1073.9304
 20
1960.2323
 11
1072.3097
 21
1960.5886
  0
LINE
  8
0-3
  6
CONTINUOUS
 62
    3
 10
1072.3097
 20
1960.5886
 11
1070.7681
 21
1960.9318
  0
LINE
  8
0-3
  6
CONTINUOUS
 62
    3
 10
1070.7681
 20
1960.9318
 11
1069.3082
 21
1961.2656
  0
LINE
  8
0-3
  6
CONTINUOUS
 62
    3
 10
1069.3082
 20
1961.2656
 11
1067.9265
 21
1961.5848
  0
LINE
  8
0-3
  6
CONTINUOUS
 62
    3
 10
1067.9265
 20
1961.5848
 11
1066.625
 21
1961.8929
  0
LINE
  8
0-3
  6
CONTINUOUS
 62
    3
 10
1066.625
 20
1961.8929
 11
1065.4036
 21
1962.1878
  0
LINE
  8
0-3
  6
CONTINUOUS
 62
    3
 10
1070.8943
 20
1960.6094
 11
1070.1683
 21
1960.8071
  0
LINE
  8
0-3
  6
CONTINUOUS
 62
    3
 10
1070.1683
 20
1960.8071
 11
1069.471
 21
1960.9976
  0
LINE
  8
0-3
  6
CONTINUOUS
 62
    3
 10
1069.471
 20
1960.9976
 11
1068.8039
 21
1961.1854
  0
LINE
  8
0-3
  6
CONTINUOUS
 62
    3
 10
1068.8039
 20
1961.1854
 11
1068.168
 21
1961.3666
  0
LINE
  8
0-3
  6
CONTINUOUS
 62
    3
 10
1068.168
 20
1961.3666
 11
1067.5653
 21
1961.5403
  0
LINE
  8
0-3
  6
CONTINUOUS
 62
    3
 10
1067.5653
 20
1961.5403
 11
1066.9892
 21
1961.7053
  0
LINE
  8
0-3
  6
CONTINUOUS
 62
    3
 10
1066.9892
 20
1961.7053
 11
1066.4449
 21
1961.8676
  0
LINE
  8
0-3
  6
CONTINUOUS
 62
    3
 10
1066.4449
 20
1961.8676
 11
1065.9317
 21
1962.025
  0
LINE
  8
0-3
  6
CONTINUOUS
 62
    3
 10
1065.9317
 20
1962.025
 11
1065.4501
 21
1962.1787
  0
LINE
  8
0-3
  6
CONTINUOUS
 62
    3
 10
1059.5017
 20
2002.5848
 11
1050
 21
2002.5848
  0
LINE
  8
0-3
  6
CONTINUOUS
 62
    3
 10
1059.5017
 20
1911.1717
 11
1050
 21
1911.1717
  0
LINE
  8
0-3
  6
CONTINUOUS
 62
    3
 10
1054.9636
 20
1942.166
 11
1058.41
 21
1938.276
  0
LINE
  8
0-3
  6
CONTINUOUS
 62
    3
 10
1058.41
 20
1938.276
 11
1062.1978
 21
1934.234
  0
LINE
  8
0-3
  6
CONTINUOUS
 62
    3
 10
1062.1978
 20
1934.234
 11
1066.2716
 21
1930.0889
  0
LINE
  8
0-3
  6
CONTINUOUS
 62
    3
 10
1066.2716
 20
1930.0889
 11
1070.5796
 21
1925.8825
  0
LINE
  8
0-3
  6
CONTINUOUS
 62
    3
 10
1070.5796
 20
1925.8825
 11
1075.0726
 21
1921.6547
  0
LINE
  8
0-3
  6
CONTINUOUS
 62
    3
 10
1075.0726
 20
1921.6547
 11
1079.7042
 21
1917.4438
  0
LINE
  8
0-3
  6
CONTINUOUS
 62
    3
 10
1079.7042
 20
1917.4438
 11
1084.4327
 21
1913.2823
  0
LINE
  8
0-3
  6
CONTINUOUS
 62
    3
 10
1084.4327
 20
1913.2823
 11
1089.2177
 21
1909.2008
  0
LINE
  8
0-3
  6
CONTINUOUS
 62
    3
 10
1089.2177
 20
1909.2008
 11
1094.0225
 21
1905.2272
  0
LINE
  8
0-3
  6
CONTINUOUS
 62
    3
 10
1094.0225
 20
1905.2272
 11
1098.8154
 21
1901.3859
  0
LINE
  8
0-3
  6
CONTINUOUS
 62
    3
 10
1098.8154
 20
1901.3859
 11
1103.5643
 21
1897.6981
  0
LINE
  8
0-3
  6
CONTINUOUS
 62
    3
 10
1103.5643
 20
1897.6981
 11
1108.2434
 21
1894.1815
  0
LINE
  8
0-3
  6
CONTINUOUS
 62
    3
 10
1108.2434
 20
1894.1815
 11
1112.8284
 21
1890.8522
  0
LINE
  8
0-3
  6
CONTINUOUS
 62
    3
 10
1112.8284
 20
1890.8522
 11
1117.2997
 21
1887.7196
  0
LINE
  8
0-3
  6
CONTINUOUS
 62
    3
 10
1117.2997
 20
1887.7196
 11
1121.6388
 21
1884.7941
  0
LINE
  8
0-3
  6
CONTINUOUS
 62
    3
 10
1121.6388
 20
1884.7941
 11
1125.8319
 21
1882.0809
  0
LINE
  8
0-3
  6
CONTINUOUS
 62
    3
 10
1125.8319
 20
1882.0809
 11
1129.8686
 21
1879.5808
  0
LINE
  8
0-3
  6
CONTINUOUS
 62
    3
 10
1129.8686
 20
1879.5808
 11
1133.7401
 21
1877.2959
  0
LINE
  8
0-3
  6
CONTINUOUS
 62
    3
 10
1133.7401
 20
1877.2959
 11
1137.4403
 21
1875.2192
  0
LINE
  8
0-3
  6
CONTINUOUS
 62
    3
 10
1137.4403
 20
1875.2192
 11
1137.7115
 21
1875.1009
  0
LINE
  8
0-3
  6
CONTINUOUS
 62
    3
 10
1137.7115
 20
1875.1009
 11
1137.9822
 21
1874.9866
  0
LINE
  8
0-3
  6
CONTINUOUS
 62
    3
 10
1137.9822
 20
1874.9866
 11
1138.2494
 21
1874.8789
  0
LINE
  8
0-3
  6
CONTINUOUS
 62
    3
 10
1138.2494
 20
1874.8789
 11
1138.5132
 21
1874.7765
  0
LINE
  8
0-3
  6
CONTINUOUS
 62
    3
 10
1138.5132
 20
1874.7765
 11
1138.775
 21
1874.6807
  0
LINE
  8
0-3
  6
CONTINUOUS
 62
    3
 10
1138.775
 20
1874.6807
 11
1139.0333
 21
1874.5894
  0
LINE
  8
0-3
  6
CONTINUOUS
 62
    3
 10
1139.0333
 20
1874.5894
 11
1139.2892
 21
1874.5041
  0
LINE
  8
0-3
  6
CONTINUOUS
 62
    3
 10
1139.2892
 20
1874.5041
 11
1139.5425
 21
1874.4246
  0
LINE
  8
0-3
  6
CONTINUOUS
 62
    3
 10
1139.5425
 20
1874.4246
 11
1139.7925
 21
1874.3504
  0
LINE
  8
0-3
  6
CONTINUOUS
 62
    3
 10
1054.9636
 20
1942.166
 11
1057.0006
 21
1943.1775
  0
LINE
  8
0-3
  6
CONTINUOUS
 62
    3
 10
1057.0006
 20
1943.1775
 11
1058.8197
 21
1944.2405
  0
LINE
  8
0-3
  6
CONTINUOUS
 62
    3
 10
1058.8197
 20
1944.2405
 11
1060.4212
 21
1945.3535
  0
LINE
  8
0-3
  6
CONTINUOUS
 62
    3
 10
1060.4212
 20
1945.3535
 11
1061.8039
 21
1946.5175
  0
LINE
  8
0-3
  6
CONTINUOUS
 62
    3
 10
1061.8039
 20
1946.5175
 11
1062.9688
 21
1947.7319
  0
LINE
  8
0-3
  6
CONTINUOUS
 62
    3
 10
1062.9688
 20
1947.7319
 11
1063.916
 21
1948.9973
  0
LINE
  8
0-3
  6
CONTINUOUS
 62
    3
 10
1063.916
 20
1948.9973
 11
1064.6455
 21
1950.3134
  0
LINE
  8
0-3
  6
CONTINUOUS
 62
    3
 10
1064.6455
 20
1950.3134
 11
1065.1567
 21
1951.6795
  0
LINE
  8
0-3
  6
CONTINUOUS
 62
    3
 10
1065.1567
 20
1951.6795
 11
1065.4501
 21
1953.0971
  0
LINE
  8
0-3
  6
CONTINUOUS
 62
    3
 10
1065.4516
 20
1917.1221
 11
1065.4516
 21
1930.9233
  0
LINE
  8
0-3
  6
CONTINUOUS
 62
    3
 10
1142.7202
 20
1968.4753
 11
1131.0039
 21
1994.2976
  0
LINE
  8
0-3
  6
CONTINUOUS
 62
    3
 10
1097.6134
 20
1829.1958
 11
1050
 21
1829.1958
  0
LINE
  8
0-3
  6
CONTINUOUS
 62
    3
 10
1105.572
 20
1837.155
 11
1105.572
 21
1847.5734
  0
LINE
  8
0-3
  6
CONTINUOUS
 62
    3
 10
1093.633
 20
1822.0399
 11
1050
 21
1822.0399
  0
LINE
  8
0-3
  6
CONTINUOUS
 62
    3
 10
1097.6134
 20
1826.0195
 11
1097.6134
 21
1829.1958
  0
LINE
  8
0-2
  6
CONTINUOUS
 62
    3
 10
1050
 20
2069.8625
 11
1357.4999
 21
2069.8625
  0
LINE
  8
0-2
  6
CONTINUOUS
 62
    3
 10
742.50013
 20
1763.1372
 11
1357.4999
 21
1763.1372
  0
LINE
  8
0-2
  6
CONTINUOUS
 62
    3
 10
742.50013
 20
1750.3938
 11
1357.4999
 21
1750.3938
  0
LINE
  8
0-2
  6
CONTINUOUS
 62
    3
 10
1357.4999
 20
2057.1196
 11
1357.4999
 21
1763.1377
  0
LINE
  8
0-2
  6
CONTINUOUS
 62
    3
 10
1521.7796
 20
1959.3356
 11
1534.4401
 21
1959.3356
  0
LINE
  8
0-2
  6
CONTINUOUS
 62
    3
 10
570.00005
 20
2159.421
 11
570.00005
 21
2013.0491
  0
LINE
  8
0-2
  6
CONTINUOUS
 62
    3
 10
1530
 20
2159.421
 11
1530
 21
1983.314
  0
LINE
  8
0-2
  6
CONTINUOUS
 62
    3
 10
1357.4999
 20
1919.4209
 11
1530
 21
1919.4209
  0
LINE
  8
0-2
  6
CONTINUOUS
 62
    3
 10
1530
 20
1983.314
 11
1357.4999
 21
1983.314
  0
LINE
  8
0-2
  6
CONTINUOUS
 62
    3
 10
1530
 20
1970.5711
 11
1357.4999
 21
1970.5711
  0
LINE
  8
0-2
  6
CONTINUOUS
 62
    3
 10
1357.4999
 20
2057.1196
 11
1050
 21
2057.1196
  0
LINE
  8
0-8
  6
CONTINUOUS
 62
    7
 10
664.86489
 20
1699.4204
 11
330.53136
 21
1699.4204
  0
LINE
  8
0-2
  6
CONTINUOUS
 62
    3
 10
742.50013
 20
1919.4209
 11
742.50013
 21
1763.1372
  0
LINE
  8
0-8
  6
CONTINUOUS
 62
    7
 10
1718.919
 20
1699.4204
 11
1718.919
 21
1919.4209
  0
LINE
  8
0-8
  6
CONTINUOUS
 62
    7
 10
1564.8649
 20
1699.4204
 11
1718.919
 21
1699.4204
  0
LINE
  8
0-8
  6
CONTINUOUS
 62
    7
 10
1564.8653
 20
1919.4209
 11
1718.919
 21
1919.4209
  0
LINE
  8
0-8
  6
CONTINUOUS
 62
    7
 10
1718.919
 20
1919.4209
 11
1718.919
 21
2159.421
  0
LINE
  8
0-8
  6
CONTINUOUS
 62
    7
 10
1564.8653
 20
2159.421
 11
1718.919
 21
2159.421
  0
LINE
  8
0-8
  6
CONTINUOUS
 62
    7
 10
1718.919
 20
2159.421
 11
1718.919
 21
2269.8633
  0
LINE
  8
0-8
  6
CONTINUOUS
 62
    7
 10
1564.8653
 20
2269.8633
 11
1718.919
 21
2269.8633
  0
LINE
  8
0-2
  6
CONTINUOUS
 62
    3
 10
1272.6434
 20
2218.5512
 11
1050
 21
2218.5512
  0
LINE
  8
0-1
  6
CENTER2
 62
    7
 10
1050
 20
2529.7298
 11
1050
 21
1427.027
  0
LINE
  8
ADD_LINE
  6
DOT
 62
    7
 10
742.50001
 20
1516.5687
 11
742.50001
 21
2148.6487
  0
LINE
  8
ADD_LINE
  6
DOT
 62
    7
 10
1357.5
 20
1516.5687
 11
1357.5
 21
2148.6487
  0
LINE
  8
ADD_LINE
  6
DOT
 62
    7
 10
1530
 20
2472.973
 11
1530
 21
1508.1081
  0
LINE
  8
ADD_LINE
  6
DOT
 62
    7
 10
570.00005
 20
2472.973
 11
570.00005
 21
1508.1081
  0
LINE
  8
ADD_LINE
  6
DOT
 62
    7
 10
178.37838
 20
2269.4211
 11
1805.1117
 21
2269.4211
  0
LINE
  8
ADD_LINE
  6
DOT
 62
    7
 10
178.37838
 20
1919.4209
 11
1819.0365
 21
1919.4209
  0
LINE
  8
ADD_LINE
  6
DOT
 62
    7
 10
210.81082
 20
1699.4209
 11
1901.5496
 21
1699.4209
  0
LINE
  8
0-2
  6
CONTINUOUS
 62
    3
 10
550.65898
 20
2154.9886
 11
1050
 21
2269.4211
  0
LINE
  8
0-2
  6
CONTINUOUS
 62
    3
 10
1549.341
 20
2154.9886
 11
1050
 21
2269.4211
  0
LINE
  8
0-2
  6
CONTINUOUS
 62
    3
 10
1524.8735
 20
1970.5711
 11
1524.8735
 21
1923.9548
  0
LINE
  8
0-4
  6
CONTINUOUS
 62
    3
 10
1357.4999
 20
2069.8625
 11
1357.4999
 21
2198.9522
  0
LINE
  8
0-2
  6
CONTINUOUS
 62
    3
 10
1357.4999
 20
2198.9522
 11
1050
 21
2198.9522
  0
LINE
  8
0-2
  6
CONTINUOUS
 62
    3
 10
1238.6964
 20
2198.9522
 11
1272.6434
 21
2218.5512
  0
LINE
  8
ADD_LINE
  6
DOT
 62
    7
 10
178.37838
 20
2159.4212
 11
1805.1117
 21
2159.4212
  0
LINE
  8
0-2
  6
CONTINUOUS
 62
    3
 10
570.00005
 20
2159.421
 11
1050
 21
2159.421
  0
LINE
  8
0-2
  6
CONTINUOUS
 62
    3
 10
1357.4999
 20
2159.421
 11
1530
 21
2159.421
  0
LINE
  8
0-4
  6
CONTINUOUS
 62
    4
 10
1357.4999
 20
2193.9522
 11
1050
 21
2193.9522
  0
LINE
  8
0-4
  6
CONTINUOUS
 62
    4
 10
1357.4999
 20
2188.9522
 11
1050
 21
2188.9522
  0
LINE
  8
0-4
  6
CONTINUOUS
 62
    4
 10
1357.4999
 20
2183.9522
 11
1050
 21
2183.9522
  0
LINE
  8
0-4
  6
CONTINUOUS
 62
    4
 10
1357.4999
 20
2178.9522
 11
1050
 21
2178.9522
  0
LINE
  8
0-4
  6
CONTINUOUS
 62
    4
 10
1357.4999
 20
2173.9522
 11
1050
 21
2173.9522
  0
LINE
  8
0-4
  6
CONTINUOUS
 62
    4
 10
1357.4999
 20
2168.9521
 11
1050
 21
2168.9521
  0
LINE
  8
0-4
  6
CONTINUOUS
 62
    4
 10
1357.4999
 20
2163.9521
 11
1050
 21
2163.9521
  0
LINE
  8
0-4
  6
CONTINUOUS
 62
    4
 10
1357.4999
 20
2158.9524
 11
1050
 21
2158.9524
  0
LINE
  8
0-4
  6
CONTINUOUS
 62
    4
 10
1357.4999
 20
2153.9523
 11
1050
 21
2153.9523
  0
LINE
  8
0-4
  6
CONTINUOUS
 62
    4
 10
1357.4999
 20
2148.9523
 11
1050
 21
2148.9523
  0
LINE
  8
0-4
  6
CONTINUOUS
 62
    4
 10
1357.4999
 20
2143.9523
 11
1050
 21
2143.9523
  0
LINE
  8
0-4
  6
CONTINUOUS
 62
    4
 10
1357.4999
 20
2138.9523
 11
1050
 21
2138.9523
  0
LINE
  8
0-4
  6
CONTINUOUS
 62
    4
 10
1357.4999
 20
2133.9523
 11
1050
 21
2133.9523
  0
LINE
  8
0-4
  6
CONTINUOUS
 62
    4
 10
1357.4999
 20
2128.9522
 11
1050
 21
2128.9522
  0
LINE
  8
0-4
  6
CONTINUOUS
 62
    4
 10
1357.4999
 20
2123.9522
 11
1050
 21
2123.9522
  0
LINE
  8
0-4
  6
CONTINUOUS
 62
    4
 10
1357.4999
 20
2118.9522
 11
1050
 21
2118.9522
  0
LINE
  8
0-4
  6
CONTINUOUS
 62
    4
 10
1357.4999
 20
2113.9522
 11
1050
 21
2113.9522
  0
LINE
  8
0-4
  6
CONTINUOUS
 62
    4
 10
1357.4999
 20
2108.9522
 11
1050
 21
2108.9522
  0
LINE
  8
0-4
  6
CONTINUOUS
 62
    4
 10
1357.4999
 20
2103.9522
 11
1050
 21
2103.9522
  0
LINE
  8
0-4
  6
CONTINUOUS
 62
    4
 10
1357.4999
 20
2098.9521
 11
1050
 21
2098.9521
  0
LINE
  8
0-4
  6
CONTINUOUS
 62
    4
 10
1357.4999
 20
2093.9521
 11
1050
 21
2093.9521
  0
LINE
  8
0-4
  6
CONTINUOUS
 62
    4
 10
1357.4999
 20
2088.9524
 11
1050
 21
2088.9524
  0
LINE
  8
0-4
  6
CONTINUOUS
 62
    4
 10
1357.4999
 20
2083.9523
 11
1050
 21
2083.9523
  0
LINE
  8
0-4
  6
CONTINUOUS
 62
    4
 10
1357.4999
 20
2078.9523
 11
1050
 21
2078.9523
  0
LINE
  8
0-4
  6
CONTINUOUS
 62
    4
 10
1357.4999
 20
2073.9522
 11
1050
 21
2073.9522
  0
LINE
  8
0-4
  6
CONTINUOUS
 62
    4
 10
1352.4999
 20
2069.8625
 11
1352.4999
 21
2198.9522
  0
LINE
  8
0-4
  6
CONTINUOUS
 62
    4
 10
1347.4999
 20
2069.8625
 11
1347.4999
 21
2198.9522
  0
LINE
  8
0-4
  6
CONTINUOUS
 62
    4
 10
1342.4999
 20
2069.8625
 11
1342.4999
 21
2198.9522
  0
LINE
  8
0-4
  6
CONTINUOUS
 62
    4
 10
1337.5
 20
2069.8625
 11
1337.5
 21
2198.9522
  0
LINE
  8
0-4
  6
CONTINUOUS
 62
    4
 10
1332.5
 20
2069.8625
 11
1332.5
 21
2198.9522
  0
LINE
  8
0-4
  6
CONTINUOUS
 62
    4
 10
1327.4999
 20
2069.8625
 11
1327.4999
 21
2198.9522
  0
LINE
  8
0-4
  6
CONTINUOUS
 62
    4
 10
1322.4999
 20
2069.8625
 11
1322.4999
 21
2198.9522
  0
LINE
  8
0-4
  6
CONTINUOUS
 62
    4
 10
1317.4999
 20
2069.8625
 11
1317.4999
 21
2198.9522
  0
LINE
  8
0-4
  6
CONTINUOUS
 62
    4
 10
1312.4999
 20
2069.8625
 11
1312.4999
 21
2198.9522
  0
LINE
  8
0-4
  6
CONTINUOUS
 62
    4
 10
1307.4999
 20
2069.8625
 11
1307.4999
 21
2198.9522
  0
LINE
  8
0-4
  6
CONTINUOUS
 62
    4
 10
1302.4999
 20
2069.8625
 11
1302.4999
 21
2198.9522
  0
LINE
  8
0-4
  6
CONTINUOUS
 62
    4
 10
1297.5
 20
2069.8625
 11
1297.5
 21
2198.9522
  0
LINE
  8
0-4
  6
CONTINUOUS
 62
    4
 10
1292.4999
 20
2069.8625
 11
1292.4999
 21
2198.9522
  0
LINE
  8
0-4
  6
CONTINUOUS
 62
    4
 10
1287.4999
 20
2069.8625
 11
1287.4999
 21
2198.9522
  0
LINE
  8
0-4
  6
CONTINUOUS
 62
    4
 10
1282.4999
 20
2069.8625
 11
1282.4999
 21
2198.9522
  0
LINE
  8
0-4
  6
CONTINUOUS
 62
    4
 10
1277.4999
 20
2069.8625
 11
1277.4999
 21
2198.9522
  0
LINE
  8
0-4
  6
CONTINUOUS
 62
    4
 10
1272.4999
 20
2069.8625
 11
1272.4999
 21
2198.9522
  0
LINE
  8
0-4
  6
CONTINUOUS
 62
    4
 10
1267.4999
 20
2069.8625
 11
1267.4999
 21
2198.9522
  0
LINE
  8
0-4
  6
CONTINUOUS
 62
    4
 10
1262.4998
 20
2069.8625
 11
1262.4998
 21
2198.9522
  0
LINE
  8
0-4
  6
CONTINUOUS
 62
    4
 10
1257.5
 20
2069.8625
 11
1257.5
 21
2198.9522
  0
LINE
  8
0-4
  6
CONTINUOUS
 62
    4
 10
1252.4999
 20
2069.8625
 11
1252.4999
 21
2198.9522
  0
LINE
  8
0-4
  6
CONTINUOUS
 62
    4
 10
1247.4999
 20
2069.8625
 11
1247.4999
 21
2198.9522
  0
LINE
  8
0-4
  6
CONTINUOUS
 62
    4
 10
1242.4999
 20
2069.8625
 11
1242.4999
 21
2198.9522
  0
LINE
  8
0-4
  6
CONTINUOUS
 62
    4
 10
1237.4999
 20
2069.8625
 11
1237.4999
 21
2198.9522
  0
LINE
  8
0-4
  6
CONTINUOUS
 62
    4
 10
1232.4999
 20
2069.8625
 11
1232.4999
 21
2198.9522
  0
LINE
  8
0-4
  6
CONTINUOUS
 62
    4
 10
1227.4999
 20
2069.8625
 11
1227.4999
 21
2198.9522
  0
LINE
  8
0-4
  6
CONTINUOUS
 62
    4
 10
1222.4998
 20
2069.8625
 11
1222.4998
 21
2198.9522
  0
LINE
  8
0-4
  6
CONTINUOUS
 62
    4
 10
1217.4999
 20
2069.8625
 11
1217.4999
 21
2198.9522
  0
LINE
  8
0-4
  6
CONTINUOUS
 62
    4
 10
1212.4999
 20
2069.8625
 11
1212.4999
 21
2198.9522
  0
LINE
  8
0-4
  6
CONTINUOUS
 62
    4
 10
1207.4999
 20
2069.8625
 11
1207.4999
 21
2198.9522
  0
LINE
  8
0-4
  6
CONTINUOUS
 62
    4
 10
1202.4999
 20
2069.8625
 11
1202.4999
 21
2198.9522
  0
LINE
  8
0-4
  6
CONTINUOUS
 62
    4
 10
1197.4999
 20
2069.8625
 11
1197.4999
 21
2198.9522
  0
LINE
  8
0-4
  6
CONTINUOUS
 62
    4
 10
1192.4999
 20
2069.8625
 11
1192.4999
 21
2198.9522
  0
LINE
  8
0-4
  6
CONTINUOUS
 62
    4
 10
1187.4998
 20
2069.8625
 11
1187.4998
 21
2198.9522
  0
LINE
  8
0-4
  6
CONTINUOUS
 62
    4
 10
1182.4998
 20
2069.8625
 11
1182.4998
 21
2198.9522
  0
LINE
  8
0-4
  6
CONTINUOUS
 62
    4
 10
1177.4999
 20
2069.8625
 11
1177.4999
 21
2198.9522
  0
LINE
  8
0-4
  6
CONTINUOUS
 62
    4
 10
1172.4999
 20
2069.8625
 11
1172.4999
 21
2198.9522
  0
LINE
  8
0-4
  6
CONTINUOUS
 62
    4
 10
1167.4999
 20
2069.8625
 11
1167.4999
 21
2198.9522
  0
LINE
  8
0-4
  6
CONTINUOUS
 62
    4
 10
1162.4999
 20
2069.8625
 11
1162.4999
 21
2198.9522
  0
LINE
  8
0-4
  6
CONTINUOUS
 62
    4
 10
1157.4999
 20
2069.8625
 11
1157.4999
 21
2198.9522
  0
LINE
  8
0-4
  6
CONTINUOUS
 62
    4
 10
1152.4999
 20
2069.8625
 11
1152.4999
 21
2198.9522
  0
LINE
  8
0-4
  6
CONTINUOUS
 62
    4
 10
1147.4998
 20
2069.8625
 11
1147.4998
 21
2198.9522
  0
LINE
  8
0-4
  6
CONTINUOUS
 62
    4
 10
1142.4998
 20
2069.8625
 11
1142.4998
 21
2198.9522
  0
LINE
  8
0-4
  6
CONTINUOUS
 62
    4
 10
1137.4999
 20
2069.8625
 11
1137.4999
 21
2198.9522
  0
LINE
  8
0-4
  6
CONTINUOUS
 62
    4
 10
1132.4999
 20
2069.8625
 11
1132.4999
 21
2198.9522
  0
LINE
  8
0-4
  6
CONTINUOUS
 62
    4
 10
1127.4999
 20
2069.8625
 11
1127.4999
 21
2198.9522
  0
LINE
  8
0-4
  6
CONTINUOUS
 62
    4
 10
1122.4999
 20
2069.8625
 11
1122.4999
 21
2198.9522
  0
LINE
  8
0-4
  6
CONTINUOUS
 62
    4
 10
1117.4999
 20
2069.8625
 11
1117.4999
 21
2198.9522
  0
LINE
  8
0-4
  6
CONTINUOUS
 62
    4
 10
1112.4998
 20
2069.8625
 11
1112.4998
 21
2198.9522
  0
LINE
  8
0-4
  6
CONTINUOUS
 62
    4
 10
1107.4998
 20
2069.8625
 11
1107.4998
 21
2198.9522
  0
LINE
  8
0-4
  6
CONTINUOUS
 62
    4
 10
1102.4998
 20
2069.8625
 11
1102.4998
 21
2198.9522
  0
LINE
  8
0-4
  6
CONTINUOUS
 62
    4
 10
1097.4999
 20
2069.8625
 11
1097.4999
 21
2198.9522
  0
LINE
  8
0-4
  6
CONTINUOUS
 62
    4
 10
1092.4999
 20
2069.8625
 11
1092.4999
 21
2198.9522
  0
LINE
  8
0-4
  6
CONTINUOUS
 62
    4
 10
1087.4999
 20
2069.8625
 11
1087.4999
 21
2198.9522
  0
LINE
  8
0-4
  6
CONTINUOUS
 62
    4
 10
1082.4999
 20
2069.8625
 11
1082.4999
 21
2198.9522
  0
LINE
  8
0-4
  6
CONTINUOUS
 62
    4
 10
1077.4998
 20
2069.8625
 11
1077.4998
 21
2198.9522
  0
LINE
  8
0-4
  6
CONTINUOUS
 62
    4
 10
1072.4998
 20
2069.8625
 11
1072.4998
 21
2198.9522
  0
LINE
  8
0-4
  6
CONTINUOUS
 62
    4
 10
1067.4998
 20
2069.8625
 11
1067.4998
 21
2198.9522
  0
LINE
  8
0-4
  6
CONTINUOUS
 62
    4
 10
1062.4998
 20
2069.8625
 11
1062.4998
 21
2198.9522
  0
LINE
  8
0-4
  6
CONTINUOUS
 62
    4
 10
1057.4999
 20
2069.8625
 11
1057.4999
 21
2198.9522
  0
LINE
  8
0-4
  6
CONTINUOUS
 62
    4
 10
1052.4999
 20
2069.8625
 11
1052.4999
 21
2198.9522
  0
LINE
  8
0-2
  6
CONTINUOUS
 62
    3
 10
1362.7501
 20
1919.4209
 11
1362.7501
 21
1787.1374
  0
LINE
  8
0-2
  6
CONTINUOUS
 62
    3
 10
1524.8735
 20
1923.9548
 11
1357.4999
 21
1923.9548
  0
LINE
  8
0-2
  6
CONTINUOUS
 62
    3
 10
1530
 20
1970.5711
 11
1530
 21
1919.4212
  0
LINE
  8
0-2
  6
CONTINUOUS
 62
    3
 10
1524.8735
 20
1932.1643
 11
1357.4999
 21
1932.1643
  0
LINE
  8
0-2
  6
CONTINUOUS
 62
    3
 10
1360.05
 20
2031.5432
 11
1475.2432
 21
1926.9547
  0
LINE
  8
0-2
  6
CONTINUOUS
 62
    3
 10
1508.1827
 20
1926.9547
 11
1508.1827
 21
1919.4209
  0
LINE
  8
0-2
  6
CONTINUOUS
 62
    3
 10
1508.1827
 20
1926.9547
 11
1475.2432
 21
1926.9547
  0
LINE
  8
0-2
  6
CONTINUOUS
 62
    3
 10
1357.4999
 20
2030.3867
 11
1474.777
 21
1923.9548
  0
LINE
  8
0-2
  6
CONTINUOUS
 62
    3
 10
1493.4122
 20
1929.5696
 11
1493.4122
 21
1915.1095
  0
ARC
  8
0-2
  6
CONTINUOUS
 62
    3
 10
1530
 20
1976.9427
 40
6.3715979
 50
270
 51
90
  0
ARC
  8
0-2
  6
CONTINUOUS
 62
    3
 10
1530
 20
1925.7928
 40
6.3715979
 50
270
 51
90
  0
ARC
  8
0-2
  6
CONTINUOUS
 62
    3
 10
570.00005
 20
2006.6775
 40
6.3715979
 50
90
 51
270
  0
ARC
  8
0-2
  6
CONTINUOUS
 62
    3
 10
570.00005
 20
1955.7042
 40
6.3715979
 50
90
 51
270
  0
ARC
  8
0-2
  6
CONTINUOUS
 62
    3
 10
1357.4999
 20
1756.7659
 40
6.3715979
 50
270
 51
90
  0
ARC
  8
0-2
  6
CONTINUOUS
 62
    3
 10
1357.4999
 20
1705.7923
 40
6.3715979
 50
270
 51
90
  0
ARC
  8
0-2
  6
CONTINUOUS
 62
    3
 10
742.50013
 20
1756.7659
 40
6.3715979
 50
90
 51
270
  0
ARC
  8
0-2
  6
CONTINUOUS
 62
    3
 10
742.50013
 20
1705.7923
 40
6.3715979
 50
90
 51
270
  0
ARC
  8
0-3
  6
CONTINUOUS
 62
    3
 10
1096.5766
 20
1887.2935
 40
8.9937391
 50
0
 51
90
  0
ARC
  8
0-3
  6
CONTINUOUS
 62
    3
 10
1059.5017
 20
1917.1221
 40
5.9493573
 50
270
 51
0
  0
ARC
  8
0-3
  6
CONTINUOUS
 62
    3
 10
1059.5017
 20
1996.6342
 40
5.9493573
 50
0
 51
90
  0
ARC
  8
0-3
  6
CONTINUOUS
 62
    3
 10
1097.6134
 20
1837.155
 40
7.9590598
 50
270
 51
0
  0
ARC
  8
0-3
  6
CONTINUOUS
 62
    3
 10
1093.633
 20
1826.0195
 40
3.9795299
 50
270
 51
0
  0
ARC
  8
0-2
  6
CONTINUOUS
 62
    3
 10
1357.4999
 20
2063.4912
 40
6.3715979
 50
270
 51
90
  0
TEXT
  8
0-d
 10
254.9998
 20
157.4999
 40
25
 41
1
 50
0
  1
図
  0
TEXT
  8
0-d
 10
254.9998
 20
97.499963
 40
25
 41
1
 50
0
  1
番
  0
TEXT
  8
0-d
 10
655.00046
 20
157.4999
 40
25
 41
1
 50
0
  1
承
  0
TEXT
  8
0-d
 10
655.00046
 20
97.499963
 40
25
 41
1
 50
0
  1
認
  0
TEXT
  8
0-d
 10
1020.0003
 20
237.49994
 40
25
 41
1
 50
0
  1
尺
  0
TEXT
  8
0-d
 10
1020.0003
 20
197.49978
 40
25
 41
1
 50
0.0000762
  1
度
  0
TEXT
  8
0-d
 10
855.00014
 20
157.4999
 40
25
 41
1
 50
0
  1
製
  0
TEXT
  8
0-d
 10
855.00014
 20
97.499963
 40
25
 41
1
 50
0
  1
図
  0
TEXT
  8
0-d
 10
1555.0001
 20
237.49994
 40
25
 41
1
 50
0
  1
日
  0
TEXT
  8
0-d
 10
1555.0001
 20
197.49978
 40
25
 41
1
 50
0.0000762
  1
付
  0
TEXT
  8
0-d
 10
1111.4263
 20
163.48226
 40
20
 41
1
 50
0
  1
株式
  0
TEXT
  8
0-d
 10
1111.4263
 20
141.85179
 40
20
 41
1
 50
0.0000152
  1
会社
  0
TEXT
  8
0-d
 10
1174.2247
 20
143.24712
 40
40
 41
1
 50
0
  1
スズキベンチレーター
  0
TEXT
  8
0-d
 10
1237.9182
 20
94.024183
 40
20
 41
1
 50
0
  1
TEL(054)296-7000  FAX(054)296-7001
  0
TEXT
  8
0-8
 10
1008.1139
 20
2392.0446
 40
30
 41
1
 50
0.0001678
  1
  960
  0
TEXT
  8
0-8
 10
1035.6247
 20
1587.6581
 40
30
 41
1
 50
0.0001678
  1
615φ
  0
TEXT
  8
0-8
 10
287.56665
 20
1961.3782
 40
30
 41
1
 50
90
  1
570
  0
TEXT
  8
0-8
 10
1708.9194
 20
2205.8922
 40
30
 41
1
 50
90
  1
110
  0
TEXT
  8
0-8
 10
1708.9194
 20
2015.759
 40
30
 41
1
 50
90
  1
240
  0
TEXT
  8
0-8
 10
1708.9194
 20
1785.98
 40
30
 41
1
 50
90
  1
220
  0
TEXT
  8
0-d
 10
1084.349
 20
210.10065
 40
40
 41
1
 50
0
  1
１／１０
  0
TEXT
  8
0-d
 10
255.00005
 20
2792.7014
 40
50
 41
1
 50
0
  1
ＳＴ－６０　直付型（網付）断面
  0
TEXT
  8
0-d
 10
280.67567
 20
215.81082
 40
30
 41
1
 50
0
  1
ＳＴ－６０　直付型（網付）断面
  0
TEXT
  8
0-d
 10
308.45927
 20
140.30214
 40
30
 41
1
 50
0
  1
60-D04a
  0
TEXT
  8
0-d
 10
1235.6792
 20
118.64593
 40
20
 41
1
 50
0
  1
〒421-2114　静岡市葵区安倍口新田１５２番地
  0
POINT
  8
0-8
 62
    2
 10
330.53136
 20
1699.4204
  0
POINT
  8
0-8
 62
    2
 10
330.53136
 20
2269.8628
  0
POINT
  8
0-8
 62
    2
 10
570.00005
 20
2371.0568
  0
POINT
  8
0-8
 62
    2
 10
1530
 20
2371.0568
  0
POINT
  8
0-8
 62
    2
 10
742.50013
 20
1553.1892
  0
POINT
  8
0-8
 62
    2
 10
1357.4999
 20
1553.1892
  0
POINT
  8
0-8
 62
    2
 10
1718.919
 20
1699.4204
  0
POINT
  8
0-8
 62
    2
 10
1718.919
 20
1919.4209
  0
POINT
  8
0-8
 62
    2
 10
1718.919
 20
2159.421
  0
POINT
  8
0-8
 62
    2
 10
1718.919
 20
2269.8633
  0
ENDSEC
  0
EOF
