  0
SECTION
  2
HEADER
  9
$EXTMIN
 10
0
 20
0
  9
$EXTMAX
 10
4200
 20
2970
  0
ENDSEC
  0
SECTION
  2
TABLES
  0
TABLE
  2
LTYPE
 70
     9
  0
LTYPE
  2
CONTINUOUS
 70
    64
  3
実線
 72
    65
 73
     0
 40
0.0
  0
LTYPE
  2
DASHED1
 70
    64
  3
--  --  --  --  --  --  --  --  
 72
    65
 73
     2
 40
2.5
 49
1.25
 49
-1.25
  0
LTYPE
  2
DASHED2
 70
    64
  3
----    ----    ----    ----    
 72
    65
 73
     2
 40
5.0
 49
2.5
 49
-2.5
  0
LTYPE
  2
DASHED3
 70
    64
  3
------  ------  ------  ------  
 72
    65
 73
     2
 40
5.0
 49
3.75
 49
-1.25
  0
LTYPE
  2
CENTER1
 70
    64
  3
----- - ----- - ----- - ----- - 
 72
    65
 73
     4
 40
10.0
 49
6.25
 49
-1.25
 49
1.25
 49
-1.25
  0
LTYPE
  2
CENTER2
 70
    64
  3
----------  --  ----------  --  
 72
    65
 73
     4
 40
20.0
 49
12.5
 49
-2.5
 49
2.5
 49
-2.5
  0
LTYPE
  2
PHANTOM1
 70
    64
  3
--- - - --- - - --- - - --- - - 
 72
    65
 73
     6
 40
10.0
 49
3.25
 49
-1.25
 49
1.25
 49
-1.25
 49
1.25
 49
-1.25
  0
LTYPE
  2
PHANTOM2
 70
    64
  3
--------  -  -  --------  -  -  
 72
    65
 73
     6
 40
20.0
 49
10.0
 49
-2.5
 49
1.25
 49
-2.5
 49
1.25
 49
-2.5
  0
LTYPE
  2
DOT
 70
    64
  3
-   -   -   -   -   -   -   -   
 72
    65
 73
     2
 40
2.5
 49
0.625
 49
-1.875
  0
ENDTAB
  0
TABLE
  2
STYLE
 70
    1
  0
STYLE
  2
STANDARD
 70
    64
 40
0.0
 41
1.0
 42
0.0
 50
0.0
 71
     0
  3
TXT
  4
BIGFONT
  0
ENDTAB
  0
TABLE
  2
LAYER
 70
    8
  0
LAYER
  2
0-0
 70
   64
 62
    7
  6
CONTINUOUS
  0
LAYER
  2
0-1
 70
   64
 62
    7
  6
CONTINUOUS
  0
LAYER
  2
0-2
 70
   64
 62
    7
  6
CONTINUOUS
  0
LAYER
  2
0-3
 70
   64
 62
    7
  6
CONTINUOUS
  0
LAYER
  2
0-4
 70
   64
 62
    7
  6
CONTINUOUS
  0
LAYER
  2
0-8
 70
   64
 62
    7
  6
CONTINUOUS
  0
LAYER
  2
0-d
 70
   64
 62
    7
  6
CONTINUOUS
  0
LAYER
  2
ADD_LINE
 70
   64
 62
    7
  6
CONTINUOUS
  0
ENDTAB
  0
ENDSEC
  0
SECTION
  2
ENTITIES
  0
LINE
  8
0-d
  6
CONTINUOUS
 62
    7
 10
250.00004
 20
2757.7013
 11
1850.0001
 21
2757.7013
  0
LINE
  8
0-d
  6
CONTINUOUS
 62
    7
 10
250.00004
 20
2767.7016
 11
1850.0001
 21
2767.7016
  0
LINE
  8
0-d
  6
CONTINUOUS
 62
    7
 10
249.99967
 20
189.99989
 11
1850.0003
 21
189.99989
  0
LINE
  8
0-d
  6
CONTINUOUS
 62
    7
 10
249.99967
 20
89.999806
 11
249.99967
 21
269.99991
  0
LINE
  8
0-d
  6
CONTINUOUS
 62
    7
 10
249.99967
 20
89.999806
 11
1850.0003
 21
89.999806
  0
LINE
  8
0-d
  6
CONTINUOUS
 62
    7
 10
1850.0003
 20
269.99991
 11
1850.0003
 21
89.999806
  0
LINE
  8
0-d
  6
CONTINUOUS
 62
    7
 10
249.99967
 20
269.99991
 11
1850.0003
 21
269.99991
  0
LINE
  8
0-d
  6
CONTINUOUS
 62
    7
 10
1050
 20
269.99991
 11
1050
 21
89.999806
  0
LINE
  8
0-d
  6
CONTINUOUS
 62
    7
 10
650.00019
 20
89.999806
 11
650.00019
 21
189.99989
  0
LINE
  8
0-d
  6
CONTINUOUS
 62
    7
 10
1050
 20
189.99989
 11
1050
 21
269.99991
  0
LINE
  8
0-d
  6
CONTINUOUS
 62
    7
 10
849.99975
 20
89.999806
 11
849.99975
 21
189.99989
  0
LINE
  8
0-d
  6
CONTINUOUS
 62
    7
 10
285.00002
 20
89.999806
 11
285.00002
 21
189.99989
  0
LINE
  8
0-d
  6
CONTINUOUS
 62
    7
 10
685.00006
 20
89.999806
 11
685.00006
 21
189.99989
  0
LINE
  8
0-d
  6
CONTINUOUS
 62
    7
 10
885.00011
 20
89.999806
 11
885.00011
 21
189.99989
  0
LINE
  8
0-d
  6
CONTINUOUS
 62
    7
 10
1015
 20
189.99989
 11
1015
 21
269.99991
  0
LINE
  8
0-d
  6
CONTINUOUS
 62
    7
 10
1550.0004
 20
189.99989
 11
1550.0004
 21
269.99991
  0
LINE
  8
0-d
  6
CONTINUOUS
 62
    7
 10
1585.0002
 20
189.99989
 11
1585.0002
 21
269.99991
  0
LINE
  8
0-1
  6
CENTER2
 62
    7
 10
1050
 20
2529.7298
 11
1050
 21
1427.027
  0
LINE
  8
ADD_LINE
  6
DOT
 62
    7
 10
742.50001
 20
1516.5687
 11
742.50001
 21
2148.6487
  0
LINE
  8
ADD_LINE
  6
DOT
 62
    7
 10
570.00005
 20
2472.973
 11
570.00005
 21
1508.1081
  0
LINE
  8
ADD_LINE
  6
DOT
 62
    7
 10
178.37838
 20
2269.4211
 11
1805.1117
 21
2269.4211
  0
LINE
  8
ADD_LINE
  6
DOT
 62
    7
 10
178.37838
 20
2159.4212
 11
1805.1117
 21
2159.4212
  0
LINE
  8
ADD_LINE
  6
DOT
 62
    7
 10
178.37838
 20
1919.4209
 11
1819.0365
 21
1919.4209
  0
LINE
  8
0-8
  6
CONTINUOUS
 62
    7
 10
570.00005
 20
1659.4211
 11
330.53136
 21
1659.4211
  0
LINE
  8
0-8
  6
CONTINUOUS
 62
    7
 10
570.00005
 20
2370.6149
 11
1530.0001
 21
2370.6149
  0
LINE
  8
0-8
  6
CONTINUOUS
 62
    7
 10
570.00005
 20
2214.9403
 11
570.00005
 21
2370.6149
  0
LINE
  8
0-8
  6
CONTINUOUS
 62
    7
 10
710.26565
 20
2269.4211
 11
330.53136
 21
2269.4211
  0
LINE
  8
0-8
  6
CONTINUOUS
 62
    7
 10
1530.0001
 20
2214.9403
 11
1530.0001
 21
2370.6149
  0
LINE
  8
0-2
  6
CONTINUOUS
 62
    3
 10
570.00005
 20
2000.1289
 11
570.00005
 21
1961.8989
  0
LINE
  8
0-2
  6
CONTINUOUS
 62
    3
 10
570.00005
 20
1949.1558
 11
570.00005
 21
1919.4209
  0
LINE
  8
0-2
  6
CONTINUOUS
 62
    3
 10
1360.05
 20
2042.587
 11
1360.05
 21
2031.3661
  0
LINE
  8
0-2
  6
CONTINUOUS
 62
    3
 10
1493.4124
 20
1930.1549
 11
1493.4124
 21
1924.7436
  0
LINE
  8
0-2
  6
CONTINUOUS
 62
    3
 10
1508.1826
 20
1926.5049
 11
1508.1826
 21
1923.9548
  0
LINE
  8
0-2
  6
CONTINUOUS
 62
    3
 10
1352.8802
 20
2036.8236
 11
1363.9586
 21
2036.8236
  0
LINE
  8
0-2
  6
CONTINUOUS
 62
    3
 10
1353.4078
 20
1806.5395
 11
1366.0683
 21
1806.5395
  0
LINE
  8
0-2
  6
CONTINUOUS
 62
    3
 10
570.00005
 20
2159.4212
 11
1050
 21
2158.9793
  0
LINE
  8
0-2
  6
CONTINUOUS
 62
    3
 10
570.00005
 20
2012.872
 11
1050
 21
2012.872
  0
LINE
  8
0-2
  6
CONTINUOUS
 62
    3
 10
570.00005
 20
2000.1289
 11
1050
 21
2000.1289
  0
LINE
  8
0-2
  6
CONTINUOUS
 62
    3
 10
570.00005
 20
1961.8989
 11
1050
 21
1961.8989
  0
LINE
  8
0-2
  6
CONTINUOUS
 62
    3
 10
570.00005
 20
1949.1558
 11
1050
 21
1949.1558
  0
LINE
  8
0-2
  6
CONTINUOUS
 62
    3
 10
570.00005
 20
1919.4209
 11
1050
 21
1919.4209
  0
LINE
  8
0-3
  6
CONTINUOUS
 62
    3
 10
1071.7952
 20
1983.4031
 11
1077.5311
 21
1986.9286
  0
LINE
  8
0-3
  6
CONTINUOUS
 62
    3
 10
1077.5311
 20
1986.9286
 11
1083.2401
 21
1990.5244
  0
LINE
  8
0-3
  6
CONTINUOUS
 62
    3
 10
1083.2401
 20
1990.5244
 11
1088.8951
 21
1994.2543
  0
LINE
  8
0-3
  6
CONTINUOUS
 62
    3
 10
1088.8951
 20
1994.2543
 11
1094.4325
 21
1998.1916
  0
LINE
  8
0-3
  6
CONTINUOUS
 62
    3
 10
1094.4325
 20
1998.1916
 11
1099.7532
 21
2002.4154
  0
LINE
  8
0-3
  6
CONTINUOUS
 62
    3
 10
1099.7532
 20
2002.4154
 11
1104.7433
 21
2006.9955
  0
LINE
  8
0-3
  6
CONTINUOUS
 62
    3
 10
1104.7433
 20
2006.9955
 11
1109.2952
 21
2012.013
  0
LINE
  8
0-3
  6
CONTINUOUS
 62
    3
 10
1109.2952
 20
2012.013
 11
1113.2998
 21
2017.5379
  0
LINE
  8
0-3
  6
CONTINUOUS
 62
    3
 10
1113.2998
 20
2017.5379
 11
1116.7914
 21
2023.5141
  0
LINE
  8
0-3
  6
CONTINUOUS
 62
    3
 10
1116.7914
 20
2023.5141
 11
1120.091
 21
2029.6169
  0
LINE
  8
0-3
  6
CONTINUOUS
 62
    3
 10
1120.091
 20
2029.6169
 11
1123.5332
 21
2035.502
  0
LINE
  8
0-3
  6
CONTINUOUS
 62
    3
 10
1123.5332
 20
2035.502
 11
1127.4712
 21
2040.8244
  0
LINE
  8
0-3
  6
CONTINUOUS
 62
    3
 10
1127.4712
 20
2040.8244
 11
1132.2384
 21
2045.2373
  0
LINE
  8
0-3
  6
CONTINUOUS
 62
    3
 10
1132.2384
 20
2045.2373
 11
1137.9399
 21
2048.649
  0
LINE
  8
0-3
  6
CONTINUOUS
 62
    3
 10
1137.9399
 20
2048.649
 11
1144.2281
 21
2051.4366
  0
LINE
  8
0-3
  6
CONTINUOUS
 62
    3
 10
1144.2281
 20
2051.4366
 11
1147.2043
 21
2052.6258
  0
LINE
  8
0-3
  6
CONTINUOUS
 62
    3
 10
1144.2281
 20
2051.4366
 11
1148.368
 21
2052.0948
  0
LINE
  8
0-3
  6
CONTINUOUS
 62
    3
 10
1148.368
 20
2052.0948
 11
1152.5458
 21
2052.6669
  0
LINE
  8
0-3
  6
CONTINUOUS
 62
    3
 10
1152.5458
 20
2052.6669
 11
1156.7933
 21
2053.0772
  0
LINE
  8
0-3
  6
CONTINUOUS
 62
    3
 10
1156.7933
 20
2053.0772
 11
1161.1438
 21
2053.2321
  0
LINE
  8
0-3
  6
CONTINUOUS
 62
    3
 10
1161.1438
 20
2053.2321
 11
1165.6272
 21
2053.0564
  0
LINE
  8
0-3
  6
CONTINUOUS
 62
    3
 10
1165.6272
 20
2053.0564
 11
1170.1135
 21
2052.4027
  0
LINE
  8
0-3
  6
CONTINUOUS
 62
    3
 10
1170.1135
 20
2052.4027
 11
1174.2992
 21
2051.0922
  0
LINE
  8
0-3
  6
CONTINUOUS
 62
    3
 10
1174.2992
 20
2051.0922
 11
1177.8668
 21
2048.9192
  0
LINE
  8
0-3
  6
CONTINUOUS
 62
    3
 10
1177.8668
 20
2048.9192
 11
1180.5594
 21
2045.744
  0
LINE
  8
0-3
  6
CONTINUOUS
 62
    3
 10
1180.5594
 20
2045.744
 11
1182.6579
 21
2041.9315
  0
LINE
  8
0-3
  6
CONTINUOUS
 62
    3
 10
1069.5433
 20
1967.6471
 11
1076.2652
 21
1968.6448
  0
LINE
  8
0-3
  6
CONTINUOUS
 62
    3
 10
1076.2652
 20
1968.6448
 11
1082.9454
 21
1969.7746
  0
LINE
  8
0-3
  6
CONTINUOUS
 62
    3
 10
1082.9454
 20
1969.7746
 11
1089.5523
 21
1971.1543
  0
LINE
  8
0-3
  6
CONTINUOUS
 62
    3
 10
1089.5523
 20
1971.1543
 11
1096.0406
 21
1972.9205
  0
LINE
  8
0-3
  6
CONTINUOUS
 62
    3
 10
1096.0406
 20
1972.9205
 11
1102.3768
 21
1975.193
  0
LINE
  8
0-3
  6
CONTINUOUS
 62
    3
 10
1102.3768
 20
1975.193
 11
1108.5252
 21
1978.0049
  0
LINE
  8
0-3
  6
CONTINUOUS
 62
    3
 10
1108.5252
 20
1978.0049
 11
1114.4593
 21
1981.3008
  0
LINE
  8
0-3
  6
CONTINUOUS
 62
    3
 10
1114.4593
 20
1981.3008
 11
1120.1465
 21
1985.0426
  0
LINE
  8
0-3
  6
CONTINUOUS
 62
    3
 10
1120.1465
 20
1985.0426
 11
1125.56
 21
1989.164
  0
LINE
  8
0-3
  6
CONTINUOUS
 62
    3
 10
1125.56
 20
1989.164
 11
1130.6745
 21
1993.6253
  0
LINE
  8
0-3
  6
CONTINUOUS
 62
    3
 10
1130.6745
 20
1993.6253
 11
1135.5283
 21
1998.346
  0
LINE
  8
0-3
  6
CONTINUOUS
 62
    3
 10
1135.5283
 20
1998.346
 11
1140.2198
 21
2003.2176
  0
LINE
  8
0-3
  6
CONTINUOUS
 62
    3
 10
1140.2198
 20
2003.2176
 11
1144.8519
 21
2008.1337
  0
LINE
  8
0-3
  6
CONTINUOUS
 62
    3
 10
1144.8519
 20
2008.1337
 11
1149.5228
 21
2012.985
  0
LINE
  8
0-3
  6
CONTINUOUS
 62
    3
 10
1149.5228
 20
2012.985
 11
1154.3387
 21
2017.6656
  0
LINE
  8
0-3
  6
CONTINUOUS
 62
    3
 10
1154.3387
 20
2017.6656
 11
1159.3919
 21
2022.0824
  0
LINE
  8
0-3
  6
CONTINUOUS
 62
    3
 10
1159.3919
 20
2022.0824
 11
1164.6762
 21
2026.2324
  0
LINE
  8
0-3
  6
CONTINUOUS
 62
    3
 10
1164.6762
 20
2026.2324
 11
1170.1489
 21
2030.1781
  0
LINE
  8
0-3
  6
CONTINUOUS
 62
    3
 10
1170.1489
 20
2030.1781
 11
1175.7521
 21
2033.9714
  0
LINE
  8
0-3
  6
CONTINUOUS
 62
    3
 10
1175.7521
 20
2033.9714
 11
1181.4433
 21
2037.6686
  0
LINE
  8
0-3
  6
CONTINUOUS
 62
    3
 10
1181.4433
 20
2037.6686
 11
1185.4721
 21
2040.2435
  0
LINE
  8
0-3
  6
CONTINUOUS
 62
    3
 10
1185.4721
 20
2040.2435
 11
1191.7595
 21
2042.852
  0
LINE
  8
0-3
  6
CONTINUOUS
 62
    3
 10
1191.7595
 20
2042.852
 11
1198.0826
 21
2045.2868
  0
LINE
  8
0-3
  6
CONTINUOUS
 62
    3
 10
1198.0826
 20
2045.2868
 11
1204.4807
 21
2047.3767
  0
LINE
  8
0-3
  6
CONTINUOUS
 62
    3
 10
1204.4807
 20
2047.3767
 11
1210.9903
 21
2048.9519
  0
LINE
  8
0-3
  6
CONTINUOUS
 62
    3
 10
1210.9903
 20
2048.9519
 11
1217.6274
 21
2049.9164
  0
LINE
  8
0-3
  6
CONTINUOUS
 62
    3
 10
1217.6274
 20
2049.9164
 11
1224.3605
 21
2050.3395
  0
LINE
  8
0-3
  6
CONTINUOUS
 62
    3
 10
1224.3605
 20
2050.3395
 11
1231.1505
 21
2050.3153
  0
LINE
  8
0-3
  6
CONTINUOUS
 62
    3
 10
1231.1505
 20
2050.3153
 11
1237.96
 21
2049.9332
  0
LINE
  8
0-3
  6
CONTINUOUS
 62
    3
 10
1237.96
 20
2049.9332
 11
1244.7572
 21
2049.2884
  0
LINE
  8
0-3
  6
CONTINUOUS
 62
    3
 10
1244.7572
 20
2049.2884
 11
1251.5019
 21
2048.459
  0
LINE
  8
0-3
  6
CONTINUOUS
 62
    3
 10
1251.5019
 20
2048.459
 11
1258.1882
 21
2047.4271
  0
LINE
  8
0-3
  6
CONTINUOUS
 62
    3
 10
1258.1882
 20
2047.4271
 11
1264.8166
 21
2046.1716
  0
LINE
  8
0-3
  6
CONTINUOUS
 62
    3
 10
1264.8166
 20
2046.1716
 11
1271.3782
 21
2044.6484
  0
LINE
  8
0-3
  6
CONTINUOUS
 62
    3
 10
1271.3782
 20
2044.6484
 11
1277.8775
 21
2042.8307
  0
LINE
  8
0-3
  6
CONTINUOUS
 62
    3
 10
1277.8775
 20
2042.8307
 11
1284.3114
 21
2040.679
  0
LINE
  8
0-3
  6
CONTINUOUS
 62
    3
 10
1284.3114
 20
2040.679
 11
1290.6533
 21
2038.163
  0
LINE
  8
0-3
  6
CONTINUOUS
 62
    3
 10
1290.6533
 20
2038.163
 11
1296.8447
 21
2035.2546
  0
LINE
  8
0-3
  6
CONTINUOUS
 62
    3
 10
1296.8447
 20
2035.2546
 11
1302.7947
 21
2031.9354
  0
LINE
  8
0-3
  6
CONTINUOUS
 62
    3
 10
1302.7947
 20
2031.9354
 11
1308.4279
 21
2028.1733
  0
LINE
  8
0-3
  6
CONTINUOUS
 62
    3
 10
1308.4279
 20
2028.1733
 11
1313.6598
 21
2023.9431
  0
LINE
  8
0-3
  6
CONTINUOUS
 62
    3
 10
1313.6598
 20
2023.9431
 11
1318.4193
 21
2019.2314
  0
LINE
  8
0-3
  6
CONTINUOUS
 62
    3
 10
1318.4193
 20
2019.2314
 11
1322.768
 21
2014.1069
  0
LINE
  8
0-3
  6
CONTINUOUS
 62
    3
 10
1322.768
 20
2014.1069
 11
1326.8142
 21
2008.6825
  0
LINE
  8
0-3
  6
CONTINUOUS
 62
    3
 10
1326.8142
 20
2008.6825
 11
1330.6718
 21
2003.075
  0
LINE
  8
0-3
  6
CONTINUOUS
 62
    3
 10
1330.6718
 20
2003.075
 11
1332.9131
 21
1999.7257
  0
LINE
  8
0-3
  6
CONTINUOUS
 62
    3
 10
1330.6718
 20
2003.075
 11
1333.6878
 21
1996.8292
  0
LINE
  8
0-3
  6
CONTINUOUS
 62
    3
 10
1333.6878
 20
1996.8292
 11
1336.5442
 21
1990.5546
  0
LINE
  8
0-3
  6
CONTINUOUS
 62
    3
 10
1336.5442
 20
1990.5546
 11
1339.0845
 21
1984.2369
  0
LINE
  8
0-3
  6
CONTINUOUS
 62
    3
 10
1339.0845
 20
1984.2369
 11
1341.1484
 21
1977.8406
  0
LINE
  8
0-3
  6
CONTINUOUS
 62
    3
 10
1341.1484
 20
1977.8406
 11
1342.5778
 21
1971.3483
  0
LINE
  8
0-3
  6
CONTINUOUS
 62
    3
 10
1342.5778
 20
1971.3483
 11
1343.2204
 21
1964.7342
  0
LINE
  8
0-3
  6
CONTINUOUS
 62
    3
 10
1343.2204
 20
1964.7342
 11
1343.0363
 21
1958.0251
  0
LINE
  8
0-3
  6
CONTINUOUS
 62
    3
 10
1343.0363
 20
1958.0251
 11
1342.1369
 21
1951.2864
  0
LINE
  8
0-3
  6
CONTINUOUS
 62
    3
 10
1342.1369
 20
1951.2864
 11
1340.6386
 21
1944.5956
  0
LINE
  8
0-3
  6
CONTINUOUS
 62
    3
 10
1340.6386
 20
1944.5956
 11
1338.6443
 21
1938.0305
  0
LINE
  8
0-3
  6
CONTINUOUS
 62
    3
 10
1338.6443
 20
1938.0305
 11
1336.1864
 21
1931.6807
  0
LINE
  8
0-3
  6
CONTINUOUS
 62
    3
 10
1336.1864
 20
1931.6807
 11
1333.1996
 21
1925.6363
  0
LINE
  8
0-3
  6
CONTINUOUS
 62
    3
 10
1333.1996
 20
1925.6363
 11
1329.6115
 21
1919.9912
  0
LINE
  8
0-3
  6
CONTINUOUS
 62
    3
 10
1329.6115
 20
1919.9912
 11
1325.4305
 21
1914.7776
  0
LINE
  8
0-3
  6
CONTINUOUS
 62
    3
 10
1325.4305
 20
1914.7776
 11
1320.7826
 21
1909.9001
  0
LINE
  8
0-3
  6
CONTINUOUS
 62
    3
 10
1320.7826
 20
1909.9001
 11
1315.8142
 21
1905.2571
  0
LINE
  8
0-3
  6
CONTINUOUS
 62
    3
 10
1315.8142
 20
1905.2571
 11
1310.6653
 21
1900.7493
  0
LINE
  8
0-3
  6
CONTINUOUS
 62
    3
 10
1310.6653
 20
1900.7493
 11
1309.2764
 21
1899.5556
  0
LINE
  8
0-3
  6
CONTINUOUS
 62
    3
 10
1310.6653
 20
1900.7493
 11
1304.7544
 21
1897.4355
  0
LINE
  8
0-3
  6
CONTINUOUS
 62
    3
 10
1304.7544
 20
1897.4355
 11
1298.8218
 21
1894.1837
  0
LINE
  8
0-3
  6
CONTINUOUS
 62
    3
 10
1298.8218
 20
1894.1837
 11
1292.8404
 21
1891.0496
  0
LINE
  8
0-3
  6
CONTINUOUS
 62
    3
 10
1292.8404
 20
1891.0496
 11
1286.7767
 21
1888.0937
  0
LINE
  8
0-3
  6
CONTINUOUS
 62
    3
 10
1286.7767
 20
1888.0937
 11
1280.6159
 21
1885.3733
  0
LINE
  8
0-3
  6
CONTINUOUS
 62
    3
 10
1280.6159
 20
1885.3733
 11
1274.3233
 21
1882.9479
  0
LINE
  8
0-3
  6
CONTINUOUS
 62
    3
 10
1274.3233
 20
1882.9479
 11
1267.8982
 21
1880.8518
  0
LINE
  8
0-3
  6
CONTINUOUS
 62
    3
 10
1267.8982
 20
1880.8518
 11
1261.3663
 21
1879.0922
  0
LINE
  8
0-3
  6
CONTINUOUS
 62
    3
 10
1261.3663
 20
1879.0922
 11
1254.7537
 21
1877.6674
  0
LINE
  8
0-3
  6
CONTINUOUS
 62
    3
 10
1254.7537
 20
1877.6674
 11
1248.0803
 21
1876.5772
  0
LINE
  8
0-3
  6
CONTINUOUS
 62
    3
 10
1248.0803
 20
1876.5772
 11
1241.3774
 21
1875.8141
  0
LINE
  8
0-3
  6
CONTINUOUS
 62
    3
 10
1241.3774
 20
1875.8141
 11
1234.6527
 21
1875.3205
  0
LINE
  8
0-3
  6
CONTINUOUS
 62
    3
 10
1234.6527
 20
1875.3205
 11
1227.91
 21
1875.0327
  0
LINE
  8
0-3
  6
CONTINUOUS
 62
    3
 10
1227.91
 20
1875.0327
 11
1221.1529
 21
1874.8763
  0
LINE
  8
0-3
  6
CONTINUOUS
 62
    3
 10
1221.1529
 20
1874.8763
 11
1215.2955
 21
1874.7939
  0
LINE
  8
0-3
  6
CONTINUOUS
 62
    3
 10
1139.7927
 20
1874.1731
 11
1146.1133
 21
1871.6153
  0
LINE
  8
0-3
  6
CONTINUOUS
 62
    3
 10
1146.1133
 20
1871.6153
 11
1152.4693
 21
1869.0865
  0
LINE
  8
0-3
  6
CONTINUOUS
 62
    3
 10
1152.4693
 20
1869.0865
 11
1158.8854
 21
1866.7563
  0
LINE
  8
0-3
  6
CONTINUOUS
 62
    3
 10
1158.8854
 20
1866.7563
 11
1165.3631
 21
1864.8134
  0
LINE
  8
0-3
  6
CONTINUOUS
 62
    3
 10
1165.3631
 20
1864.8134
 11
1171.9205
 21
1863.4434
  0
LINE
  8
0-3
  6
CONTINUOUS
 62
    3
 10
1171.9205
 20
1863.4434
 11
1178.5705
 21
1862.8293
  0
LINE
  8
0-3
  6
CONTINUOUS
 62
    3
 10
1178.5705
 20
1862.8293
 11
1185.2989
 21
1862.9257
  0
LINE
  8
0-3
  6
CONTINUOUS
 62
    3
 10
1185.2989
 20
1862.9257
 11
1192.0753
 21
1863.4253
  0
LINE
  8
0-3
  6
CONTINUOUS
 62
    3
 10
1192.0753
 20
1863.4253
 11
1193.3488
 21
1863.5376
  0
LINE
  8
0-3
  6
CONTINUOUS
 62
    3
 10
1192.0753
 20
1863.4253
 11
1197.6169
 21
1864.6613
  0
LINE
  8
0-3
  6
CONTINUOUS
 62
    3
 10
1197.6169
 20
1864.6613
 11
1202.9354
 21
1866.3711
  0
LINE
  8
0-3
  6
CONTINUOUS
 62
    3
 10
1202.9354
 20
1866.3711
 11
1207.8156
 21
1869.0338
  0
LINE
  8
0-3
  6
CONTINUOUS
 62
    3
 10
1207.8156
 20
1869.0338
 11
1211.9759
 21
1872.8542
  0
LINE
  8
0-3
  6
CONTINUOUS
 62
    3
 10
1211.9759
 20
1872.8542
 11
1215.0604
 21
1877.6427
  0
LINE
  8
0-3
  6
CONTINUOUS
 62
    3
 10
1215.0604
 20
1877.6427
 11
1216.7406
 21
1883.1178
  0
LINE
  8
0-3
  6
CONTINUOUS
 62
    3
 10
1216.7406
 20
1883.1178
 11
1216.8643
 21
1888.7806
  0
LINE
  8
0-3
  6
CONTINUOUS
 62
    3
 10
1216.8643
 20
1888.7806
 11
1215.366
 21
1894.0862
  0
LINE
  8
0-3
  6
CONTINUOUS
 62
    3
 10
1215.366
 20
1894.0862
 11
1212.5653
 21
1898.9123
  0
LINE
  8
0-3
  6
CONTINUOUS
 62
    3
 10
1212.5653
 20
1898.9123
 11
1209.1065
 21
1903.4944
  0
LINE
  8
0-3
  6
CONTINUOUS
 62
    3
 10
1079.2669
 20
1958.9125
 11
1086.078
 21
1957.7525
  0
LINE
  8
0-3
  6
CONTINUOUS
 62
    3
 10
1086.078
 20
1957.7525
 11
1092.8655
 21
1956.7894
  0
LINE
  8
0-3
  6
CONTINUOUS
 62
    3
 10
1092.8655
 20
1956.7894
 11
1099.604
 21
1956.2169
  0
LINE
  8
0-3
  6
CONTINUOUS
 62
    3
 10
1099.604
 20
1956.2169
 11
1106.2698
 21
1956.2272
  0
LINE
  8
0-3
  6
CONTINUOUS
 62
    3
 10
1106.2698
 20
1956.2272
 11
1112.8376
 21
1957.0116
  0
LINE
  8
0-3
  6
CONTINUOUS
 62
    3
 10
1112.8376
 20
1957.0116
 11
1119.3091
 21
1958.6046
  0
LINE
  8
0-3
  6
CONTINUOUS
 62
    3
 10
1119.3091
 20
1958.6046
 11
1125.698
 21
1960.7905
  0
LINE
  8
0-3
  6
CONTINUOUS
 62
    3
 10
1125.698
 20
1960.7905
 11
1132.035
 21
1963.355
  0
LINE
  8
0-3
  6
CONTINUOUS
 62
    3
 10
1132.035
 20
1963.355
 11
1138.3328
 21
1966.065
  0
LINE
  8
0-3
  6
CONTINUOUS
 62
    3
 10
1138.3328
 20
1966.065
 11
1144.6237
 21
1968.7254
  0
LINE
  8
0-3
  6
CONTINUOUS
 62
    3
 10
1144.6237
 20
1968.7254
 11
1150.9082
 21
1971.2859
  0
LINE
  8
0-3
  6
CONTINUOUS
 62
    3
 10
1150.9082
 20
1971.2859
 11
1157.1917
 21
1973.7702
  0
LINE
  8
0-3
  6
CONTINUOUS
 62
    3
 10
1157.1917
 20
1973.7702
 11
1163.4687
 21
1976.1927
  0
LINE
  8
0-3
  6
CONTINUOUS
 62
    3
 10
1163.4687
 20
1976.1927
 11
1169.7458
 21
1978.5706
  0
LINE
  8
0-3
  6
CONTINUOUS
 62
    3
 10
1169.7458
 20
1978.5706
 11
1176.0238
 21
1980.9267
  0
LINE
  8
0-3
  6
CONTINUOUS
 62
    3
 10
1176.0238
 20
1980.9267
 11
1175.9367
 21
1975.1445
  0
LINE
  8
0-3
  6
CONTINUOUS
 62
    3
 10
1175.9367
 20
1975.1445
 11
1175.8531
 21
1969.3688
  0
LINE
  8
0-3
  6
CONTINUOUS
 62
    3
 10
1175.8531
 20
1969.3688
 11
1175.77
 21
1963.5856
  0
LINE
  8
0-3
  6
CONTINUOUS
 62
    3
 10
1175.77
 20
1963.5856
 11
1175.6826
 21
1957.8089
  0
LINE
  8
0-3
  6
CONTINUOUS
 62
    3
 10
1175.6826
 20
1957.8089
 11
1175.6002
 21
1952.0326
  0
LINE
  8
0-3
  6
CONTINUOUS
 62
    3
 10
1175.6002
 20
1952.0326
 11
1175.5168
 21
1946.25
  0
LINE
  8
0-3
  6
CONTINUOUS
 62
    3
 10
1175.5168
 20
1946.25
 11
1175.4297
 21
1940.4742
  0
LINE
  8
0-3
  6
CONTINUOUS
 62
    3
 10
1175.4297
 20
1940.4742
 11
1175.3463
 21
1934.6921
  0
LINE
  8
0-3
  6
CONTINUOUS
 62
    3
 10
1175.3463
 20
1934.6921
 11
1175.2607
 21
1928.9143
  0
LINE
  8
0-3
  6
CONTINUOUS
 62
    3
 10
1175.2607
 20
1928.9143
 11
1175.1761
 21
1923.1337
  0
LINE
  8
0-3
  6
CONTINUOUS
 62
    3
 10
1209.1065
 20
1903.4944
 11
1207.7248
 21
1904.7127
  0
LINE
  8
0-3
  6
CONTINUOUS
 62
    3
 10
1207.7248
 20
1904.7127
 11
1205.7386
 21
1906.1855
  0
LINE
  8
0-3
  6
CONTINUOUS
 62
    3
 10
1205.7386
 20
1906.1855
 11
1203.2271
 21
1907.8701
  0
LINE
  8
0-3
  6
CONTINUOUS
 62
    3
 10
1203.2271
 20
1907.8701
 11
1200.2583
 21
1909.7264
  0
LINE
  8
0-3
  6
CONTINUOUS
 62
    3
 10
1200.2583
 20
1909.7264
 11
1196.8736
 21
1911.7173
  0
LINE
  8
0-3
  6
CONTINUOUS
 62
    3
 10
1196.8736
 20
1911.7173
 11
1193.1338
 21
1913.817
  0
LINE
  8
0-3
  6
CONTINUOUS
 62
    3
 10
1193.1338
 20
1913.817
 11
1189.0743
 21
1915.9995
  0
LINE
  8
0-3
  6
CONTINUOUS
 62
    3
 10
1189.0743
 20
1915.9995
 11
1184.726
 21
1918.2408
  0
LINE
  8
0-3
  6
CONTINUOUS
 62
    3
 10
1184.726
 20
1918.2408
 11
1180.1284
 21
1920.5241
  0
LINE
  8
0-3
  6
CONTINUOUS
 62
    3
 10
1180.1284
 20
1920.5241
 11
1175.3055
 21
1922.8328
  0
LINE
  8
0-3
  6
CONTINUOUS
 62
    3
 10
1175.3055
 20
1922.8328
 11
1170.2758
 21
1925.1503
  0
LINE
  8
0-3
  6
CONTINUOUS
 62
    3
 10
1170.2758
 20
1925.1503
 11
1165.0721
 21
1927.4708
  0
LINE
  8
0-3
  6
CONTINUOUS
 62
    3
 10
1165.0721
 20
1927.4708
 11
1159.7062
 21
1929.7789
  0
LINE
  8
0-3
  6
CONTINUOUS
 62
    3
 10
1159.7062
 20
1929.7789
 11
1154.2071
 21
1932.0692
  0
LINE
  8
0-3
  6
CONTINUOUS
 62
    3
 10
1154.2071
 20
1932.0692
 11
1148.5894
 21
1934.3353
  0
LINE
  8
0-3
  6
CONTINUOUS
 62
    3
 10
1148.5894
 20
1934.3353
 11
1142.8746
 21
1936.5667
  0
LINE
  8
0-3
  6
CONTINUOUS
 62
    3
 10
1142.8746
 20
1936.5667
 11
1137.0832
 21
1938.762
  0
LINE
  8
0-3
  6
CONTINUOUS
 62
    3
 10
1137.0832
 20
1938.762
 11
1131.2392
 21
1940.9147
  0
LINE
  8
0-3
  6
CONTINUOUS
 62
    3
 10
1131.2392
 20
1940.9147
 11
1125.3684
 21
1943.0248
  0
LINE
  8
0-3
  6
CONTINUOUS
 62
    3
 10
1125.3684
 20
1943.0248
 11
1119.4908
 21
1945.0781
  0
LINE
  8
0-3
  6
CONTINUOUS
 62
    3
 10
1119.4908
 20
1945.0781
 11
1113.6309
 21
1947.0759
  0
LINE
  8
0-3
  6
CONTINUOUS
 62
    3
 10
1113.6309
 20
1947.0759
 11
1107.817
 21
1949.0173
  0
LINE
  8
0-3
  6
CONTINUOUS
 62
    3
 10
1107.817
 20
1949.0173
 11
1102.0814
 21
1950.8895
  0
LINE
  8
0-3
  6
CONTINUOUS
 62
    3
 10
1102.0814
 20
1950.8895
 11
1096.4457
 21
1952.6943
  0
LINE
  8
0-3
  6
CONTINUOUS
 62
    3
 10
1096.4457
 20
1952.6943
 11
1090.9461
 21
1954.4229
  0
LINE
  8
0-3
  6
CONTINUOUS
 62
    3
 10
1090.9461
 20
1954.4229
 11
1085.6125
 21
1956.0674
  0
LINE
  8
0-3
  6
CONTINUOUS
 62
    3
 10
1085.6125
 20
1956.0674
 11
1080.4737
 21
1957.6208
  0
LINE
  8
0-3
  6
CONTINUOUS
 62
    3
 10
1080.4737
 20
1957.6208
 11
1075.5566
 21
1959.0802
  0
LINE
  8
0-3
  6
CONTINUOUS
 62
    3
 10
1075.5566
 20
1959.0802
 11
1070.8946
 21
1960.4322
  0
LINE
  8
0-3
  6
CONTINUOUS
 62
    3
 10
1176.0238
 20
1980.9267
 11
1176.104
 21
1980.9544
  0
LINE
  8
0-3
  6
CONTINUOUS
 62
    3
 10
1084.1331
 20
1860.6661
 11
1084.1331
 21
1847.3964
  0
LINE
  8
0-3
  6
CONTINUOUS
 62
    3
 10
1084.1331
 20
1847.3964
 11
1124.4569
 21
1847.3964
  0
LINE
  8
0-3
  6
CONTINUOUS
 62
    3
 10
1124.4569
 20
1860.6661
 11
1124.4569
 21
1847.3964
  0
LINE
  8
0-3
  6
CONTINUOUS
 62
    3
 10
1084.1331
 20
1860.6661
 11
1124.4569
 21
1860.6661
  0
LINE
  8
0-3
  6
CONTINUOUS
 62
    3
 10
1105.5723
 20
1860.6661
 11
1105.5723
 21
1887.1163
  0
LINE
  8
0-3
  6
CONTINUOUS
 62
    3
 10
1096.5763
 20
1896.1088
 11
1050
 21
1896.1088
  0
LINE
  8
0-3
  6
CONTINUOUS
 62
    3
 10
1065.4499
 20
1996.457
 11
1065.4499
 21
1952.92
  0
LINE
  8
0-3
  6
CONTINUOUS
 62
    3
 10
1071.7952
 20
1983.4031
 11
1071.1366
 21
1983.0309
  0
LINE
  8
0-3
  6
CONTINUOUS
 62
    3
 10
1071.1366
 20
1983.0309
 11
1070.4625
 21
1982.64
  0
LINE
  8
0-3
  6
CONTINUOUS
 62
    3
 10
1070.4625
 20
1982.64
 11
1069.7796
 21
1982.2297
  0
LINE
  8
0-3
  6
CONTINUOUS
 62
    3
 10
1069.7796
 20
1982.2297
 11
1069.0828
 21
1981.8002
  0
LINE
  8
0-3
  6
CONTINUOUS
 62
    3
 10
1069.0828
 20
1981.8002
 11
1068.3719
 21
1981.3572
  0
LINE
  8
0-3
  6
CONTINUOUS
 62
    3
 10
1068.3719
 20
1981.3572
 11
1067.6486
 21
1980.8911
  0
LINE
  8
0-3
  6
CONTINUOUS
 62
    3
 10
1067.6486
 20
1980.8911
 11
1066.9138
 21
1980.409
  0
LINE
  8
0-3
  6
CONTINUOUS
 62
    3
 10
1066.9138
 20
1980.409
 11
1066.1635
 21
1979.9058
  0
LINE
  8
0-3
  6
CONTINUOUS
 62
    3
 10
1066.1635
 20
1979.9058
 11
1065.4034
 21
1979.3881
  0
LINE
  8
0-3
  6
CONTINUOUS
 62
    3
 10
1069.5433
 20
1967.6471
 11
1069.0551
 21
1967.5536
  0
LINE
  8
0-3
  6
CONTINUOUS
 62
    3
 10
1069.0551
 20
1967.5536
 11
1068.5731
 21
1967.4665
  0
LINE
  8
0-3
  6
CONTINUOUS
 62
    3
 10
1068.5731
 20
1967.4665
 11
1068.1
 21
1967.3799
  0
LINE
  8
0-3
  6
CONTINUOUS
 62
    3
 10
1068.1
 20
1967.3799
 11
1067.6318
 21
1967.2957
  0
LINE
  8
0-3
  6
CONTINUOUS
 62
    3
 10
1067.6318
 20
1967.2957
 11
1067.1736
 21
1967.2156
  0
LINE
  8
0-3
  6
CONTINUOUS
 62
    3
 10
1067.1736
 20
1967.2156
 11
1066.719
 21
1967.1403
  0
LINE
  8
0-3
  6
CONTINUOUS
 62
    3
 10
1066.719
 20
1967.1403
 11
1066.2736
 21
1967.0696
  0
LINE
  8
0-3
  6
CONTINUOUS
 62
    3
 10
1066.2736
 20
1967.0696
 11
1065.8334
 21
1967.0008
  0
LINE
  8
0-3
  6
CONTINUOUS
 62
    3
 10
1065.8334
 20
1967.0008
 11
1065.4034
 21
1966.9345
  0
LINE
  8
0-3
  6
CONTINUOUS
 62
    3
 10
1079.2669
 20
1958.9125
 11
1077.4106
 21
1959.3054
  0
LINE
  8
0-3
  6
CONTINUOUS
 62
    3
 10
1077.4106
 20
1959.3054
 11
1075.6293
 21
1959.686
  0
LINE
  8
0-3
  6
CONTINUOUS
 62
    3
 10
1075.6293
 20
1959.686
 11
1073.9302
 21
1960.0551
  0
LINE
  8
0-3
  6
CONTINUOUS
 62
    3
 10
1073.9302
 20
1960.0551
 11
1072.3097
 21
1960.4115
  0
LINE
  8
0-3
  6
CONTINUOUS
 62
    3
 10
1072.3097
 20
1960.4115
 11
1070.7684
 21
1960.7549
  0
LINE
  8
0-3
  6
CONTINUOUS
 62
    3
 10
1070.7684
 20
1960.7549
 11
1069.3085
 21
1961.0884
  0
LINE
  8
0-3
  6
CONTINUOUS
 62
    3
 10
1069.3085
 20
1961.0884
 11
1067.9265
 21
1961.4076
  0
LINE
  8
0-3
  6
CONTINUOUS
 62
    3
 10
1067.9265
 20
1961.4076
 11
1066.6247
 21
1961.716
  0
LINE
  8
0-3
  6
CONTINUOUS
 62
    3
 10
1066.6247
 20
1961.716
 11
1065.4034
 21
1962.0109
  0
LINE
  8
0-3
  6
CONTINUOUS
 62
    3
 10
1070.8946
 20
1960.4322
 11
1070.1681
 21
1960.6302
  0
LINE
  8
0-3
  6
CONTINUOUS
 62
    3
 10
1070.1681
 20
1960.6302
 11
1069.4708
 21
1960.8207
  0
LINE
  8
0-3
  6
CONTINUOUS
 62
    3
 10
1069.4708
 20
1960.8207
 11
1068.8042
 21
1961.0083
  0
LINE
  8
0-3
  6
CONTINUOUS
 62
    3
 10
1068.8042
 20
1961.0083
 11
1068.1683
 21
1961.1894
  0
LINE
  8
0-3
  6
CONTINUOUS
 62
    3
 10
1068.1683
 20
1961.1894
 11
1067.5655
 21
1961.3631
  0
LINE
  8
0-3
  6
CONTINUOUS
 62
    3
 10
1067.5655
 20
1961.3631
 11
1066.9895
 21
1961.5284
  0
LINE
  8
0-3
  6
CONTINUOUS
 62
    3
 10
1066.9895
 20
1961.5284
 11
1066.4451
 21
1961.6907
  0
LINE
  8
0-3
  6
CONTINUOUS
 62
    3
 10
1066.4451
 20
1961.6907
 11
1065.9317
 21
1961.8481
  0
LINE
  8
0-3
  6
CONTINUOUS
 62
    3
 10
1065.9317
 20
1961.8481
 11
1065.4499
 21
1962.0015
  0
LINE
  8
0-3
  6
CONTINUOUS
 62
    3
 10
1059.5017
 20
2002.4079
 11
1050
 21
2002.4079
  0
LINE
  8
0-3
  6
CONTINUOUS
 62
    3
 10
1059.5017
 20
1910.9947
 11
1050
 21
1910.9947
  0
LINE
  8
0-3
  6
CONTINUOUS
 62
    3
 10
1054.9634
 20
1941.9891
 11
1058.41
 21
1938.0988
  0
LINE
  8
0-3
  6
CONTINUOUS
 62
    3
 10
1058.41
 20
1938.0988
 11
1062.1976
 21
1934.0571
  0
LINE
  8
0-3
  6
CONTINUOUS
 62
    3
 10
1062.1976
 20
1934.0571
 11
1066.2719
 21
1929.912
  0
LINE
  8
0-3
  6
CONTINUOUS
 62
    3
 10
1066.2719
 20
1929.912
 11
1070.5796
 21
1925.7055
  0
LINE
  8
0-3
  6
CONTINUOUS
 62
    3
 10
1070.5796
 20
1925.7055
 11
1075.0723
 21
1921.4778
  0
LINE
  8
0-3
  6
CONTINUOUS
 62
    3
 10
1075.0723
 20
1921.4778
 11
1079.7044
 21
1917.2669
  0
LINE
  8
0-3
  6
CONTINUOUS
 62
    3
 10
1079.7044
 20
1917.2669
 11
1084.4325
 21
1913.1054
  0
LINE
  8
0-3
  6
CONTINUOUS
 62
    3
 10
1084.4325
 20
1913.1054
 11
1089.2177
 21
1909.0236
  0
LINE
  8
0-3
  6
CONTINUOUS
 62
    3
 10
1089.2177
 20
1909.0236
 11
1094.0225
 21
1905.0503
  0
LINE
  8
0-3
  6
CONTINUOUS
 62
    3
 10
1094.0225
 20
1905.0503
 11
1098.8154
 21
1901.209
  0
LINE
  8
0-3
  6
CONTINUOUS
 62
    3
 10
1098.8154
 20
1901.209
 11
1103.564
 21
1897.5212
  0
LINE
  8
0-3
  6
CONTINUOUS
 62
    3
 10
1103.564
 20
1897.5212
 11
1108.2436
 21
1894.0045
  0
LINE
  8
0-3
  6
CONTINUOUS
 62
    3
 10
1108.2436
 20
1894.0045
 11
1112.8287
 21
1890.675
  0
LINE
  8
0-3
  6
CONTINUOUS
 62
    3
 10
1112.8287
 20
1890.675
 11
1117.2999
 21
1887.5424
  0
LINE
  8
0-3
  6
CONTINUOUS
 62
    3
 10
1117.2999
 20
1887.5424
 11
1121.639
 21
1884.6172
  0
LINE
  8
0-3
  6
CONTINUOUS
 62
    3
 10
1121.639
 20
1884.6172
 11
1125.8321
 21
1881.9036
  0
LINE
  8
0-3
  6
CONTINUOUS
 62
    3
 10
1125.8321
 20
1881.9036
 11
1129.8686
 21
1879.404
  0
LINE
  8
0-3
  6
CONTINUOUS
 62
    3
 10
1129.8686
 20
1879.404
 11
1133.7398
 21
1877.1189
  0
LINE
  8
0-3
  6
CONTINUOUS
 62
    3
 10
1133.7398
 20
1877.1189
 11
1137.4403
 21
1875.0421
  0
LINE
  8
0-3
  6
CONTINUOUS
 62
    3
 10
1137.4403
 20
1875.0421
 11
1137.7117
 21
1874.9236
  0
LINE
  8
0-3
  6
CONTINUOUS
 62
    3
 10
1137.7117
 20
1874.9236
 11
1137.9822
 21
1874.8098
  0
LINE
  8
0-3
  6
CONTINUOUS
 62
    3
 10
1137.9822
 20
1874.8098
 11
1138.2494
 21
1874.7019
  0
LINE
  8
0-3
  6
CONTINUOUS
 62
    3
 10
1138.2494
 20
1874.7019
 11
1138.5134
 21
1874.5997
  0
LINE
  8
0-3
  6
CONTINUOUS
 62
    3
 10
1138.5134
 20
1874.5997
 11
1138.775
 21
1874.5034
  0
LINE
  8
0-3
  6
CONTINUOUS
 62
    3
 10
1138.775
 20
1874.5034
 11
1139.0336
 21
1874.4124
  0
LINE
  8
0-3
  6
CONTINUOUS
 62
    3
 10
1139.0336
 20
1874.4124
 11
1139.2894
 21
1874.3268
  0
LINE
  8
0-3
  6
CONTINUOUS
 62
    3
 10
1139.2894
 20
1874.3268
 11
1139.5423
 21
1874.2476
  0
LINE
  8
0-3
  6
CONTINUOUS
 62
    3
 10
1139.5423
 20
1874.2476
 11
1139.7927
 21
1874.1731
  0
LINE
  8
0-3
  6
CONTINUOUS
 62
    3
 10
1054.9634
 20
1941.9891
 11
1057.0008
 21
1943.0006
  0
LINE
  8
0-3
  6
CONTINUOUS
 62
    3
 10
1057.0008
 20
1943.0006
 11
1058.82
 21
1944.0636
  0
LINE
  8
0-3
  6
CONTINUOUS
 62
    3
 10
1058.82
 20
1944.0636
 11
1060.4209
 21
1945.1766
  0
LINE
  8
0-3
  6
CONTINUOUS
 62
    3
 10
1060.4209
 20
1945.1766
 11
1061.8039
 21
1946.3405
  0
LINE
  8
0-3
  6
CONTINUOUS
 62
    3
 10
1061.8039
 20
1946.3405
 11
1062.9691
 21
1947.555
  0
LINE
  8
0-3
  6
CONTINUOUS
 62
    3
 10
1062.9691
 20
1947.555
 11
1063.9163
 21
1948.8204
  0
LINE
  8
0-3
  6
CONTINUOUS
 62
    3
 10
1063.9163
 20
1948.8204
 11
1064.6452
 21
1950.1363
  0
LINE
  8
0-3
  6
CONTINUOUS
 62
    3
 10
1064.6452
 20
1950.1363
 11
1065.1569
 21
1951.5026
  0
LINE
  8
0-3
  6
CONTINUOUS
 62
    3
 10
1065.1569
 20
1951.5026
 11
1065.4499
 21
1952.92
  0
LINE
  8
0-3
  6
CONTINUOUS
 62
    3
 10
1065.4516
 20
1916.9452
 11
1065.4516
 21
1930.7464
  0
LINE
  8
0-3
  6
CONTINUOUS
 62
    3
 10
1142.7204
 20
1968.2983
 11
1131.0039
 21
1994.1207
  0
LINE
  8
0-3
  6
CONTINUOUS
 62
    3
 10
1097.6134
 20
1829.019
 11
1050
 21
1829.019
  0
LINE
  8
0-3
  6
CONTINUOUS
 62
    3
 10
1105.5723
 20
1836.9781
 11
1105.5723
 21
1847.3964
  0
LINE
  8
0-3
  6
CONTINUOUS
 62
    3
 10
1093.6333
 20
1821.8628
 11
1050
 21
1821.8628
  0
LINE
  8
0-3
  6
CONTINUOUS
 62
    3
 10
1097.6134
 20
1825.8424
 11
1097.6134
 21
1829.019
  0
LINE
  8
0-2
  6
CONTINUOUS
 62
    3
 10
1050
 20
2069.6856
 11
1357.4999
 21
2069.6856
  0
LINE
  8
0-2
  6
CONTINUOUS
 62
    3
 10
1508.1826
 20
1926.5049
 11
1480.7326
 21
1926.5049
  0
LINE
  8
0-2
  6
CONTINUOUS
 62
    3
 10
1524.8739
 20
1970.394
 11
1524.8739
 21
1923.9548
  0
LINE
  8
0-2
  6
CONTINUOUS
 62
    3
 10
1521.7797
 20
1959.1588
 11
1534.4402
 21
1959.1588
  0
LINE
  8
0-2
  6
CONTINUOUS
 62
    3
 10
570.00005
 20
2159.4212
 11
570.00005
 21
2012.872
  0
LINE
  8
0-2
  6
CONTINUOUS
 62
    3
 10
1530.0001
 20
1983.1372
 11
1357.4999
 21
1983.1372
  0
LINE
  8
0-2
  6
CONTINUOUS
 62
    3
 10
1530.0001
 20
1970.394
 11
1357.4999
 21
1970.394
  0
LINE
  8
0-2
  6
CONTINUOUS
 62
    3
 10
1357.4999
 20
2056.9424
 11
1050
 21
2056.9424
  0
LINE
  8
0-2
  6
CONTINUOUS
 62
    3
 10
1357.4999
 20
2030.2095
 11
1479.7736
 21
1923.9548
  0
LINE
  8
0-2
  6
CONTINUOUS
 62
    3
 10
1360.05
 20
2031.3661
 11
1480.7326
 21
1926.5049
  0
LINE
  8
0-2
  6
CONTINUOUS
 62
    3
 10
742.49988
 20
1919.4209
 11
742.49988
 21
1833.4021
  0
LINE
  8
0-2
  6
CONTINUOUS
 62
    3
 10
1105.5723
 20
1833.4021
 11
1357.4999
 21
1833.4021
  0
LINE
  8
0-2
  6
CONTINUOUS
 62
    3
 10
742.49988
 20
1820.6589
 11
1050
 21
1820.6589
  0
LINE
  8
0-2
  6
CONTINUOUS
 62
    3
 10
742.49988
 20
1833.4021
 11
1050
 21
1833.4021
  0
LINE
  8
0-8
  6
CONTINUOUS
 62
    7
 10
330.53136
 20
1659.4211
 11
330.53136
 21
2269.4211
  0
LINE
  8
0-2
  6
CONTINUOUS
 62
    3
 10
639.99991
 20
1719.4209
 11
639.99991
 21
1659.4211
  0
LINE
  8
0-2
  6
CONTINUOUS
 62
    3
 10
1460.0001
 20
1719.4209
 11
1460.0001
 21
1659.4211
  0
LINE
  8
0-2
  6
CONTINUOUS
 62
    3
 10
1460.0001
 20
1719.4209
 11
639.99991
 21
1719.4209
  0
LINE
  8
0-2
  6
CONTINUOUS
 62
    3
 10
1460.0001
 20
1659.4211
 11
639.99991
 21
1659.4211
  0
LINE
  8
0-8
  6
CONTINUOUS
 62
    7
 10
639.99991
 20
1472.7473
 11
1460.0001
 21
1472.7473
  0
LINE
  8
0-8
  6
CONTINUOUS
 62
    7
 10
639.99991
 20
1628.4254
 11
639.99991
 21
1472.7473
  0
LINE
  8
0-8
  6
CONTINUOUS
 62
    7
 10
1460.0001
 20
1628.4254
 11
1460.0001
 21
1472.7473
  0
LINE
  8
0-8
  6
CONTINUOUS
 62
    7
 10
1718.919
 20
1659.4211
 11
1718.919
 21
1719.4211
  0
LINE
  8
0-8
  6
CONTINUOUS
 62
    7
 10
1564.8649
 20
1659.4211
 11
1718.919
 21
1659.4211
  0
LINE
  8
0-8
  6
CONTINUOUS
 62
    7
 10
1718.919
 20
1719.4211
 11
1718.919
 21
1919.4209
  0
LINE
  8
0-8
  6
CONTINUOUS
 62
    7
 10
1564.8649
 20
1919.6858
 11
1718.919
 21
1919.4209
  0
LINE
  8
0-8
  6
CONTINUOUS
 62
    7
 10
1718.919
 20
1919.4209
 11
1718.919
 21
2158.9793
  0
LINE
  8
0-8
  6
CONTINUOUS
 62
    7
 10
1564.8649
 20
2158.9793
 11
1718.919
 21
2158.9793
  0
LINE
  8
0-8
  6
CONTINUOUS
 62
    7
 10
1718.919
 20
2158.9793
 11
1718.919
 21
2269.4211
  0
LINE
  8
0-8
  6
CONTINUOUS
 62
    7
 10
1564.8649
 20
2269.4211
 11
1718.919
 21
2269.4211
  0
LINE
  8
0-2
  6
CONTINUOUS
 62
    3
 10
1050
 20
1820.6589
 11
1357.4999
 21
1820.6589
  0
LINE
  8
0-2
  6
CONTINUOUS
 62
    3
 10
742.49988
 20
1820.6589
 11
742.49988
 21
1765.3096
  0
LINE
  8
0-2
  6
CONTINUOUS
 62
    3
 10
1357.4999
 20
1820.6589
 11
1357.4999
 21
1765.3096
  0
LINE
  8
0-2
  6
CONTINUOUS
 62
    3
 10
1272.6432
 20
2218.1093
 11
1050
 21
2218.1093
  0
LINE
  8
0-2
  6
CONTINUOUS
 62
    3
 10
1357.4999
 20
2056.9424
 11
1357.4999
 21
1833.4026
  0
LINE
  8
0-2
  6
CONTINUOUS
 62
    3
 10
639.99991
 20
1719.4209
 11
783.00009
 21
1783.3363
  0
LINE
  8
0-2
  6
CONTINUOUS
 62
    3
 10
783.00009
 20
1783.3363
 11
783.00009
 21
1719.4209
  0
LINE
  8
0-2
  6
CONTINUOUS
 62
    3
 10
1357.5002
 20
1820.6589
 11
1357.5002
 21
1719.4209
  0
LINE
  8
0-2
  6
CONTINUOUS
 62
    3
 10
1460.0001
 20
1719.4209
 11
1357.5002
 21
1765.3096
  0
LINE
  8
0-2
  6
CONTINUOUS
 62
    3
 10
1050
 20
2269.4211
 11
550.80026
 21
2155.0213
  0
LINE
  8
ADD_LINE
  6
DOT
 62
    7
 10
1530
 20
2472.973
 11
1530
 21
1508.1081
  0
LINE
  8
0-2
  6
CONTINUOUS
 62
    3
 10
1050
 20
2269.4211
 11
1549.1997
 21
2155.0213
  0
LINE
  8
0-2
  6
CONTINUOUS
 62
    3
 10
1530
 20
2159.4212
 11
1530
 21
2012.872
  0
LINE
  8
ADD_LINE
  6
DOT
 62
    7
 10
178.37838
 20
1719.4209
 11
1819.0365
 21
1719.4209
  0
LINE
  8
ADD_LINE
  6
DOT
 62
    7
 10
178.37838
 20
1659.4209
 11
1819.0365
 21
1659.4209
  0
LINE
  8
0-8
  6
CONTINUOUS
 62
    7
 10
1564.8649
 20
1719.4209
 11
1718.919
 21
1719.4209
  0
LINE
  8
0-2
  6
CONTINUOUS
 62
    3
 10
1050
 20
2089.5685
 11
1272.6432
 21
2218.1093
  0
LINE
  8
0-4
  6
CONTINUOUS
 62
    2
 10
1325.4925
 20
2206.2876
 11
1050
 21
2069.6856
  0
LINE
  8
ADD_LINE
  6
DOT
 62
    7
 10
1357.5
 20
2069.6856
 11
1357.5
 21
2148.6487
  0
LINE
  8
0-2
  6
CONTINUOUS
 62
    3
 10
1530
 20
2159.4212
 11
1170.4172
 21
2159.0902
  0
LINE
  8
0-2
  6
CONTINUOUS
 62
    3
 10
1524.8739
 20
1932.1641
 11
1357.4999
 21
1932.1641
  0
LINE
  8
0-2
  6
CONTINUOUS
 62
    3
 10
1362.7499
 20
1919.4209
 11
1530.0001
 21
1919.4209
  0
LINE
  8
0-2
  6
CONTINUOUS
 62
    3
 10
1524.8739
 20
1923.9548
 11
1357.4999
 21
1923.9548
  0
LINE
  8
0-2
  6
CONTINUOUS
 62
    3
 10
1362.7499
 20
1919.4209
 11
1362.7499
 21
1787.4025
  0
LINE
  8
0-2
  6
CONTINUOUS
 62
    3
 10
1530
 20
1970.394
 11
1530
 21
1919.4209
  0
LINE
  8
0-2
  6
CONTINUOUS
 62
    3
 10
1530
 20
2000.1289
 11
1530
 21
1970.394
  0
ARC
  8
0-2
  6
CONTINUOUS
 62
    3
 10
570.00005
 20
2006.5005
 40
6.3715975
 50
90
 51
270
  0
ARC
  8
0-2
  6
CONTINUOUS
 62
    3
 10
570.00005
 20
1955.5274
 40
6.3715975
 50
90
 51
270
  0
ARC
  8
0-2
  6
CONTINUOUS
 62
    3
 10
1357.4999
 20
1827.031
 40
6.3715975
 50
270
 51
90
  0
ARC
  8
0-2
  6
CONTINUOUS
 62
    3
 10
742.49988
 20
1827.031
 40
6.3715975
 50
90
 51
270
  0
ARC
  8
0-3
  6
CONTINUOUS
 62
    3
 10
1096.5763
 20
1887.1163
 40
8.9937391
 50
0
 51
90
  0
ARC
  8
0-3
  6
CONTINUOUS
 62
    3
 10
1059.5017
 20
1916.9452
 40
5.9493568
 50
270
 51
0
  0
ARC
  8
0-3
  6
CONTINUOUS
 62
    3
 10
1059.5017
 20
1996.457
 40
5.9493568
 50
0
 51
90
  0
ARC
  8
0-3
  6
CONTINUOUS
 62
    3
 10
1097.6134
 20
1836.9781
 40
7.9590593
 50
270
 51
0
  0
ARC
  8
0-3
  6
CONTINUOUS
 62
    3
 10
1093.6333
 20
1825.8424
 40
3.9795296
 50
270
 51
0
  0
ARC
  8
0-2
  6
CONTINUOUS
 62
    3
 10
1357.4999
 20
2063.314
 40
6.3715975
 50
270
 51
90
  0
ARC
  8
0-2
  6
CONTINUOUS
 62
    3
 10
1530
 20
2006.5005
 40
6.3715975
 50
270
 51
90
  0
ARC
  8
0-2
  6
CONTINUOUS
 62
    3
 10
1530
 20
1955.5274
 40
6.3715975
 50
270
 51
90
  0
ARC
  8
0-4
  6
DASHED3
 62
    2
 10
1050
 20
2069.6856
 40
307.49991
 50
357.62492
 51
26.374359
  0
TEXT
  8
0-d
 10
254.9998
 20
157.4999
 40
25
 41
1
 50
0
  1
図
  0
TEXT
  8
0-d
 10
254.9998
 20
97.499963
 40
25
 41
1
 50
0
  1
番
  0
TEXT
  8
0-d
 10
655.00046
 20
157.4999
 40
25
 41
1
 50
0
  1
承
  0
TEXT
  8
0-d
 10
655.00046
 20
97.499963
 40
25
 41
1
 50
0
  1
認
  0
TEXT
  8
0-d
 10
1020.0003
 20
237.49994
 40
25
 41
1
 50
0
  1
尺
  0
TEXT
  8
0-d
 10
1020.0003
 20
197.49978
 40
25
 41
1
 50
0.0000762
  1
度
  0
TEXT
  8
0-d
 10
855.00014
 20
157.4999
 40
25
 41
1
 50
0
  1
製
  0
TEXT
  8
0-d
 10
855.00014
 20
97.499963
 40
25
 41
1
 50
0
  1
図
  0
TEXT
  8
0-d
 10
1555.0001
 20
237.49994
 40
25
 41
1
 50
0
  1
日
  0
TEXT
  8
0-d
 10
1555.0001
 20
197.49978
 40
25
 41
1
 50
0.0000762
  1
付
  0
TEXT
  8
0-d
 10
1111.4263
 20
163.48226
 40
20
 41
1
 50
0
  1
株式
  0
TEXT
  8
0-d
 10
1111.4263
 20
141.85179
 40
20
 41
1
 50
0.0000152
  1
会社
  0
TEXT
  8
0-d
 10
1174.2247
 20
143.24712
 40
40
 41
1
 50
0
  1
スズキベンチレーター
  0
TEXT
  8
0-d
 10
1237.9182
 20
94.024183
 40
20
 41
1
 50
0
  1
TEL(054)296-7000  FAX(054)296-7001
  0
TEXT
  8
0-d
 10
1084.349
 20
210.10065
 40
40
 41
1
 50
0
  1
１／１０
  0
TEXT
  8
0-8
 10
1013.7498
 20
2413.5808
 40
30
 41
1
 50
0
  1
  960
  0
TEXT
  8
0-8
 10
1001.6458
 20
1482.3138
 40
30
 41
1
 50
0
  1
820*820
  0
TEXT
  8
0-8
 10
1708.9189
 20
1675.6712
 40
30
 41
1
 50
90
  1
60
  0
TEXT
  8
0-8
 10
1708.9189
 20
2192.9503
 40
30
 41
1
 50
90
  1
110
  0
TEXT
  8
0-8
 10
1708.9189
 20
1783.0385
 40
30
 41
1
 50
90
  1
200
  0
TEXT
  8
0-8
 10
1708.9189
 20
2002.8177
 40
30
 41
1
 50
90
  1
240
  0
TEXT
  8
0-8
 10
287.56665
 20
1948.437
 40
30
 41
1
 50
90
  1
610
  0
TEXT
  8
0-d
 10
255.00005
 20
2792.7014
 40
50
 41
1
 50
0
  1
ＳＴ－６０　架台型（ダンパー付）断面
  0
TEXT
  8
0-d
 10
280.67567
 20
215.81082
 40
30
 41
1
 50
0
  1
ＳＴ－６０　架台型（ダンパー付）断面
  0
TEXT
  8
0-d
 10
308.45927
 20
140.30214
 40
30
 41
1
 50
0
  1
60-D03b
  0
TEXT
  8
0-d
 10
1235.6792
 20
118.64593
 40
20
 41
1
 50
0
  1
〒421-2114　静岡市葵区安倍口新田１５２番地
  0
POINT
  8
0-8
 62
    2
 10
330.53136
 20
1659.4211
  0
POINT
  8
0-8
 62
    2
 10
330.53136
 20
2269.4211
  0
POINT
  8
0-8
 62
    2
 10
570.00005
 20
2370.6149
  0
POINT
  8
0-8
 62
    2
 10
1530.0001
 20
2370.6149
  0
POINT
  8
0-8
 62
    2
 10
639.99991
 20
1472.7473
  0
POINT
  8
0-8
 62
    2
 10
1460.0001
 20
1472.7473
  0
POINT
  8
0-8
 62
    2
 10
1718.919
 20
1659.4211
  0
POINT
  8
0-8
 62
    2
 10
1718.919
 20
1919.4209
  0
POINT
  8
0-8
 62
    2
 10
1718.919
 20
2158.9793
  0
POINT
  8
0-8
 62
    2
 10
1718.919
 20
2269.4211
  0
POINT
  8
0-8
 62
    2
 10
1718.919
 20
1719.4209
  0
ENDSEC
  0
EOF
