  0
SECTION
  2
HEADER
  9
$EXTMIN
 10
0
 20
0
  9
$EXTMAX
 10
6300
 20
4455
  0
ENDSEC
  0
SECTION
  2
TABLES
  0
TABLE
  2
LTYPE
 70
     9
  0
LTYPE
  2
CONTINUOUS
 70
    64
  3
実線
 72
    65
 73
     0
 40
0.0
  0
LTYPE
  2
DASHED1
 70
    64
  3
--  --  --  --  --  --  --  --  
 72
    65
 73
     2
 40
2.5
 49
1.25
 49
-1.25
  0
LTYPE
  2
DASHED2
 70
    64
  3
----    ----    ----    ----    
 72
    65
 73
     2
 40
5.0
 49
2.5
 49
-2.5
  0
LTYPE
  2
DASHED3
 70
    64
  3
------  ------  ------  ------  
 72
    65
 73
     2
 40
5.0
 49
3.75
 49
-1.25
  0
LTYPE
  2
CENTER1
 70
    64
  3
----- - ----- - ----- - ----- - 
 72
    65
 73
     4
 40
10.0
 49
6.25
 49
-1.25
 49
1.25
 49
-1.25
  0
LTYPE
  2
CENTER2
 70
    64
  3
----------  --  ----------  --  
 72
    65
 73
     4
 40
20.0
 49
12.5
 49
-2.5
 49
2.5
 49
-2.5
  0
LTYPE
  2
PHANTOM1
 70
    64
  3
--- - - --- - - --- - - --- - - 
 72
    65
 73
     6
 40
10.0
 49
3.25
 49
-1.25
 49
1.25
 49
-1.25
 49
1.25
 49
-1.25
  0
LTYPE
  2
PHANTOM2
 70
    64
  3
--------  -  -  --------  -  -  
 72
    65
 73
     6
 40
20.0
 49
10.0
 49
-2.5
 49
1.25
 49
-2.5
 49
1.25
 49
-2.5
  0
LTYPE
  2
DOT
 70
    64
  3
-   -   -   -   -   -   -   -   
 72
    65
 73
     2
 40
2.5
 49
0.625
 49
-1.875
  0
ENDTAB
  0
TABLE
  2
STYLE
 70
    1
  0
STYLE
  2
STANDARD
 70
    64
 40
0.0
 41
1.0
 42
0.0
 50
0.0
 71
     0
  3
TXT
  4
BIGFONT
  0
ENDTAB
  0
TABLE
  2
LAYER
 70
    6
  0
LAYER
  2
0-0
 70
   64
 62
    7
  6
CONTINUOUS
  0
LAYER
  2
0-1
 70
   64
 62
    7
  6
CONTINUOUS
  0
LAYER
  2
0-2
 70
   64
 62
    7
  6
CONTINUOUS
  0
LAYER
  2
0-8
 70
   64
 62
    7
  6
CONTINUOUS
  0
LAYER
  2
0-d
 70
   64
 62
    7
  6
CONTINUOUS
  0
LAYER
  2
ADD_LINE
 70
   64
 62
    7
  6
CONTINUOUS
  0
ENDTAB
  0
ENDSEC
  0
SECTION
  2
ENTITIES
  0
LINE
  8
0-d
  6
CONTINUOUS
 62
    7
 10
375.00004
 20
4136.5517
 11
2774.9999
 21
4136.5517
  0
LINE
  8
0-d
  6
CONTINUOUS
 62
    7
 10
375.00004
 20
4151.5521
 11
2774.9999
 21
4151.5521
  0
LINE
  8
0-d
  6
CONTINUOUS
 62
    7
 10
374.99948
 20
284.99981
 11
2775.0003
 21
284.99981
  0
LINE
  8
0-d
  6
CONTINUOUS
 62
    7
 10
374.99948
 20
134.99969
 11
374.99948
 21
404.99984
  0
LINE
  8
0-d
  6
CONTINUOUS
 62
    7
 10
374.99948
 20
134.99969
 11
2775.0003
 21
134.99969
  0
LINE
  8
0-d
  6
CONTINUOUS
 62
    7
 10
2775.0003
 20
404.99984
 11
2775.0003
 21
134.99969
  0
LINE
  8
0-d
  6
CONTINUOUS
 62
    7
 10
374.99948
 20
404.99984
 11
2775.0003
 21
404.99984
  0
LINE
  8
0-d
  6
CONTINUOUS
 62
    7
 10
1574.9999
 20
404.99984
 11
1574.9999
 21
134.99969
  0
LINE
  8
0-d
  6
CONTINUOUS
 62
    7
 10
975.00022
 20
134.99969
 11
975.00022
 21
284.99981
  0
LINE
  8
0-d
  6
CONTINUOUS
 62
    7
 10
1574.9999
 20
284.99981
 11
1574.9999
 21
404.99984
  0
LINE
  8
0-d
  6
CONTINUOUS
 62
    7
 10
1274.9995
 20
134.99969
 11
1274.9995
 21
284.99981
  0
LINE
  8
0-d
  6
CONTINUOUS
 62
    7
 10
427.5
 20
134.99969
 11
427.5
 21
284.99981
  0
LINE
  8
0-d
  6
CONTINUOUS
 62
    7
 10
1027.5
 20
134.99969
 11
1027.5
 21
284.99981
  0
LINE
  8
0-d
  6
CONTINUOUS
 62
    7
 10
1327.5
 20
134.99969
 11
1327.5
 21
284.99981
  0
LINE
  8
0-d
  6
CONTINUOUS
 62
    7
 10
1522.4999
 20
284.99981
 11
1522.4999
 21
404.99984
  0
LINE
  8
0-d
  6
CONTINUOUS
 62
    7
 10
2325.0005
 20
284.99981
 11
2325.0005
 21
404.99984
  0
LINE
  8
0-d
  6
CONTINUOUS
 62
    7
 10
2377.5001
 20
284.99981
 11
2377.5001
 21
404.99984
  0
LINE
  8
0-2
  6
CONTINUOUS
 62
    3
 10
1075.8018
 20
3589.7447
 11
1574.9999
 21
3704.7938
  0
LINE
  8
0-2
  6
CONTINUOUS
 62
    3
 10
2074.199
 20
3589.7447
 11
1574.9999
 21
3704.7938
  0
LINE
  8
0-8
  6
CONTINUOUS
 62
    7
 10
555.53146
 20
3134.7934
 11
555.53146
 21
3704.7938
  0
LINE
  8
0-8
  6
CONTINUOUS
 62
    7
 10
1095.0017
 20
3134.7934
 11
555.53146
 21
3134.7934
  0
LINE
  8
0-8
  6
CONTINUOUS
 62
    7
 10
1095.0017
 20
3905.9869
 11
2054.9996
 21
3905.9869
  0
LINE
  8
0-8
  6
CONTINUOUS
 62
    7
 10
555.53146
 20
2280.725
 11
555.53146
 21
2690.725
  0
LINE
  8
0-8
  6
CONTINUOUS
 62
    7
 10
1095.0017
 20
2280.725
 11
555.53146
 21
2280.725
  0
LINE
  8
0-8
  6
CONTINUOUS
 62
    7
 10
1095.0017
 20
2600.725
 11
555.53146
 21
2600.725
  0
LINE
  8
0-8
  6
CONTINUOUS
 62
    7
 10
1095.0017
 20
2690.725
 11
555.53146
 21
2690.725
  0
LINE
  8
0-8
  6
CONTINUOUS
 62
    7
 10
555.53146
 20
560.06833
 11
555.53146
 21
1780.0686
  0
LINE
  8
0-8
  6
CONTINUOUS
 62
    7
 10
1200
 20
1940.9949
 11
1950
 21
1940.9949
  0
LINE
  8
0-8
  6
CONTINUOUS
 62
    7
 10
1267.4998
 20
2958.1199
 11
1882.4998
 21
2958.1199
  0
LINE
  8
0-8
  6
CONTINUOUS
 62
    7
 10
1289.5081
 20
1070.0689
 11
1860.4949
 21
1270.0676
  0
LINE
  8
0-2
  6
CONTINUOUS
 62
    3
 10
1272.5001
 20
2600.725
 11
1877.4999
 21
2600.725
  0
LINE
  8
0-2
  6
CONTINUOUS
 62
    3
 10
1272.5001
 20
2690.725
 11
1877.4999
 21
2690.725
  0
LINE
  8
0-2
  6
CONTINUOUS
 62
    3
 10
1272.5001
 20
2600.725
 11
1200
 21
2280.725
  0
LINE
  8
0-2
  6
CONTINUOUS
 62
    3
 10
1877.4999
 20
2600.725
 11
1950
 21
2280.3231
  0
LINE
  8
0-8
  6
CONTINUOUS
 62
    7
 10
1272.5001
 20
2849.5672
 11
1877.4999
 21
2849.5672
  0
LINE
  8
0-2
  6
CONTINUOUS
 62
    3
 10
1095.0017
 20
3594.3515
 11
2054.9996
 21
3594.3515
  0
LINE
  8
0-2
  6
CONTINUOUS
 62
    3
 10
1095.0017
 20
3360.7228
 11
2054.9996
 21
3360.7228
  0
LINE
  8
0-2
  6
CONTINUOUS
 62
    3
 10
1095.0017
 20
3594.3515
 11
1095.0017
 21
3454.1742
  0
LINE
  8
0-2
  6
CONTINUOUS
 62
    3
 10
2054.9996
 20
3594.3515
 11
2054.9996
 21
3454.1742
  0
LINE
  8
0-8
  6
CONTINUOUS
 62
    7
 10
1095.0017
 20
3650.3128
 11
1095.0017
 21
3905.9869
  0
LINE
  8
0-8
  6
CONTINUOUS
 62
    7
 10
1235.2655
 20
3704.7938
 11
555.53146
 21
3704.7938
  0
LINE
  8
0-8
  6
CONTINUOUS
 62
    7
 10
2054.9996
 20
3650.3128
 11
2054.9996
 21
3905.9869
  0
LINE
  8
0-8
  6
CONTINUOUS
 62
    7
 10
1200
 20
2213.0782
 11
1200
 21
1940.9949
  0
LINE
  8
0-8
  6
CONTINUOUS
 62
    7
 10
1950
 20
2213.0782
 11
1950
 21
1940.9949
  0
LINE
  8
0-8
  6
CONTINUOUS
 62
    7
 10
898.16421
 20
1780.0686
 11
555.53146
 21
1780.0686
  0
LINE
  8
0-8
  6
CONTINUOUS
 62
    7
 10
898.16421
 20
560.06833
 11
555.53146
 21
560.06833
  0
LINE
  8
0-8
  6
CONTINUOUS
 62
    7
 10
2251.0644
 20
1545.0683
 11
2594.4691
 21
1545.0683
  0
LINE
  8
0-8
  6
CONTINUOUS
 62
    7
 10
2251.0644
 20
795.06885
 11
2594.4691
 21
795.06885
  0
LINE
  8
0-8
  6
CONTINUOUS
 62
    7
 10
1272.5001
 20
2735.7557
 11
1272.5001
 21
2849.5672
  0
LINE
  8
0-8
  6
CONTINUOUS
 62
    7
 10
1877.4999
 20
2735.7557
 11
1877.4999
 21
2849.5672
  0
LINE
  8
0-d
  6
CONTINUOUS
 62
    7
 10
729.96688
 20
2093.9616
 11
848.56577
 21
2093.9616
  0
LINE
  8
0-d
  6
CONTINUOUS
 62
    7
 10
729.96688
 20
2093.9616
 11
848.56577
 21
2129.54
  0
LINE
  8
0-d
  6
CONTINUOUS
 62
    7
 10
848.56577
 20
2093.9616
 11
848.56577
 21
2129.54
  0
LINE
  8
0-2
  6
CONTINUOUS
 62
    3
 10
1095.0017
 20
3441.4308
 11
2054.9996
 21
3441.4308
  0
LINE
  8
0-2
  6
CONTINUOUS
 62
    3
 10
1095.0017
 20
3454.1742
 11
2054.9996
 21
3454.1742
  0
LINE
  8
0-2
  6
CONTINUOUS
 62
    3
 10
1095.0017
 20
3403.2013
 11
2054.9996
 21
3403.2013
  0
LINE
  8
0-2
  6
CONTINUOUS
 62
    3
 10
1095.0017
 20
3390.4579
 11
2054.9996
 21
3390.4579
  0
LINE
  8
0-2
  6
CONTINUOUS
 62
    3
 10
1272.5001
 20
2690.725
 11
1272.5001
 21
2677.9819
  0
LINE
  8
0-2
  6
CONTINUOUS
 62
    3
 10
1272.5001
 20
2665.2382
 11
1272.5001
 21
2600.725
  0
LINE
  8
0-2
  6
CONTINUOUS
 62
    3
 10
1272.5001
 20
2665.2382
 11
1877.4999
 21
2665.2382
  0
LINE
  8
0-2
  6
CONTINUOUS
 62
    3
 10
1877.4999
 20
2665.2382
 11
1877.4999
 21
2600.725
  0
LINE
  8
0-2
  6
CONTINUOUS
 62
    3
 10
1272.5001
 20
2677.9819
 11
1877.5003
 21
2677.9819
  0
LINE
  8
0-2
  6
CONTINUOUS
 62
    3
 10
1877.5003
 20
2690.725
 11
1877.5003
 21
2677.9819
  0
LINE
  8
0-2
  6
CONTINUOUS
 62
    3
 10
1095.0017
 20
3441.4308
 11
1095.0017
 21
3403.2013
  0
LINE
  8
0-2
  6
CONTINUOUS
 62
    3
 10
1095.0017
 20
3390.4579
 11
1095.0017
 21
3360.7228
  0
LINE
  8
0-2
  6
CONTINUOUS
 62
    3
 10
2054.9996
 20
3441.4308
 11
2054.9996
 21
3403.2013
  0
LINE
  8
0-2
  6
CONTINUOUS
 62
    3
 10
2054.9985
 20
3390.4579
 11
2054.9985
 21
3360.7228
  0
LINE
  8
0-2
  6
CONTINUOUS
 62
    3
 10
1267.4998
 20
3215.5014
 11
1882.4998
 21
3215.5014
  0
LINE
  8
0-2
  6
CONTINUOUS
 62
    3
 10
1267.4998
 20
3228.2448
 11
1882.4998
 21
3228.2448
  0
LINE
  8
0-2
  6
CONTINUOUS
 62
    3
 10
1267.4998
 20
3177.2719
 11
1882.4998
 21
3177.2719
  0
LINE
  8
0-2
  6
CONTINUOUS
 62
    3
 10
1267.4998
 20
3215.5014
 11
1267.4998
 21
3177.2719
  0
LINE
  8
0-2
  6
CONTINUOUS
 62
    3
 10
1267.4998
 20
3134.7934
 11
1882.4998
 21
3134.7934
  0
LINE
  8
0-2
  6
CONTINUOUS
 62
    3
 10
1267.4998
 20
3164.5285
 11
1882.4998
 21
3164.5285
  0
LINE
  8
0-2
  6
CONTINUOUS
 62
    3
 10
1882.4998
 20
3164.5285
 11
1882.4998
 21
3134.7934
  0
LINE
  8
0-2
  6
CONTINUOUS
 62
    3
 10
1882.4998
 20
3215.5014
 11
1882.4998
 21
3177.2719
  0
LINE
  8
0-2
  6
CONTINUOUS
 62
    3
 10
1882.4998
 20
3360.7236
 11
1882.4998
 21
3228.2448
  0
LINE
  8
0-2
  6
CONTINUOUS
 62
    3
 10
1267.4998
 20
3360.7236
 11
1267.4998
 21
3228.2448
  0
LINE
  8
0-2
  6
CONTINUOUS
 62
    3
 10
1267.4998
 20
3164.5285
 11
1267.4998
 21
3134.7934
  0
LINE
  8
0-2
  6
CONTINUOUS
 62
    3
 10
1200.0002
 20
1545.0683
 11
1282.8085
 21
1462.26
  0
LINE
  8
0-2
  6
CONTINUOUS
 62
    3
 10
1200.0002
 20
1545.0683
 11
1949.9996
 21
1545.0683
  0
LINE
  8
0-2
  6
CONTINUOUS
 62
    3
 10
1950
 20
1545.0686
 11
1867.1917
 21
1462.26
  0
LINE
  8
0-2
  6
CONTINUOUS
 62
    3
 10
1200
 20
1545.0683
 11
1200
 21
795.06885
  0
LINE
  8
0-2
  6
CONTINUOUS
 62
    3
 10
1199.9994
 20
795.06829
 11
1282.8085
 21
877.87653
  0
LINE
  8
0-2
  6
CONTINUOUS
 62
    3
 10
1199.9994
 20
795.06829
 11
1950.0004
 21
795.06829
  0
LINE
  8
0-2
  6
CONTINUOUS
 62
    3
 10
1950
 20
795.06885
 11
1867.1917
 21
877.87653
  0
LINE
  8
0-2
  6
CONTINUOUS
 62
    3
 10
1950
 20
1545.0686
 11
1950
 21
795.06885
  0
LINE
  8
0-2
  6
CONTINUOUS
 62
    3
 10
2185.0002
 20
560.06833
 11
965.00006
 21
560.06833
  0
LINE
  8
0-2
  6
CONTINUOUS
 62
    3
 10
2185.0002
 20
1780.0686
 11
2185.0002
 21
560.06833
  0
LINE
  8
0-8
  6
CONTINUOUS
 62
    7
 10
1267.4998
 20
3092.1747
 11
1267.4998
 21
2958.1199
  0
LINE
  8
0-8
  6
CONTINUOUS
 62
    7
 10
1882.4998
 20
3092.1747
 11
1882.4998
 21
2958.1199
  0
LINE
  8
0-8
  6
CONTINUOUS
 62
    7
 10
2594.4691
 20
795.06885
 11
2594.4691
 21
1545.0683
  0
LINE
  8
0-1
  6
CENTER2
 62
    7
 10
1574.9999
 20
4004.7941
 11
1574.9999
 21
404.99984
  0
LINE
  8
ADD_LINE
  6
DOT
 62
    7
 10
2452.3896
 20
2690.725
 11
411.77601
 21
2690.725
  0
LINE
  8
ADD_LINE
  6
DOT
 62
    7
 10
2452.3896
 20
2600.725
 11
411.7761
 21
2600.725
  0
LINE
  8
ADD_LINE
  6
DOT
 62
    7
 10
2452.3896
 20
2280.725
 11
411.7761
 21
2280.725
  0
LINE
  8
ADD_LINE
  6
DOT
 62
    7
 10
2184.9998
 20
1829.56
 11
2184.9998
 21
431.19332
  0
LINE
  8
ADD_LINE
  6
DOT
 62
    7
 10
964.99997
 20
1829.56
 11
964.99997
 21
431.19332
  0
LINE
  8
ADD_LINE
  6
DOT
 62
    7
 10
384.44638
 20
1780.0686
 11
2757.5705
 21
1780.0686
  0
LINE
  8
ADD_LINE
  6
DOT
 62
    7
 10
384.44638
 20
560.0686
 11
2757.5705
 21
560.0686
  0
LINE
  8
0-2
  6
CONTINUOUS
 62
    3
 10
965.00006
 20
1780.0686
 11
1138.8806
 21
1780.0686
  0
LINE
  8
0-2
  6
CONTINUOUS
 62
    3
 10
965.00006
 20
1780.0686
 11
2185.0002
 21
1780.0686
  0
LINE
  8
0-2
  6
CONTINUOUS
 62
    3
 10
965.00006
 20
560.06833
 11
965.00006
 21
1780.0686
  0
LINE
  8
0-2
  6
CONTINUOUS
 62
    3
 10
2184.9998
 20
2212.0518
 11
1574.9999
 21
2395.4245
  0
LINE
  8
0-2
  6
CONTINUOUS
 62
    3
 10
1574.9999
 20
2395.4245
 11
965.00006
 21
2212.4318
  0
LINE
  8
0-1
  6
CENTER2
 62
    7
 10
965.00006
 20
1170.0685
 11
2185.0002
 21
1170.0685
  0
ARC
  8
0-2
  6
CONTINUOUS
 62
    3
 10
1272.5001
 20
2671.6102
 40
6.3715974
 50
270
 51
90
  0
ARC
  8
0-2
  6
CONTINUOUS
 62
    3
 10
2054.9996
 20
3447.8028
 40
6.3715974
 50
270
 51
90
  0
ARC
  8
0-2
  6
CONTINUOUS
 62
    3
 10
2054.9996
 20
3396.8292
 40
6.3715974
 50
270
 51
90
  0
ARC
  8
0-2
  6
CONTINUOUS
 62
    3
 10
1877.5003
 20
2671.6102
 40
6.3715974
 50
90
 51
270
  0
ARC
  8
0-2
  6
CONTINUOUS
 62
    3
 10
1095.0017
 20
3447.8028
 40
6.3715974
 50
90
 51
270
  0
ARC
  8
0-2
  6
CONTINUOUS
 62
    3
 10
1095.0017
 20
3396.8292
 40
6.3715974
 50
90
 51
270
  0
ARC
  8
0-2
  6
CONTINUOUS
 62
    3
 10
1882.4998
 20
3221.8735
 40
6.3715974
 50
270
 51
90
  0
ARC
  8
0-2
  6
CONTINUOUS
 62
    3
 10
1882.4998
 20
3170.8999
 40
6.3715974
 50
270
 51
90
  0
ARC
  8
0-2
  6
CONTINUOUS
 62
    3
 10
1267.4998
 20
3221.8735
 40
6.3715974
 50
90
 51
270
  0
ARC
  8
0-2
  6
CONTINUOUS
 62
    3
 10
1267.4998
 20
3170.8999
 40
6.3715974
 50
90
 51
270
  0
CIRCLE
  8
0-2
  6
CONTINUOUS
 62
    3
 10
1575.0014
 20
1170.0685
 40
302.49995
  0
TEXT
  8
0-d
 10
382.49967
 20
236.24984
 40
37.5
 41
1
 50
0
  1
図
  0
TEXT
  8
0-d
 10
382.49967
 20
146.24993
 40
37.5
 41
1
 50
0
  1
番
  0
TEXT
  8
0-d
 10
982.50061
 20
236.24984
 40
37.5
 41
1
 50
0
  1
承
  0
TEXT
  8
0-d
 10
982.50061
 20
146.24993
 40
37.5
 41
1
 50
0
  1
認
  0
TEXT
  8
0-d
 10
1530.0003
 20
356.24988
 40
37.5
 41
1
 50
0
  1
尺
  0
TEXT
  8
0-d
 10
1530.0003
 20
296.24964
 40
37.5
 41
1
 50
0.0000762
  1
度
  0
TEXT
  8
0-d
 10
1282.5001
 20
236.24984
 40
37.5
 41
1
 50
0
  1
製
  0
TEXT
  8
0-d
 10
1282.5001
 20
146.24993
 40
37.5
 41
1
 50
0
  1
図
  0
TEXT
  8
0-d
 10
2332.5
 20
356.24988
 40
37.5
 41
1
 50
0
  1
日
  0
TEXT
  8
0-d
 10
2332.5
 20
296.24964
 40
37.5
 41
1
 50
0.0000762
  1
付
  0
TEXT
  8
0-d
 10
1667.1394
 20
245.22337
 40
30
 41
1
 50
0
  1
株式
  0
TEXT
  8
0-d
 10
1667.1394
 20
212.77768
 40
30
 41
1
 50
0.0000152
  1
会社
  0
TEXT
  8
0-d
 10
1761.3369
 20
214.87067
 40
60
 41
1
 50
0
  1
スズキベンチレーター
  0
TEXT
  8
0-d
 10
1856.8772
 20
141.03626
 40
30
 41
1
 50
0
  1
TEL(054)296-7000  FAX(054)296-7001
  0
TEXT
  8
0-d
 10
879.03019
 20
2111.7637
 40
45
 41
1
 50
0
  1
3
  0
TEXT
  8
0-d
 10
784.42417
 20
2044.7612
 40
45
 41
1
 50
0
  1
10
  0
TEXT
  8
0-8
 10
1502.4996
 20
3948.9531
 40
45
 41
1
 50
0
  1
  960
  0
TEXT
  8
0-8
 10
1504.9997
 20
2992.5895
 40
45
 41
1
 50
0
  1
615φ
  0
TEXT
  8
0-8
 10
1504.9997
 20
2884.0361
 40
45
 41
1
 50
0
  1
605φ
  0
TEXT
  8
0-8
 10
1532.4715
 20
1975.4638
 40
45
 41
1
 50
0
  1
750
  0
TEXT
  8
0-8
 10
1497.5411
 20
1179.4584
 40
45
 41
1
 50
19.303787
  1
605φ
  0
TEXT
  8
0-8
 10
2560.0003
 20
1127.5686
 40
45
 41
1
 50
90
  1
750
  0
TEXT
  8
0-8
 10
512.56675
 20
2395.393
 40
45
 41
1
 50
90
  1
320
  0
TEXT
  8
0-8
 10
512.56675
 20
3392.5594
 40
45
 41
1
 50
90
  1
570
  0
TEXT
  8
0-8
 10
512.56675
 20
2615.703
 40
45
 41
1
 50
90
  1
90
  0
TEXT
  8
0-d
 10
382.50004
 20
4189.0519
 40
75
 41
1
 50
0
  1
ＳＴ－６０　直付型立面、直付袴立面・平面
  0
TEXT
  8
0-d
 10
1626.5234
 20
315.15095
 40
60
 41
1
 50
0
  1
１／１５
  0
TEXT
  8
0-d
 10
462.68887
 20
210.4532
 40
45
 41
1
 50
0
  1
60-D01
  0
TEXT
  8
0-d
 10
421.01348
 20
323.7162
 40
45
 41
1
 50
0
  1
ＳＴ－６０　直付型立面、直付袴立面・平面
  0
TEXT
  8
0-8
 10
521.06241
 20
1097.5682
 40
45
 41
1
 50
90
  1
≒ 1,220
  0
TEXT
  8
0-d
 10
1853.5187
 20
177.96888
 40
30
 41
1
 50
0
  1
〒421-2114　静岡市葵区安倍口新田１５２番地
  0
POINT
  8
0-8
 62
    2
 10
555.53146
 20
3134.7934
  0
POINT
  8
0-8
 62
    2
 10
555.53146
 20
3704.7938
  0
POINT
  8
0-8
 62
    2
 10
1095.0017
 20
3905.9869
  0
POINT
  8
0-8
 62
    2
 10
2054.9996
 20
3905.9869
  0
POINT
  8
0-8
 62
    2
 10
555.53146
 20
2280.725
  0
POINT
  8
0-8
 62
    2
 10
555.53146
 20
2600.725
  0
POINT
  8
0-8
 62
    2
 10
555.53146
 20
2690.725
  0
POINT
  8
0-8
 62
    2
 10
555.53146
 20
560.06833
  0
POINT
  8
0-8
 62
    2
 10
555.53146
 20
1780.0686
  0
POINT
  8
0-8
 62
    2
 10
2594.4691
 20
795.06885
  0
POINT
  8
0-8
 62
    2
 10
2594.4691
 20
1545.0683
  0
POINT
  8
0-8
 62
    2
 10
1200
 20
1940.9949
  0
POINT
  8
0-8
 62
    2
 10
1950
 20
1940.9949
  0
POINT
  8
0-8
 62
    2
 10
1267.4998
 20
2958.1199
  0
POINT
  8
0-8
 62
    2
 10
1882.4998
 20
2958.1199
  0
POINT
  8
0-8
 62
    2
 10
1289.5081
 20
1070.0689
  0
POINT
  8
0-8
 62
    2
 10
1860.4949
 20
1270.0676
  0
POINT
  8
0-8
 62
    2
 10
1272.5001
 20
2849.5672
  0
POINT
  8
0-8
 62
    2
 10
1877.4999
 20
2849.5672
  0
ENDSEC
  0
EOF
