  0
SECTION
  2
HEADER
  9
$EXTMIN
 10
0
 20
0
  9
$EXTMAX
 10
4200
 20
2970
  0
ENDSEC
  0
SECTION
  2
TABLES
  0
TABLE
  2
LTYPE
 70
     9
  0
LTYPE
  2
CONTINUOUS
 70
    64
  3
実線
 72
    65
 73
     0
 40
0.0
  0
LTYPE
  2
DASHED1
 70
    64
  3
--  --  --  --  --  --  --  --  
 72
    65
 73
     2
 40
2.5
 49
1.25
 49
-1.25
  0
LTYPE
  2
DASHED2
 70
    64
  3
----    ----    ----    ----    
 72
    65
 73
     2
 40
5.0
 49
2.5
 49
-2.5
  0
LTYPE
  2
DASHED3
 70
    64
  3
------  ------  ------  ------  
 72
    65
 73
     2
 40
5.0
 49
3.75
 49
-1.25
  0
LTYPE
  2
CENTER1
 70
    64
  3
----- - ----- - ----- - ----- - 
 72
    65
 73
     4
 40
10.0
 49
6.25
 49
-1.25
 49
1.25
 49
-1.25
  0
LTYPE
  2
CENTER2
 70
    64
  3
----------  --  ----------  --  
 72
    65
 73
     4
 40
20.0
 49
12.5
 49
-2.5
 49
2.5
 49
-2.5
  0
LTYPE
  2
PHANTOM1
 70
    64
  3
--- - - --- - - --- - - --- - - 
 72
    65
 73
     6
 40
10.0
 49
3.25
 49
-1.25
 49
1.25
 49
-1.25
 49
1.25
 49
-1.25
  0
LTYPE
  2
PHANTOM2
 70
    64
  3
--------  -  -  --------  -  -  
 72
    65
 73
     6
 40
20.0
 49
10.0
 49
-2.5
 49
1.25
 49
-2.5
 49
1.25
 49
-2.5
  0
LTYPE
  2
DOT
 70
    64
  3
-   -   -   -   -   -   -   -   
 72
    65
 73
     2
 40
2.5
 49
0.625
 49
-1.875
  0
ENDTAB
  0
TABLE
  2
STYLE
 70
    1
  0
STYLE
  2
STANDARD
 70
    64
 40
0.0
 41
1.0
 42
0.0
 50
0.0
 71
     0
  3
TXT
  4
BIGFONT
  0
ENDTAB
  0
TABLE
  2
LAYER
 70
    4
  0
LAYER
  2
0-2
 70
   64
 62
    7
  6
CONTINUOUS
  0
LAYER
  2
0-8
 70
   64
 62
    7
  6
CONTINUOUS
  0
LAYER
  2
0-d
 70
   64
 62
    7
  6
CONTINUOUS
  0
LAYER
  2
ADD_LINE
 70
   64
 62
    7
  6
CONTINUOUS
  0
ENDTAB
  0
ENDSEC
  0
SECTION
  2
ENTITIES
  0
LINE
  8
0-d
  6
CONTINUOUS
 62
    7
 10
250.00004
 20
2757.7013
 11
1850.0001
 21
2757.7013
  0
LINE
  8
0-d
  6
CONTINUOUS
 62
    7
 10
250.00004
 20
2767.7016
 11
1850.0001
 21
2767.7016
  0
LINE
  8
0-d
  6
CONTINUOUS
 62
    7
 10
254.99974
 20
200.00017
 11
1855.0003
 21
200.00017
  0
LINE
  8
0-d
  6
CONTINUOUS
 62
    7
 10
254.99974
 20
100.00008
 11
254.99974
 21
280.00019
  0
LINE
  8
0-d
  6
CONTINUOUS
 62
    7
 10
254.99974
 20
100.00008
 11
1855.0003
 21
100.00008
  0
LINE
  8
0-d
  6
CONTINUOUS
 62
    7
 10
254.99974
 20
280.00019
 11
1855.0003
 21
280.00019
  0
LINE
  8
0-d
  6
CONTINUOUS
 62
    7
 10
1055.0001
 20
280.00019
 11
1055.0001
 21
100.00008
  0
LINE
  8
0-d
  6
CONTINUOUS
 62
    7
 10
655.00033
 20
100.00008
 11
655.00033
 21
200.00017
  0
LINE
  8
0-d
  6
CONTINUOUS
 62
    7
 10
1055.0001
 20
200.00017
 11
1055.0001
 21
280.00019
  0
LINE
  8
0-d
  6
CONTINUOUS
 62
    7
 10
854.99977
 20
100.00008
 11
854.99977
 21
200.00017
  0
LINE
  8
0-d
  6
CONTINUOUS
 62
    7
 10
290.0001
 20
100.00008
 11
290.0001
 21
200.00017
  0
LINE
  8
0-d
  6
CONTINUOUS
 62
    7
 10
690.0002
 20
100.00008
 11
690.0002
 21
200.00017
  0
LINE
  8
0-d
  6
CONTINUOUS
 62
    7
 10
890.00013
 20
100.00008
 11
890.00013
 21
200.00017
  0
LINE
  8
0-d
  6
CONTINUOUS
 62
    7
 10
1020
 20
200.00017
 11
1020
 21
280.00019
  0
LINE
  8
0-d
  6
CONTINUOUS
 62
    7
 10
1555.0003
 20
200.00017
 11
1555.0003
 21
280.00019
  0
LINE
  8
0-d
  6
CONTINUOUS
 62
    7
 10
1590.0002
 20
200.00017
 11
1590.0002
 21
280.00019
  0
LINE
  8
0-d
  6
CONTINUOUS
 62
    7
 10
1855.0003
 20
280.00019
 11
1855.0003
 21
100.00008
  0
LINE
  8
0-8
  6
CONTINUOUS
 62
    7
 10
625.00023
 20
2567.7089
 11
1485.0001
 21
2567.7089
  0
LINE
  8
0-8
  6
CONTINUOUS
 62
    7
 10
1485.0001
 20
2343.9488
 11
1485.0001
 21
2567.7089
  0
LINE
  8
0-8
  6
CONTINUOUS
 62
    7
 10
625.00023
 20
2567.7089
 11
625.00023
 21
2343.9488
  0
LINE
  8
0-2
  6
CONTINUOUS
 62
    3
 10
625.00147
 20
1778.785
 11
625.00048
 21
1684.4628
  0
LINE
  8
0-2
  6
CONTINUOUS
 62
    3
 10
797.50019
 20
1571.2796
 11
797.49896
 21
1475.0505
  0
LINE
  8
0-2
  6
CONTINUOUS
 62
    3
 10
1485.0011
 20
1778.785
 11
1485.0001
 21
1684.4628
  0
LINE
  8
0-2
  6
CONTINUOUS
 62
    3
 10
625.00023
 20
2174.9288
 11
1485.0011
 21
2174.9288
  0
LINE
  8
0-2
  6
CONTINUOUS
 62
    3
 10
625.00023
 20
2193.7926
 11
1485.0011
 21
2193.7926
  0
LINE
  8
0-2
  6
CONTINUOUS
 62
    3
 10
625.00023
 20
2174.9288
 11
625.00023
 21
2080.6082
  0
LINE
  8
0-2
  6
CONTINUOUS
 62
    3
 10
1485.0001
 20
2174.9288
 11
1485.0001
 21
2080.6082
  0
LINE
  8
0-8
  6
CONTINUOUS
 62
    7
 10
635.81954
 20
1399.5939
 11
460.45039
 21
1399.5939
  0
LINE
  8
0-2
  6
CONTINUOUS
 62
    3
 10
625.00048
 20
1665.5999
 11
709.2337
 21
1571.2796
  0
LINE
  8
0-2
  6
CONTINUOUS
 62
    3
 10
1055.0001
 20
2429.5939
 11
1274.1051
 21
2288.1132
  0
LINE
  8
0-2
  6
CONTINUOUS
 62
    3
 10
1485.0001
 20
2193.7926
 11
1400.7669
 21
2288.1132
  0
LINE
  8
0-2
  6
CONTINUOUS
 62
    3
 10
625.00023
 20
2193.7926
 11
709.23345
 21
2288.1132
  0
LINE
  8
0-2
  6
CONTINUOUS
 62
    3
 10
980.07244
 20
2280.3174
 11
980.76651
 21
2280.5247
  0
LINE
  8
0-2
  6
CONTINUOUS
 62
    3
 10
980.76651
 20
2280.5247
 11
981.41851
 21
2280.8073
  0
LINE
  8
0-2
  6
CONTINUOUS
 62
    3
 10
981.41851
 20
2280.8073
 11
982.02894
 21
2281.1592
  0
LINE
  8
0-2
  6
CONTINUOUS
 62
    3
 10
982.02894
 20
2281.1592
 11
982.59855
 21
2281.5759
  0
LINE
  8
0-2
  6
CONTINUOUS
 62
    3
 10
982.59855
 20
2281.5759
 11
983.12832
 21
2282.0524
  0
LINE
  8
0-2
  6
CONTINUOUS
 62
    3
 10
983.12832
 20
2282.0524
 11
983.6185
 21
2282.5815
  0
LINE
  8
0-2
  6
CONTINUOUS
 62
    3
 10
983.6185
 20
2282.5815
 11
984.07057
 21
2283.1585
  0
LINE
  8
0-2
  6
CONTINUOUS
 62
    3
 10
984.07057
 20
2283.1585
 11
984.48503
 21
2283.7796
  0
LINE
  8
0-2
  6
CONTINUOUS
 62
    3
 10
984.48503
 20
2283.7796
 11
984.86238
 21
2284.4382
  0
LINE
  8
0-2
  6
CONTINUOUS
 62
    3
 10
984.86238
 20
2284.4382
 11
985.2036
 21
2285.1291
  0
LINE
  8
0-2
  6
CONTINUOUS
 62
    3
 10
985.2036
 20
2285.1291
 11
985.50943
 21
2285.8477
  0
LINE
  8
0-2
  6
CONTINUOUS
 62
    3
 10
985.50943
 20
2285.8477
 11
985.78063
 21
2286.588
  0
LINE
  8
0-2
  6
CONTINUOUS
 62
    3
 10
985.78063
 20
2286.588
 11
986.01767
 21
2287.3452
  0
LINE
  8
0-2
  6
CONTINUOUS
 62
    3
 10
986.01767
 20
2287.3452
 11
986.22206
 21
2288.1132
  0
LINE
  8
0-2
  6
CONTINUOUS
 62
    3
 10
976.25964
 20
2280.2758
 11
975.45719
 21
2280.5638
  0
LINE
  8
0-2
  6
CONTINUOUS
 62
    3
 10
975.45719
 20
2280.5638
 11
974.70398
 21
2280.9048
  0
LINE
  8
0-2
  6
CONTINUOUS
 62
    3
 10
974.70398
 20
2280.9048
 11
973.99977
 21
2281.2953
  0
LINE
  8
0-2
  6
CONTINUOUS
 62
    3
 10
973.99977
 20
2281.2953
 11
973.3443
 21
2281.7327
  0
LINE
  8
0-2
  6
CONTINUOUS
 62
    3
 10
973.3443
 20
2281.7327
 11
972.73659
 21
2282.2143
  0
LINE
  8
0-2
  6
CONTINUOUS
 62
    3
 10
972.73659
 20
2282.2143
 11
972.17614
 21
2282.7383
  0
LINE
  8
0-2
  6
CONTINUOUS
 62
    3
 10
972.17614
 20
2282.7383
 11
971.66295
 21
2283.301
  0
LINE
  8
0-2
  6
CONTINUOUS
 62
    3
 10
971.66295
 20
2283.301
 11
971.19603
 21
2283.9008
  0
LINE
  8
0-2
  6
CONTINUOUS
 62
    3
 10
971.19603
 20
2283.9008
 11
970.77489
 21
2284.5333
  0
LINE
  8
0-2
  6
CONTINUOUS
 62
    3
 10
970.77489
 20
2284.5333
 11
970.39902
 21
2285.1974
  0
LINE
  8
0-2
  6
CONTINUOUS
 62
    3
 10
970.39902
 20
2285.1974
 11
970.0682
 21
2285.8902
  0
LINE
  8
0-2
  6
CONTINUOUS
 62
    3
 10
970.0682
 20
2285.8902
 11
969.78141
 21
2286.6088
  0
LINE
  8
0-2
  6
CONTINUOUS
 62
    3
 10
969.78141
 20
2286.6088
 11
969.53843
 21
2287.3511
  0
LINE
  8
0-2
  6
CONTINUOUS
 62
    3
 10
969.53843
 20
2287.3511
 11
969.3385
 21
2288.1132
  0
LINE
  8
0-2
  6
CONTINUOUS
 62
    3
 10
936.2308
 20
2288.1132
 11
935.45334
 21
2286.8468
  0
LINE
  8
0-2
  6
CONTINUOUS
 62
    3
 10
935.45334
 20
2286.8468
 11
934.66698
 21
2285.721
  0
LINE
  8
0-2
  6
CONTINUOUS
 62
    3
 10
934.66698
 20
2285.721
 11
933.87443
 21
2284.7265
  0
LINE
  8
0-2
  6
CONTINUOUS
 62
    3
 10
933.87443
 20
2284.7265
 11
933.07916
 21
2283.8568
  0
LINE
  8
0-2
  6
CONTINUOUS
 62
    3
 10
933.07916
 20
2283.8568
 11
932.28438
 21
2283.1026
  0
LINE
  8
0-2
  6
CONTINUOUS
 62
    3
 10
932.28438
 20
2283.1026
 11
931.49257
 21
2282.4582
  0
LINE
  8
0-2
  6
CONTINUOUS
 62
    3
 10
931.49257
 20
2282.4582
 11
930.70745
 21
2281.9144
  0
LINE
  8
0-2
  6
CONTINUOUS
 62
    3
 10
930.70745
 20
2281.9144
 11
929.93148
 21
2281.4633
  0
LINE
  8
0-2
  6
CONTINUOUS
 62
    3
 10
929.93148
 20
2281.4633
 11
929.16862
 21
2281.0973
  0
LINE
  8
0-2
  6
CONTINUOUS
 62
    3
 10
929.16862
 20
2281.0973
 11
928.42086
 21
2280.8098
  0
LINE
  8
0-2
  6
CONTINUOUS
 62
    3
 10
928.42086
 20
2280.8098
 11
927.69239
 21
2280.5911
  0
LINE
  8
0-2
  6
CONTINUOUS
 62
    3
 10
927.69239
 20
2280.5911
 11
926.98571
 21
2280.4342
  0
LINE
  8
0-2
  6
CONTINUOUS
 62
    3
 10
926.98571
 20
2280.4342
 11
926.30376
 21
2280.3317
  0
LINE
  8
0-2
  6
CONTINUOUS
 62
    3
 10
926.30376
 20
2280.3317
 11
925.65003
 21
2280.2758
  0
LINE
  8
0-2
  6
CONTINUOUS
 62
    3
 10
920.08659
 20
2288.1132
 11
920.10985
 21
2287.2026
  0
LINE
  8
0-2
  6
CONTINUOUS
 62
    3
 10
920.10985
 20
2287.2026
 11
920.18037
 21
2286.3604
  0
LINE
  8
0-2
  6
CONTINUOUS
 62
    3
 10
920.18037
 20
2286.3604
 11
920.30013
 21
2285.5844
  0
LINE
  8
0-2
  6
CONTINUOUS
 62
    3
 10
920.30013
 20
2285.5844
 11
920.47235
 21
2284.8693
  0
LINE
  8
0-2
  6
CONTINUOUS
 62
    3
 10
920.47235
 20
2284.8693
 11
920.69974
 21
2284.2126
  0
LINE
  8
0-2
  6
CONTINUOUS
 62
    3
 10
920.69974
 20
2284.2126
 11
920.98455
 21
2283.6101
  0
LINE
  8
0-2
  6
CONTINUOUS
 62
    3
 10
920.98455
 20
2283.6101
 11
921.32948
 21
2283.0575
  0
LINE
  8
0-2
  6
CONTINUOUS
 62
    3
 10
921.32948
 20
2283.0575
 11
921.73701
 21
2282.5513
  0
LINE
  8
0-2
  6
CONTINUOUS
 62
    3
 10
921.73701
 20
2282.5513
 11
922.21036
 21
2282.0876
  0
LINE
  8
0-2
  6
CONTINUOUS
 62
    3
 10
922.21036
 20
2282.0876
 11
922.75152
 21
2281.6625
  0
LINE
  8
0-2
  6
CONTINUOUS
 62
    3
 10
922.75152
 20
2281.6625
 11
923.36368
 21
2281.273
  0
LINE
  8
0-2
  6
CONTINUOUS
 62
    3
 10
923.36368
 20
2281.273
 11
924.04909
 21
2280.914
  0
LINE
  8
0-2
  6
CONTINUOUS
 62
    3
 10
924.04909
 20
2280.914
 11
924.81046
 21
2280.5826
  0
LINE
  8
0-2
  6
CONTINUOUS
 62
    3
 10
924.81046
 20
2280.5826
 11
925.65003
 21
2280.2758
  0
LINE
  8
0-2
  6
CONTINUOUS
 62
    3
 10
873.75521
 20
2288.1132
 11
874.15186
 21
2287.0438
  0
LINE
  8
0-2
  6
CONTINUOUS
 62
    3
 10
874.15186
 20
2287.0438
 11
874.56459
 21
2286.0728
  0
LINE
  8
0-2
  6
CONTINUOUS
 62
    3
 10
874.56459
 20
2286.0728
 11
874.99365
 21
2285.1974
  0
LINE
  8
0-2
  6
CONTINUOUS
 62
    3
 10
874.99365
 20
2285.1974
 11
875.43854
 21
2284.411
  0
LINE
  8
0-2
  6
CONTINUOUS
 62
    3
 10
875.43854
 20
2284.411
 11
875.89829
 21
2283.7108
  0
LINE
  8
0-2
  6
CONTINUOUS
 62
    3
 10
875.89829
 20
2283.7108
 11
876.37312
 21
2283.0902
  0
LINE
  8
0-2
  6
CONTINUOUS
 62
    3
 10
876.37312
 20
2283.0902
 11
876.86207
 21
2282.5448
  0
LINE
  8
0-2
  6
CONTINUOUS
 62
    3
 10
876.86207
 20
2282.5448
 11
877.36536
 21
2282.0707
  0
LINE
  8
0-2
  6
CONTINUOUS
 62
    3
 10
877.36536
 20
2282.0707
 11
877.88177
 21
2281.662
  0
LINE
  8
0-2
  6
CONTINUOUS
 62
    3
 10
877.88177
 20
2281.662
 11
878.41178
 21
2281.3151
  0
LINE
  8
0-2
  6
CONTINUOUS
 62
    3
 10
878.41178
 20
2281.3151
 11
878.95442
 21
2281.0241
  0
LINE
  8
0-2
  6
CONTINUOUS
 62
    3
 10
878.95442
 20
2281.0241
 11
879.50942
 21
2280.785
  0
LINE
  8
0-2
  6
CONTINUOUS
 62
    3
 10
879.50942
 20
2280.785
 11
880.07656
 21
2280.593
  0
LINE
  8
0-2
  6
CONTINUOUS
 62
    3
 10
880.07656
 20
2280.593
 11
880.65507
 21
2280.4426
  0
LINE
  8
0-2
  6
CONTINUOUS
 62
    3
 10
881.92716
 20
2280.4426
 11
882.53042
 21
2280.5703
  0
LINE
  8
0-2
  6
CONTINUOUS
 62
    3
 10
882.53042
 20
2280.5703
 11
883.12897
 21
2280.7747
  0
LINE
  8
0-2
  6
CONTINUOUS
 62
    3
 10
883.12897
 20
2280.7747
 11
883.72233
 21
2281.0538
  0
LINE
  8
0-2
  6
CONTINUOUS
 62
    3
 10
883.72233
 20
2281.0538
 11
884.31099
 21
2281.4091
  0
LINE
  8
0-2
  6
CONTINUOUS
 62
    3
 10
884.31099
 20
2281.4091
 11
884.8947
 21
2281.8401
  0
LINE
  8
0-2
  6
CONTINUOUS
 62
    3
 10
884.8947
 20
2281.8401
 11
885.47371
 21
2282.3464
  0
LINE
  8
0-2
  6
CONTINUOUS
 62
    3
 10
885.47371
 20
2282.3464
 11
886.04753
 21
2282.9286
  0
LINE
  8
0-2
  6
CONTINUOUS
 62
    3
 10
886.04753
 20
2282.9286
 11
886.61664
 21
2283.5866
  0
LINE
  8
0-2
  6
CONTINUOUS
 62
    3
 10
886.61664
 20
2283.5866
 11
887.1808
 21
2284.3195
  0
LINE
  8
0-2
  6
CONTINUOUS
 62
    3
 10
831.34724
 20
2288.1132
 11
831.46205
 21
2287.2977
  0
LINE
  8
0-2
  6
CONTINUOUS
 62
    3
 10
831.46205
 20
2287.2977
 11
831.62462
 21
2286.5385
  0
LINE
  8
0-2
  6
CONTINUOUS
 62
    3
 10
831.62462
 20
2286.5385
 11
831.83197
 21
2285.8333
  0
LINE
  8
0-2
  6
CONTINUOUS
 62
    3
 10
831.83197
 20
2285.8333
 11
832.07966
 21
2285.1806
  0
LINE
  8
0-2
  6
CONTINUOUS
 62
    3
 10
832.07966
 20
2285.1806
 11
832.36422
 21
2284.5763
  0
LINE
  8
0-2
  6
CONTINUOUS
 62
    3
 10
832.36422
 20
2284.5763
 11
832.68243
 21
2284.0201
  0
LINE
  8
0-2
  6
CONTINUOUS
 62
    3
 10
832.68243
 20
2284.0201
 11
833.03082
 21
2283.5091
  0
LINE
  8
0-2
  6
CONTINUOUS
 62
    3
 10
833.03082
 20
2283.5091
 11
833.40668
 21
2283.0427
  0
LINE
  8
0-2
  6
CONTINUOUS
 62
    3
 10
833.40668
 20
2283.0427
 11
833.80729
 21
2282.6181
  0
LINE
  8
0-2
  6
CONTINUOUS
 62
    3
 10
833.80729
 20
2282.6181
 11
834.22942
 21
2282.2341
  0
LINE
  8
0-2
  6
CONTINUOUS
 62
    3
 10
834.22942
 20
2282.2341
 11
834.67135
 21
2281.8896
  0
LINE
  8
0-2
  6
CONTINUOUS
 62
    3
 10
834.67135
 20
2281.8896
 11
835.13035
 21
2281.5848
  0
LINE
  8
0-2
  6
CONTINUOUS
 62
    3
 10
835.13035
 20
2281.5848
 11
835.60444
 21
2281.3151
  0
LINE
  8
0-2
  6
CONTINUOUS
 62
    3
 10
835.60444
 20
2281.3151
 11
836.0919
 21
2281.083
  0
LINE
  8
0-2
  6
CONTINUOUS
 62
    3
 10
836.0919
 20
2281.083
 11
836.59098
 21
2280.886
  0
LINE
  8
0-2
  6
CONTINUOUS
 62
    3
 10
836.59098
 20
2280.886
 11
837.10022
 21
2280.7237
  0
LINE
  8
0-2
  6
CONTINUOUS
 62
    3
 10
837.10022
 20
2280.7237
 11
837.61811
 21
2280.596
  0
LINE
  8
0-2
  6
CONTINUOUS
 62
    3
 10
837.61811
 20
2280.596
 11
838.14392
 21
2280.5027
  0
LINE
  8
0-2
  6
CONTINUOUS
 62
    3
 10
838.14392
 20
2280.5027
 11
838.67641
 21
2280.4426
  0
LINE
  8
0-2
  6
CONTINUOUS
 62
    3
 10
838.81077
 20
2280.4495
 11
839.11042
 21
2280.4827
  0
LINE
  8
0-2
  6
CONTINUOUS
 62
    3
 10
839.11042
 20
2280.4827
 11
839.40512
 21
2280.5302
  0
LINE
  8
0-2
  6
CONTINUOUS
 62
    3
 10
839.40512
 20
2280.5302
 11
839.69462
 21
2280.593
  0
LINE
  8
0-2
  6
CONTINUOUS
 62
    3
 10
839.69462
 20
2280.593
 11
839.97893
 21
2280.6692
  0
LINE
  8
0-2
  6
CONTINUOUS
 62
    3
 10
839.97893
 20
2280.6692
 11
840.25829
 21
2280.7598
  0
LINE
  8
0-2
  6
CONTINUOUS
 62
    3
 10
840.25829
 20
2280.7598
 11
840.53221
 21
2280.8652
  0
LINE
  8
0-2
  6
CONTINUOUS
 62
    3
 10
840.53221
 20
2280.8652
 11
840.80117
 21
2280.9855
  0
LINE
  8
0-2
  6
CONTINUOUS
 62
    3
 10
840.80117
 20
2280.9855
 11
841.0647
 21
2281.1201
  0
LINE
  8
0-2
  6
CONTINUOUS
 62
    3
 10
841.0647
 20
2281.1201
 11
841.32327
 21
2281.2685
  0
LINE
  8
0-2
  6
CONTINUOUS
 62
    3
 10
717.63428
 20
2288.1132
 11
717.73722
 21
2287.2556
  0
LINE
  8
0-2
  6
CONTINUOUS
 62
    3
 10
717.73722
 20
2287.2556
 11
717.8456
 21
2286.4712
  0
LINE
  8
0-2
  6
CONTINUOUS
 62
    3
 10
717.8456
 20
2286.4712
 11
717.96016
 21
2285.7616
  0
LINE
  8
0-2
  6
CONTINUOUS
 62
    3
 10
717.96016
 20
2285.7616
 11
718.08091
 21
2285.1256
  0
LINE
  8
0-2
  6
CONTINUOUS
 62
    3
 10
718.08091
 20
2285.1256
 11
718.20711
 21
2284.5644
  0
LINE
  8
0-2
  6
CONTINUOUS
 62
    3
 10
718.20711
 20
2284.5644
 11
718.33998
 21
2284.0765
  0
LINE
  8
0-2
  6
CONTINUOUS
 62
    3
 10
718.33998
 20
2284.0765
 11
718.47805
 21
2283.6623
  0
LINE
  8
0-2
  6
CONTINUOUS
 62
    3
 10
718.47805
 20
2283.6623
 11
718.62231
 21
2283.3233
  0
LINE
  8
0-2
  6
CONTINUOUS
 62
    3
 10
718.62231
 20
2283.3233
 11
718.77275
 21
2283.0575
  0
LINE
  8
0-2
  6
CONTINUOUS
 62
    3
 10
736.30214
 20
2288.1132
 11
736.35905
 21
2287.4342
  0
LINE
  8
0-2
  6
CONTINUOUS
 62
    3
 10
736.35905
 20
2287.4342
 11
736.45283
 21
2286.7916
  0
LINE
  8
0-2
  6
CONTINUOUS
 62
    3
 10
736.45283
 20
2286.7916
 11
736.57952
 21
2286.1862
  0
LINE
  8
0-2
  6
CONTINUOUS
 62
    3
 10
736.57952
 20
2286.1862
 11
736.7359
 21
2285.618
  0
LINE
  8
0-2
  6
CONTINUOUS
 62
    3
 10
736.7359
 20
2285.618
 11
736.91801
 21
2285.0875
  0
LINE
  8
0-2
  6
CONTINUOUS
 62
    3
 10
736.91801
 20
2285.0875
 11
737.1224
 21
2284.5951
  0
LINE
  8
0-2
  6
CONTINUOUS
 62
    3
 10
737.1224
 20
2284.5951
 11
737.34559
 21
2284.1393
  0
LINE
  8
0-2
  6
CONTINUOUS
 62
    3
 10
737.34559
 20
2284.1393
 11
737.58338
 21
2283.7226
  0
LINE
  8
0-2
  6
CONTINUOUS
 62
    3
 10
737.58338
 20
2283.7226
 11
737.83255
 21
2283.3431
  0
LINE
  8
0-2
  6
CONTINUOUS
 62
    3
 10
737.83255
 20
2283.3431
 11
738.08939
 21
2283.0031
  0
LINE
  8
0-2
  6
CONTINUOUS
 62
    3
 10
738.08939
 20
2283.0031
 11
738.35019
 21
2282.7012
  0
LINE
  8
0-2
  6
CONTINUOUS
 62
    3
 10
738.35019
 20
2282.7012
 11
738.61149
 21
2282.4379
  0
LINE
  8
0-2
  6
CONTINUOUS
 62
    3
 10
738.61149
 20
2282.4379
 11
738.86932
 21
2282.2143
  0
LINE
  8
0-2
  6
CONTINUOUS
 62
    3
 10
738.86932
 20
2282.2143
 11
739.12023
 21
2282.0292
  0
LINE
  8
0-2
  6
CONTINUOUS
 62
    3
 10
761.86886
 20
2288.1132
 11
762.0381
 21
2287.357
  0
LINE
  8
0-2
  6
CONTINUOUS
 62
    3
 10
762.0381
 20
2287.357
 11
762.24472
 21
2286.6494
  0
LINE
  8
0-2
  6
CONTINUOUS
 62
    3
 10
762.24472
 20
2286.6494
 11
762.48647
 21
2285.9887
  0
LINE
  8
0-2
  6
CONTINUOUS
 62
    3
 10
762.48647
 20
2285.9887
 11
762.76211
 21
2285.3765
  0
LINE
  8
0-2
  6
CONTINUOUS
 62
    3
 10
762.76211
 20
2285.3765
 11
763.06993
 21
2284.8099
  0
LINE
  8
0-2
  6
CONTINUOUS
 62
    3
 10
763.06993
 20
2284.8099
 11
763.40892
 21
2284.2908
  0
LINE
  8
0-2
  6
CONTINUOUS
 62
    3
 10
763.40892
 20
2284.2908
 11
763.77711
 21
2283.8182
  0
LINE
  8
0-2
  6
CONTINUOUS
 62
    3
 10
763.77711
 20
2283.8182
 11
764.17351
 21
2283.3906
  0
LINE
  8
0-2
  6
CONTINUOUS
 62
    3
 10
764.17351
 20
2283.3906
 11
764.59614
 21
2283.01
  0
LINE
  8
0-2
  6
CONTINUOUS
 62
    3
 10
764.59614
 20
2283.01
 11
765.044
 21
2282.673
  0
LINE
  8
0-2
  6
CONTINUOUS
 62
    3
 10
765.044
 20
2282.673
 11
765.51513
 21
2282.381
  0
LINE
  8
0-2
  6
CONTINUOUS
 62
    3
 10
765.51513
 20
2282.381
 11
766.00852
 21
2282.1341
  0
LINE
  8
0-2
  6
CONTINUOUS
 62
    3
 10
766.00852
 20
2282.1341
 11
766.52221
 21
2281.9317
  0
LINE
  8
0-2
  6
CONTINUOUS
 62
    3
 10
766.52221
 20
2281.9317
 11
767.05519
 21
2281.7723
  0
LINE
  8
0-2
  6
CONTINUOUS
 62
    3
 10
793.76633
 20
2288.1132
 11
794.02267
 21
2287.3204
  0
LINE
  8
0-2
  6
CONTINUOUS
 62
    3
 10
794.02267
 20
2287.3204
 11
794.32306
 21
2286.5865
  0
LINE
  8
0-2
  6
CONTINUOUS
 62
    3
 10
794.32306
 20
2286.5865
 11
794.66354
 21
2285.91
  0
LINE
  8
0-2
  6
CONTINUOUS
 62
    3
 10
794.66354
 20
2285.91
 11
795.04089
 21
2285.2914
  0
LINE
  8
0-2
  6
CONTINUOUS
 62
    3
 10
795.04089
 20
2285.2914
 11
795.45114
 21
2284.7317
  0
LINE
  8
0-2
  6
CONTINUOUS
 62
    3
 10
795.45114
 20
2284.7317
 11
795.89035
 21
2284.2304
  0
LINE
  8
0-2
  6
CONTINUOUS
 62
    3
 10
795.89035
 20
2284.2304
 11
796.35529
 21
2283.7855
  0
LINE
  8
0-2
  6
CONTINUOUS
 62
    3
 10
796.35529
 20
2283.7855
 11
796.84077
 21
2283.399
  0
LINE
  8
0-2
  6
CONTINUOUS
 62
    3
 10
796.84077
 20
2283.399
 11
797.34406
 21
2283.0674
  0
LINE
  8
0-2
  6
CONTINUOUS
 62
    3
 10
797.34406
 20
2283.0674
 11
797.85997
 21
2282.7928
  0
LINE
  8
0-2
  6
CONTINUOUS
 62
    3
 10
797.85997
 20
2282.7928
 11
798.38504
 21
2282.5721
  0
LINE
  8
0-2
  6
CONTINUOUS
 62
    3
 10
798.38504
 20
2282.5721
 11
798.91382
 21
2282.4033
  0
LINE
  8
0-2
  6
CONTINUOUS
 62
    3
 10
798.91382
 20
2282.4033
 11
799.44259
 21
2282.286
  0
LINE
  8
0-2
  6
CONTINUOUS
 62
    3
 10
799.44259
 20
2282.286
 11
799.96667
 21
2282.2192
  0
LINE
  8
0-2
  6
CONTINUOUS
 62
    3
 10
799.96667
 20
2282.2192
 11
800.48135
 21
2282.1984
  0
LINE
  8
0-2
  6
CONTINUOUS
 62
    3
 10
800.48135
 20
2282.1984
 11
800.98142
 21
2282.2237
  0
LINE
  8
0-2
  6
CONTINUOUS
 62
    3
 10
800.98142
 20
2282.2237
 11
801.46269
 21
2282.291
  0
LINE
  8
0-2
  6
CONTINUOUS
 62
    3
 10
801.46269
 20
2282.291
 11
801.91972
 21
2282.3984
  0
LINE
  8
0-2
  6
CONTINUOUS
 62
    3
 10
801.91972
 20
2282.3984
 11
802.34729
 21
2282.5429
  0
LINE
  8
0-2
  6
CONTINUOUS
 62
    3
 10
717.63428
 20
2288.1132
 11
709.23345
 21
2288.1132
  0
LINE
  8
0-2
  6
CONTINUOUS
 62
    3
 10
635.3499
 20
2193.7926
 11
717.63428
 21
2288.1132
  0
LINE
  8
0-2
  6
CONTINUOUS
 62
    3
 10
723.06237
 20
2288.1132
 11
642.10179
 21
2193.7926
  0
LINE
  8
0-2
  6
CONTINUOUS
 62
    3
 10
658.57089
 20
2193.7926
 11
736.30214
 21
2288.1132
  0
LINE
  8
0-2
  6
CONTINUOUS
 62
    3
 10
736.30214
 20
2288.1132
 11
723.06237
 21
2288.1132
  0
LINE
  8
0-2
  6
CONTINUOUS
 62
    3
 10
744.08214
 20
2288.1132
 11
668.24826
 21
2193.7926
  0
LINE
  8
0-2
  6
CONTINUOUS
 62
    3
 10
761.86886
 20
2288.1132
 11
744.08214
 21
2288.1132
  0
LINE
  8
0-2
  6
CONTINUOUS
 62
    3
 10
690.37334
 20
2193.7926
 11
761.86886
 21
2288.1132
  0
LINE
  8
0-2
  6
CONTINUOUS
 62
    3
 10
771.83252
 20
2288.1132
 11
702.76711
 21
2193.7926
  0
LINE
  8
0-2
  6
CONTINUOUS
 62
    3
 10
793.78068
 20
2288.1132
 11
771.83252
 21
2288.1132
  0
LINE
  8
0-2
  6
CONTINUOUS
 62
    3
 10
730.06863
 20
2193.7926
 11
793.78068
 21
2288.1132
  0
LINE
  8
0-2
  6
CONTINUOUS
 62
    3
 10
805.71247
 20
2288.1132
 11
744.91032
 21
2193.7926
  0
LINE
  8
0-2
  6
CONTINUOUS
 62
    3
 10
831.34724
 20
2288.1132
 11
805.71247
 21
2288.1132
  0
LINE
  8
0-2
  6
CONTINUOUS
 62
    3
 10
776.79764
 20
2193.7926
 11
831.34724
 21
2288.1132
  0
LINE
  8
0-2
  6
CONTINUOUS
 62
    3
 10
844.9886
 20
2288.1132
 11
793.76633
 21
2193.7926
  0
LINE
  8
0-2
  6
CONTINUOUS
 62
    3
 10
873.75521
 20
2288.1132
 11
844.9886
 21
2288.1132
  0
LINE
  8
0-2
  6
CONTINUOUS
 62
    3
 10
829.54909
 20
2193.7926
 11
873.75521
 21
2288.1132
  0
LINE
  8
0-2
  6
CONTINUOUS
 62
    3
 10
888.81094
 20
2288.1132
 11
848.27707
 21
2193.7926
  0
LINE
  8
0-2
  6
CONTINUOUS
 62
    3
 10
920.08659
 20
2288.1132
 11
888.81094
 21
2288.1132
  0
LINE
  8
0-2
  6
CONTINUOUS
 62
    3
 10
887.1808
 20
2193.7926
 11
920.08659
 21
2288.1132
  0
LINE
  8
0-2
  6
CONTINUOUS
 62
    3
 10
907.26277
 20
2193.7926
 11
936.2308
 21
2288.1132
  0
LINE
  8
0-2
  6
CONTINUOUS
 62
    3
 10
969.3385
 20
2288.1132
 11
936.2308
 21
2288.1132
  0
LINE
  8
0-2
  6
CONTINUOUS
 62
    3
 10
969.3385
 20
2288.1132
 11
948.44517
 21
2193.7926
  0
LINE
  8
0-2
  6
CONTINUOUS
 62
    3
 10
969.44663
 20
2193.7926
 11
986.22206
 21
2288.1132
  0
LINE
  8
0-2
  6
CONTINUOUS
 62
    3
 10
1020.4447
 20
2288.1132
 11
986.22206
 21
2288.1132
  0
LINE
  8
0-2
  6
CONTINUOUS
 62
    3
 10
1020.4447
 20
2288.1132
 11
1012.0166
 21
2193.7926
  0
LINE
  8
0-2
  6
CONTINUOUS
 62
    3
 10
1037.7016
 20
2288.1132
 11
1033.4825
 21
2193.7926
  0
LINE
  8
0-2
  6
CONTINUOUS
 62
    3
 10
1055.0001
 20
2288.1132
 11
1037.7016
 21
2288.1132
  0
LINE
  8
0-2
  6
CONTINUOUS
 62
    3
 10
1485.0001
 20
2193.7926
 11
1400.7669
 21
2288.1132
  0
LINE
  8
0-2
  6
CONTINUOUS
 62
    3
 10
1129.9281
 20
2280.3174
 11
1129.2341
 21
2280.5247
  0
LINE
  8
0-2
  6
CONTINUOUS
 62
    3
 10
1129.2341
 20
2280.5247
 11
1128.5818
 21
2280.8073
  0
LINE
  8
0-2
  6
CONTINUOUS
 62
    3
 10
1128.5818
 20
2280.8073
 11
1127.9714
 21
2281.1592
  0
LINE
  8
0-2
  6
CONTINUOUS
 62
    3
 10
1127.9714
 20
2281.1592
 11
1127.4015
 21
2281.5759
  0
LINE
  8
0-2
  6
CONTINUOUS
 62
    3
 10
1127.4015
 20
2281.5759
 11
1126.8723
 21
2282.0524
  0
LINE
  8
0-2
  6
CONTINUOUS
 62
    3
 10
1126.8723
 20
2282.0524
 11
1126.3816
 21
2282.5815
  0
LINE
  8
0-2
  6
CONTINUOUS
 62
    3
 10
1126.3816
 20
2282.5815
 11
1125.93
 21
2283.1585
  0
LINE
  8
0-2
  6
CONTINUOUS
 62
    3
 10
1125.93
 20
2283.1585
 11
1125.5153
 21
2283.7796
  0
LINE
  8
0-2
  6
CONTINUOUS
 62
    3
 10
1125.5153
 20
2283.7796
 11
1125.138
 21
2284.4382
  0
LINE
  8
0-2
  6
CONTINUOUS
 62
    3
 10
1125.138
 20
2284.4382
 11
1124.7967
 21
2285.1291
  0
LINE
  8
0-2
  6
CONTINUOUS
 62
    3
 10
1124.7967
 20
2285.1291
 11
1124.4914
 21
2285.8477
  0
LINE
  8
0-2
  6
CONTINUOUS
 62
    3
 10
1124.4914
 20
2285.8477
 11
1124.22
 21
2286.588
  0
LINE
  8
0-2
  6
CONTINUOUS
 62
    3
 10
1124.22
 20
2286.588
 11
1123.9824
 21
2287.3452
  0
LINE
  8
0-2
  6
CONTINUOUS
 62
    3
 10
1123.9824
 20
2287.3452
 11
1123.7783
 21
2288.1132
  0
LINE
  8
0-2
  6
CONTINUOUS
 62
    3
 10
1133.7407
 20
2280.2758
 11
1134.5434
 21
2280.5638
  0
LINE
  8
0-2
  6
CONTINUOUS
 62
    3
 10
1134.5434
 20
2280.5638
 11
1135.2966
 21
2280.9048
  0
LINE
  8
0-2
  6
CONTINUOUS
 62
    3
 10
1135.2966
 20
2280.9048
 11
1136.0011
 21
2281.2953
  0
LINE
  8
0-2
  6
CONTINUOUS
 62
    3
 10
1136.0011
 20
2281.2953
 11
1136.656
 21
2281.7327
  0
LINE
  8
0-2
  6
CONTINUOUS
 62
    3
 10
1136.656
 20
2281.7327
 11
1137.2637
 21
2282.2143
  0
LINE
  8
0-2
  6
CONTINUOUS
 62
    3
 10
1137.2637
 20
2282.2143
 11
1137.8242
 21
2282.7383
  0
LINE
  8
0-2
  6
CONTINUOUS
 62
    3
 10
1137.8242
 20
2282.7383
 11
1138.3374
 21
2283.301
  0
LINE
  8
0-2
  6
CONTINUOUS
 62
    3
 10
1138.3374
 20
2283.301
 11
1138.8041
 21
2283.9008
  0
LINE
  8
0-2
  6
CONTINUOUS
 62
    3
 10
1138.8041
 20
2283.9008
 11
1139.2257
 21
2284.5333
  0
LINE
  8
0-2
  6
CONTINUOUS
 62
    3
 10
1139.2257
 20
2284.5333
 11
1139.6013
 21
2285.1974
  0
LINE
  8
0-2
  6
CONTINUOUS
 62
    3
 10
1139.6013
 20
2285.1974
 11
1139.9324
 21
2285.8902
  0
LINE
  8
0-2
  6
CONTINUOUS
 62
    3
 10
1139.9324
 20
2285.8902
 11
1140.2189
 21
2286.6088
  0
LINE
  8
0-2
  6
CONTINUOUS
 62
    3
 10
1140.2189
 20
2286.6088
 11
1140.4619
 21
2287.3511
  0
LINE
  8
0-2
  6
CONTINUOUS
 62
    3
 10
1140.4619
 20
2287.3511
 11
1140.6616
 21
2288.1132
  0
LINE
  8
0-2
  6
CONTINUOUS
 62
    3
 10
1173.7695
 20
2288.1132
 11
1174.547
 21
2286.8468
  0
LINE
  8
0-2
  6
CONTINUOUS
 62
    3
 10
1174.547
 20
2286.8468
 11
1175.3336
 21
2285.721
  0
LINE
  8
0-2
  6
CONTINUOUS
 62
    3
 10
1175.3336
 20
2285.721
 11
1176.1259
 21
2284.7265
  0
LINE
  8
0-2
  6
CONTINUOUS
 62
    3
 10
1176.1259
 20
2284.7265
 11
1176.9209
 21
2283.8568
  0
LINE
  8
0-2
  6
CONTINUOUS
 62
    3
 10
1176.9209
 20
2283.8568
 11
1177.716
 21
2283.1026
  0
LINE
  8
0-2
  6
CONTINUOUS
 62
    3
 10
1177.716
 20
2283.1026
 11
1178.5078
 21
2282.4582
  0
LINE
  8
0-2
  6
CONTINUOUS
 62
    3
 10
1178.5078
 20
2282.4582
 11
1179.2934
 21
2281.9144
  0
LINE
  8
0-2
  6
CONTINUOUS
 62
    3
 10
1179.2934
 20
2281.9144
 11
1180.0689
 21
2281.4633
  0
LINE
  8
0-2
  6
CONTINUOUS
 62
    3
 10
1180.0689
 20
2281.4633
 11
1180.832
 21
2281.0973
  0
LINE
  8
0-2
  6
CONTINUOUS
 62
    3
 10
1180.832
 20
2281.0973
 11
1181.5795
 21
2280.8098
  0
LINE
  8
0-2
  6
CONTINUOUS
 62
    3
 10
1181.5795
 20
2280.8098
 11
1182.3084
 21
2280.5911
  0
LINE
  8
0-2
  6
CONTINUOUS
 62
    3
 10
1182.3084
 20
2280.5911
 11
1183.0146
 21
2280.4342
  0
LINE
  8
0-2
  6
CONTINUOUS
 62
    3
 10
1183.0146
 20
2280.4342
 11
1183.6968
 21
2280.3317
  0
LINE
  8
0-2
  6
CONTINUOUS
 62
    3
 10
1183.6968
 20
2280.3317
 11
1184.3501
 21
2280.2758
  0
LINE
  8
0-2
  6
CONTINUOUS
 62
    3
 10
1189.9137
 20
2288.1132
 11
1189.8905
 21
2287.2026
  0
LINE
  8
0-2
  6
CONTINUOUS
 62
    3
 10
1189.8905
 20
2287.2026
 11
1189.82
 21
2286.3604
  0
LINE
  8
0-2
  6
CONTINUOUS
 62
    3
 10
1189.82
 20
2286.3604
 11
1189.7005
 21
2285.5844
  0
LINE
  8
0-2
  6
CONTINUOUS
 62
    3
 10
1189.7005
 20
2285.5844
 11
1189.5277
 21
2284.8693
  0
LINE
  8
0-2
  6
CONTINUOUS
 62
    3
 10
1189.5277
 20
2284.8693
 11
1189.3011
 21
2284.2126
  0
LINE
  8
0-2
  6
CONTINUOUS
 62
    3
 10
1189.3011
 20
2284.2126
 11
1189.016
 21
2283.6101
  0
LINE
  8
0-2
  6
CONTINUOUS
 62
    3
 10
1189.016
 20
2283.6101
 11
1188.6711
 21
2283.0575
  0
LINE
  8
0-2
  6
CONTINUOUS
 62
    3
 10
1188.6711
 20
2283.0575
 11
1188.2633
 21
2282.5513
  0
LINE
  8
0-2
  6
CONTINUOUS
 62
    3
 10
1188.2633
 20
2282.5513
 11
1187.79
 21
2282.0876
  0
LINE
  8
0-2
  6
CONTINUOUS
 62
    3
 10
1187.79
 20
2282.0876
 11
1187.2488
 21
2281.6625
  0
LINE
  8
0-2
  6
CONTINUOUS
 62
    3
 10
1187.2488
 20
2281.6625
 11
1186.6369
 21
2281.273
  0
LINE
  8
0-2
  6
CONTINUOUS
 62
    3
 10
1186.6369
 20
2281.273
 11
1185.9517
 21
2280.914
  0
LINE
  8
0-2
  6
CONTINUOUS
 62
    3
 10
1185.9517
 20
2280.914
 11
1185.1901
 21
2280.5826
  0
LINE
  8
0-2
  6
CONTINUOUS
 62
    3
 10
1185.1901
 20
2280.5826
 11
1184.3501
 21
2280.2758
  0
LINE
  8
0-2
  6
CONTINUOUS
 62
    3
 10
1236.2454
 20
2288.1132
 11
1235.8485
 21
2287.0438
  0
LINE
  8
0-2
  6
CONTINUOUS
 62
    3
 10
1235.8485
 20
2287.0438
 11
1235.4357
 21
2286.0728
  0
LINE
  8
0-2
  6
CONTINUOUS
 62
    3
 10
1235.4357
 20
2286.0728
 11
1235.0067
 21
2285.1974
  0
LINE
  8
0-2
  6
CONTINUOUS
 62
    3
 10
1235.0067
 20
2285.1974
 11
1234.5618
 21
2284.411
  0
LINE
  8
0-2
  6
CONTINUOUS
 62
    3
 10
1234.5618
 20
2284.411
 11
1234.1023
 21
2283.7108
  0
LINE
  8
0-2
  6
CONTINUOUS
 62
    3
 10
1234.1023
 20
2283.7108
 11
1233.6275
 21
2283.0902
  0
LINE
  8
0-2
  6
CONTINUOUS
 62
    3
 10
1233.6275
 20
2283.0902
 11
1233.1383
 21
2282.5448
  0
LINE
  8
0-2
  6
CONTINUOUS
 62
    3
 10
1233.1383
 20
2282.5448
 11
1232.635
 21
2282.0707
  0
LINE
  8
0-2
  6
CONTINUOUS
 62
    3
 10
1232.635
 20
2282.0707
 11
1232.1183
 21
2281.662
  0
LINE
  8
0-2
  6
CONTINUOUS
 62
    3
 10
1232.1183
 20
2281.662
 11
1231.5888
 21
2281.3151
  0
LINE
  8
0-2
  6
CONTINUOUS
 62
    3
 10
1231.5888
 20
2281.3151
 11
1231.0462
 21
2281.0241
  0
LINE
  8
0-2
  6
CONTINUOUS
 62
    3
 10
1231.0462
 20
2281.0241
 11
1230.4909
 21
2280.785
  0
LINE
  8
0-2
  6
CONTINUOUS
 62
    3
 10
1230.4909
 20
2280.785
 11
1229.9238
 21
2280.593
  0
LINE
  8
0-2
  6
CONTINUOUS
 62
    3
 10
1229.9238
 20
2280.593
 11
1229.3455
 21
2280.4426
  0
LINE
  8
0-2
  6
CONTINUOUS
 62
    3
 10
1228.0732
 20
2280.4426
 11
1227.4704
 21
2280.5703
  0
LINE
  8
0-2
  6
CONTINUOUS
 62
    3
 10
1227.4704
 20
2280.5703
 11
1226.8716
 21
2280.7747
  0
LINE
  8
0-2
  6
CONTINUOUS
 62
    3
 10
1226.8716
 20
2280.7747
 11
1226.2782
 21
2281.0538
  0
LINE
  8
0-2
  6
CONTINUOUS
 62
    3
 10
1226.2782
 20
2281.0538
 11
1225.6896
 21
2281.4091
  0
LINE
  8
0-2
  6
CONTINUOUS
 62
    3
 10
1225.6896
 20
2281.4091
 11
1225.1056
 21
2281.8401
  0
LINE
  8
0-2
  6
CONTINUOUS
 62
    3
 10
1225.1056
 20
2281.8401
 11
1224.5266
 21
2282.3464
  0
LINE
  8
0-2
  6
CONTINUOUS
 62
    3
 10
1224.5266
 20
2282.3464
 11
1223.9528
 21
2282.9286
  0
LINE
  8
0-2
  6
CONTINUOUS
 62
    3
 10
1223.9528
 20
2282.9286
 11
1223.3834
 21
2283.5866
  0
LINE
  8
0-2
  6
CONTINUOUS
 62
    3
 10
1223.3834
 20
2283.5866
 11
1222.8198
 21
2284.3195
  0
LINE
  8
0-2
  6
CONTINUOUS
 62
    3
 10
1278.6531
 20
2288.1132
 11
1278.5388
 21
2287.2977
  0
LINE
  8
0-2
  6
CONTINUOUS
 62
    3
 10
1278.5388
 20
2287.2977
 11
1278.3757
 21
2286.5385
  0
LINE
  8
0-2
  6
CONTINUOUS
 62
    3
 10
1278.3757
 20
2286.5385
 11
1278.1686
 21
2285.8333
  0
LINE
  8
0-2
  6
CONTINUOUS
 62
    3
 10
1278.1686
 20
2285.8333
 11
1277.9209
 21
2285.1806
  0
LINE
  8
0-2
  6
CONTINUOUS
 62
    3
 10
1277.9209
 20
2285.1806
 11
1277.6364
 21
2284.5763
  0
LINE
  8
0-2
  6
CONTINUOUS
 62
    3
 10
1277.6364
 20
2284.5763
 11
1277.3177
 21
2284.0201
  0
LINE
  8
0-2
  6
CONTINUOUS
 62
    3
 10
1277.3177
 20
2284.0201
 11
1276.9693
 21
2283.5091
  0
LINE
  8
0-2
  6
CONTINUOUS
 62
    3
 10
1276.9693
 20
2283.5091
 11
1276.5937
 21
2283.0427
  0
LINE
  8
0-2
  6
CONTINUOUS
 62
    3
 10
1276.5937
 20
2283.0427
 11
1276.1933
 21
2282.6181
  0
LINE
  8
0-2
  6
CONTINUOUS
 62
    3
 10
1276.1933
 20
2282.6181
 11
1275.7707
 21
2282.2341
  0
LINE
  8
0-2
  6
CONTINUOUS
 62
    3
 10
1275.7707
 20
2282.2341
 11
1275.3292
 21
2281.8896
  0
LINE
  8
0-2
  6
CONTINUOUS
 62
    3
 10
1275.3292
 20
2281.8896
 11
1274.87
 21
2281.5848
  0
LINE
  8
0-2
  6
CONTINUOUS
 62
    3
 10
1274.87
 20
2281.5848
 11
1274.3961
 21
2281.3151
  0
LINE
  8
0-2
  6
CONTINUOUS
 62
    3
 10
1274.3961
 20
2281.3151
 11
1273.9087
 21
2281.083
  0
LINE
  8
0-2
  6
CONTINUOUS
 62
    3
 10
1273.9087
 20
2281.083
 11
1273.4096
 21
2280.886
  0
LINE
  8
0-2
  6
CONTINUOUS
 62
    3
 10
1273.4096
 20
2280.886
 11
1272.9004
 21
2280.7237
  0
LINE
  8
0-2
  6
CONTINUOUS
 62
    3
 10
1272.9004
 20
2280.7237
 11
1272.3825
 21
2280.596
  0
LINE
  8
0-2
  6
CONTINUOUS
 62
    3
 10
1272.3825
 20
2280.596
 11
1271.8567
 21
2280.5027
  0
LINE
  8
0-2
  6
CONTINUOUS
 62
    3
 10
1271.8567
 20
2280.5027
 11
1271.3244
 21
2280.4426
  0
LINE
  8
0-2
  6
CONTINUOUS
 62
    3
 10
1271.1901
 20
2280.4495
 11
1270.8902
 21
2280.4827
  0
LINE
  8
0-2
  6
CONTINUOUS
 62
    3
 10
1270.8902
 20
2280.4827
 11
1270.5955
 21
2280.5302
  0
LINE
  8
0-2
  6
CONTINUOUS
 62
    3
 10
1270.5955
 20
2280.5302
 11
1270.306
 21
2280.593
  0
LINE
  8
0-2
  6
CONTINUOUS
 62
    3
 10
1270.306
 20
2280.593
 11
1270.0214
 21
2280.6692
  0
LINE
  8
0-2
  6
CONTINUOUS
 62
    3
 10
1270.0214
 20
2280.6692
 11
1269.7425
 21
2280.7598
  0
LINE
  8
0-2
  6
CONTINUOUS
 62
    3
 10
1269.7425
 20
2280.7598
 11
1269.4681
 21
2280.8652
  0
LINE
  8
0-2
  6
CONTINUOUS
 62
    3
 10
1269.4681
 20
2280.8652
 11
1269.1994
 21
2280.9855
  0
LINE
  8
0-2
  6
CONTINUOUS
 62
    3
 10
1269.1994
 20
2280.9855
 11
1268.9359
 21
2281.1201
  0
LINE
  8
0-2
  6
CONTINUOUS
 62
    3
 10
1268.9359
 20
2281.1201
 11
1268.6773
 21
2281.2685
  0
LINE
  8
0-2
  6
CONTINUOUS
 62
    3
 10
1392.366
 20
2288.1132
 11
1392.2634
 21
2287.2556
  0
LINE
  8
0-2
  6
CONTINUOUS
 62
    3
 10
1392.2634
 20
2287.2556
 11
1392.1547
 21
2286.4712
  0
LINE
  8
0-2
  6
CONTINUOUS
 62
    3
 10
1392.1547
 20
2286.4712
 11
1392.0404
 21
2285.7616
  0
LINE
  8
0-2
  6
CONTINUOUS
 62
    3
 10
1392.0404
 20
2285.7616
 11
1391.9197
 21
2285.1256
  0
LINE
  8
0-2
  6
CONTINUOUS
 62
    3
 10
1391.9197
 20
2285.1256
 11
1391.793
 21
2284.5644
  0
LINE
  8
0-2
  6
CONTINUOUS
 62
    3
 10
1391.793
 20
2284.5644
 11
1391.6606
 21
2284.0765
  0
LINE
  8
0-2
  6
CONTINUOUS
 62
    3
 10
1391.6606
 20
2284.0765
 11
1391.5223
 21
2283.6623
  0
LINE
  8
0-2
  6
CONTINUOUS
 62
    3
 10
1391.5223
 20
2283.6623
 11
1391.3783
 21
2283.3233
  0
LINE
  8
0-2
  6
CONTINUOUS
 62
    3
 10
1391.3783
 20
2283.3233
 11
1391.2278
 21
2283.0575
  0
LINE
  8
0-2
  6
CONTINUOUS
 62
    3
 10
1373.6982
 20
2288.1132
 11
1373.6415
 21
2287.4342
  0
LINE
  8
0-2
  6
CONTINUOUS
 62
    3
 10
1373.6415
 20
2287.4342
 11
1373.5478
 21
2286.7916
  0
LINE
  8
0-2
  6
CONTINUOUS
 62
    3
 10
1373.5478
 20
2286.7916
 11
1373.4206
 21
2286.1862
  0
LINE
  8
0-2
  6
CONTINUOUS
 62
    3
 10
1373.4206
 20
2286.1862
 11
1373.2647
 21
2285.618
  0
LINE
  8
0-2
  6
CONTINUOUS
 62
    3
 10
1373.2647
 20
2285.618
 11
1373.0821
 21
2285.0875
  0
LINE
  8
0-2
  6
CONTINUOUS
 62
    3
 10
1373.0821
 20
2285.0875
 11
1372.8782
 21
2284.5951
  0
LINE
  8
0-2
  6
CONTINUOUS
 62
    3
 10
1372.8782
 20
2284.5951
 11
1372.655
 21
2284.1393
  0
LINE
  8
0-2
  6
CONTINUOUS
 62
    3
 10
1372.655
 20
2284.1393
 11
1372.417
 21
2283.7226
  0
LINE
  8
0-2
  6
CONTINUOUS
 62
    3
 10
1372.417
 20
2283.7226
 11
1372.1675
 21
2283.3431
  0
LINE
  8
0-2
  6
CONTINUOUS
 62
    3
 10
1372.1675
 20
2283.3431
 11
1371.9112
 21
2283.0031
  0
LINE
  8
0-2
  6
CONTINUOUS
 62
    3
 10
1371.9112
 20
2283.0031
 11
1371.6504
 21
2282.7012
  0
LINE
  8
0-2
  6
CONTINUOUS
 62
    3
 10
1371.6504
 20
2282.7012
 11
1371.3888
 21
2282.4379
  0
LINE
  8
0-2
  6
CONTINUOUS
 62
    3
 10
1371.3888
 20
2282.4379
 11
1371.131
 21
2282.2143
  0
LINE
  8
0-2
  6
CONTINUOUS
 62
    3
 10
1371.131
 20
2282.2143
 11
1370.8801
 21
2282.0292
  0
LINE
  8
0-2
  6
CONTINUOUS
 62
    3
 10
1348.1317
 20
2288.1132
 11
1347.962
 21
2287.357
  0
LINE
  8
0-2
  6
CONTINUOUS
 62
    3
 10
1347.962
 20
2287.357
 11
1347.7556
 21
2286.6494
  0
LINE
  8
0-2
  6
CONTINUOUS
 62
    3
 10
1347.7556
 20
2286.6494
 11
1347.5141
 21
2285.9887
  0
LINE
  8
0-2
  6
CONTINUOUS
 62
    3
 10
1347.5141
 20
2285.9887
 11
1347.2385
 21
2285.3765
  0
LINE
  8
0-2
  6
CONTINUOUS
 62
    3
 10
1347.2385
 20
2285.3765
 11
1346.9302
 21
2284.8099
  0
LINE
  8
0-2
  6
CONTINUOUS
 62
    3
 10
1346.9302
 20
2284.8099
 11
1346.5914
 21
2284.2908
  0
LINE
  8
0-2
  6
CONTINUOUS
 62
    3
 10
1346.5914
 20
2284.2908
 11
1346.2232
 21
2283.8182
  0
LINE
  8
0-2
  6
CONTINUOUS
 62
    3
 10
1346.2232
 20
2283.8182
 11
1345.8266
 21
2283.3906
  0
LINE
  8
0-2
  6
CONTINUOUS
 62
    3
 10
1345.8266
 20
2283.3906
 11
1345.4044
 21
2283.01
  0
LINE
  8
0-2
  6
CONTINUOUS
 62
    3
 10
1345.4044
 20
2283.01
 11
1344.9563
 21
2282.673
  0
LINE
  8
0-2
  6
CONTINUOUS
 62
    3
 10
1344.9563
 20
2282.673
 11
1344.4855
 21
2282.381
  0
LINE
  8
0-2
  6
CONTINUOUS
 62
    3
 10
1344.4855
 20
2282.381
 11
1343.9918
 21
2282.1341
  0
LINE
  8
0-2
  6
CONTINUOUS
 62
    3
 10
1343.9918
 20
2282.1341
 11
1343.4781
 21
2281.9317
  0
LINE
  8
0-2
  6
CONTINUOUS
 62
    3
 10
1343.4781
 20
2281.9317
 11
1342.9451
 21
2281.7723
  0
LINE
  8
0-2
  6
CONTINUOUS
 62
    3
 10
1316.2343
 20
2288.1132
 11
1315.9779
 21
2287.3204
  0
LINE
  8
0-2
  6
CONTINUOUS
 62
    3
 10
1315.9779
 20
2287.3204
 11
1315.6775
 21
2286.5865
  0
LINE
  8
0-2
  6
CONTINUOUS
 62
    3
 10
1315.6775
 20
2286.5865
 11
1315.3368
 21
2285.91
  0
LINE
  8
0-2
  6
CONTINUOUS
 62
    3
 10
1315.3368
 20
2285.91
 11
1314.9597
 21
2285.2914
  0
LINE
  8
0-2
  6
CONTINUOUS
 62
    3
 10
1314.9597
 20
2285.2914
 11
1314.5492
 21
2284.7317
  0
LINE
  8
0-2
  6
CONTINUOUS
 62
    3
 10
1314.5492
 20
2284.7317
 11
1314.1102
 21
2284.2304
  0
LINE
  8
0-2
  6
CONTINUOUS
 62
    3
 10
1314.1102
 20
2284.2304
 11
1313.6453
 21
2283.7855
  0
LINE
  8
0-2
  6
CONTINUOUS
 62
    3
 10
1313.6453
 20
2283.7855
 11
1313.1596
 21
2283.399
  0
LINE
  8
0-2
  6
CONTINUOUS
 62
    3
 10
1313.1596
 20
2283.399
 11
1312.6563
 21
2283.0674
  0
LINE
  8
0-2
  6
CONTINUOUS
 62
    3
 10
1312.6563
 20
2283.0674
 11
1312.1404
 21
2282.7928
  0
LINE
  8
0-2
  6
CONTINUOUS
 62
    3
 10
1312.1404
 20
2282.7928
 11
1311.6155
 21
2282.5721
  0
LINE
  8
0-2
  6
CONTINUOUS
 62
    3
 10
1311.6155
 20
2282.5721
 11
1311.0863
 21
2282.4033
  0
LINE
  8
0-2
  6
CONTINUOUS
 62
    3
 10
1311.0863
 20
2282.4033
 11
1310.5577
 21
2282.286
  0
LINE
  8
0-2
  6
CONTINUOUS
 62
    3
 10
1310.5577
 20
2282.286
 11
1310.0339
 21
2282.2192
  0
LINE
  8
0-2
  6
CONTINUOUS
 62
    3
 10
1310.0339
 20
2282.2192
 11
1309.5192
 21
2282.1984
  0
LINE
  8
0-2
  6
CONTINUOUS
 62
    3
 10
1309.5192
 20
2282.1984
 11
1309.0189
 21
2282.2237
  0
LINE
  8
0-2
  6
CONTINUOUS
 62
    3
 10
1309.0189
 20
2282.2237
 11
1308.5379
 21
2282.291
  0
LINE
  8
0-2
  6
CONTINUOUS
 62
    3
 10
1308.5379
 20
2282.291
 11
1308.0811
 21
2282.3984
  0
LINE
  8
0-2
  6
CONTINUOUS
 62
    3
 10
1308.0811
 20
2282.3984
 11
1307.653
 21
2282.5429
  0
LINE
  8
0-2
  6
CONTINUOUS
 62
    3
 10
1392.366
 20
2288.1132
 11
1400.7669
 21
2288.1132
  0
LINE
  8
0-2
  6
CONTINUOUS
 62
    3
 10
1474.6502
 20
2193.7926
 11
1392.366
 21
2288.1132
  0
LINE
  8
0-2
  6
CONTINUOUS
 62
    3
 10
1386.938
 20
2288.1132
 11
1467.898
 21
2193.7926
  0
LINE
  8
0-2
  6
CONTINUOUS
 62
    3
 10
1451.4294
 20
2193.7926
 11
1373.6982
 21
2288.1132
  0
LINE
  8
0-2
  6
CONTINUOUS
 62
    3
 10
1373.6982
 20
2288.1132
 11
1386.938
 21
2288.1132
  0
LINE
  8
0-2
  6
CONTINUOUS
 62
    3
 10
1365.9182
 20
2288.1132
 11
1441.7518
 21
2193.7926
  0
LINE
  8
0-2
  6
CONTINUOUS
 62
    3
 10
1348.1317
 20
2288.1132
 11
1365.9182
 21
2288.1132
  0
LINE
  8
0-2
  6
CONTINUOUS
 62
    3
 10
1419.627
 20
2193.7926
 11
1348.1317
 21
2288.1132
  0
LINE
  8
0-2
  6
CONTINUOUS
 62
    3
 10
1338.1678
 20
2288.1132
 11
1407.233
 21
2193.7926
  0
LINE
  8
0-2
  6
CONTINUOUS
 62
    3
 10
1316.2199
 20
2288.1132
 11
1338.1678
 21
2288.1132
  0
LINE
  8
0-2
  6
CONTINUOUS
 62
    3
 10
1379.9319
 20
2193.7926
 11
1316.2199
 21
2288.1132
  0
LINE
  8
0-2
  6
CONTINUOUS
 62
    3
 10
1304.2881
 20
2288.1132
 11
1365.0898
 21
2193.7926
  0
LINE
  8
0-2
  6
CONTINUOUS
 62
    3
 10
1278.6531
 20
2288.1132
 11
1304.2881
 21
2288.1132
  0
LINE
  8
0-2
  6
CONTINUOUS
 62
    3
 10
1333.2027
 20
2193.7926
 11
1278.6531
 21
2288.1132
  0
LINE
  8
0-2
  6
CONTINUOUS
 62
    3
 10
1265.0117
 20
2288.1132
 11
1316.2343
 21
2193.7926
  0
LINE
  8
0-2
  6
CONTINUOUS
 62
    3
 10
1236.2454
 20
2288.1132
 11
1265.0117
 21
2288.1132
  0
LINE
  8
0-2
  6
CONTINUOUS
 62
    3
 10
1280.4512
 20
2193.7926
 11
1236.2454
 21
2288.1132
  0
LINE
  8
0-2
  6
CONTINUOUS
 62
    3
 10
1221.1892
 20
2288.1132
 11
1261.7233
 21
2193.7926
  0
LINE
  8
0-2
  6
CONTINUOUS
 62
    3
 10
1189.9137
 20
2288.1132
 11
1221.1892
 21
2288.1132
  0
LINE
  8
0-2
  6
CONTINUOUS
 62
    3
 10
1222.8198
 20
2193.7926
 11
1189.9137
 21
2288.1132
  0
LINE
  8
0-2
  6
CONTINUOUS
 62
    3
 10
1202.7378
 20
2193.7926
 11
1173.7695
 21
2288.1132
  0
LINE
  8
0-2
  6
CONTINUOUS
 62
    3
 10
1140.6616
 20
2288.1132
 11
1173.7695
 21
2288.1132
  0
LINE
  8
0-2
  6
CONTINUOUS
 62
    3
 10
1140.6616
 20
2288.1132
 11
1161.5549
 21
2193.7926
  0
LINE
  8
0-2
  6
CONTINUOUS
 62
    3
 10
1140.5537
 20
2193.7926
 11
1123.7783
 21
2288.1132
  0
LINE
  8
0-2
  6
CONTINUOUS
 62
    3
 10
1089.5556
 20
2288.1132
 11
1123.7783
 21
2288.1132
  0
LINE
  8
0-2
  6
CONTINUOUS
 62
    3
 10
1089.5556
 20
2288.1132
 11
1097.9839
 21
2193.7926
  0
LINE
  8
0-2
  6
CONTINUOUS
 62
    3
 10
1072.2987
 20
2288.1132
 11
1076.5178
 21
2193.7926
  0
LINE
  8
0-2
  6
CONTINUOUS
 62
    3
 10
1055.0001
 20
2288.1132
 11
1072.2987
 21
2288.1132
  0
LINE
  8
0-2
  6
CONTINUOUS
 62
    3
 10
1012.0166
 20
2061.7445
 11
1012.0166
 21
1797.648
  0
LINE
  8
0-2
  6
CONTINUOUS
 62
    3
 10
969.44663
 20
2061.7445
 11
969.44663
 21
1797.648
  0
LINE
  8
0-2
  6
CONTINUOUS
 62
    3
 10
887.1808
 20
2061.7445
 11
887.1808
 21
1797.648
  0
LINE
  8
0-2
  6
CONTINUOUS
 62
    3
 10
848.27707
 20
2061.7445
 11
848.27707
 21
1797.648
  0
LINE
  8
0-2
  6
CONTINUOUS
 62
    3
 10
776.79764
 20
2061.7445
 11
776.79764
 21
1797.648
  0
LINE
  8
0-2
  6
CONTINUOUS
 62
    3
 10
744.91032
 20
2061.7445
 11
744.91032
 21
1797.648
  0
LINE
  8
0-2
  6
CONTINUOUS
 62
    3
 10
690.37334
 20
2061.7445
 11
690.37334
 21
1797.648
  0
LINE
  8
0-2
  6
CONTINUOUS
 62
    3
 10
969.44663
 20
1797.648
 11
887.1808
 21
1820.5129
  0
LINE
  8
0-2
  6
CONTINUOUS
 62
    3
 10
744.91032
 20
1797.648
 11
690.37334
 21
1820.5129
  0
LINE
  8
0-2
  6
CONTINUOUS
 62
    3
 10
791.22685
 20
2061.7445
 11
791.22685
 21
1797.648
  0
LINE
  8
0-2
  6
CONTINUOUS
 62
    3
 10
808.09359
 20
2061.7445
 11
808.09359
 21
1797.648
  0
LINE
  8
0-2
  6
CONTINUOUS
 62
    3
 10
848.27707
 20
1797.648
 11
808.09359
 21
1810.5018
  0
LINE
  8
0-2
  6
CONTINUOUS
 62
    3
 10
791.22685
 20
1815.8972
 11
776.79789
 21
1820.5129
  0
LINE
  8
0-2
  6
CONTINUOUS
 62
    3
 10
625.00023
 20
1684.4641
 11
625.00023
 21
1778.7854
  0
LINE
  8
0-2
  6
CONTINUOUS
 62
    3
 10
1419.627
 20
2061.7445
 11
1419.627
 21
1797.648
  0
LINE
  8
0-2
  6
CONTINUOUS
 62
    3
 10
625.00023
 20
1665.5999
 11
709.23345
 21
1571.2796
  0
LINE
  8
0-2
  6
CONTINUOUS
 62
    3
 10
980.07244
 20
1579.0757
 11
980.76651
 21
1578.8679
  0
LINE
  8
0-2
  6
CONTINUOUS
 62
    3
 10
980.76651
 20
1578.8679
 11
981.41851
 21
1578.5856
  0
LINE
  8
0-2
  6
CONTINUOUS
 62
    3
 10
981.41851
 20
1578.5856
 11
982.02894
 21
1578.2328
  0
LINE
  8
0-2
  6
CONTINUOUS
 62
    3
 10
982.02894
 20
1578.2328
 11
982.59855
 21
1577.8169
  0
LINE
  8
0-2
  6
CONTINUOUS
 62
    3
 10
982.59855
 20
1577.8169
 11
983.12832
 21
1577.3411
  0
LINE
  8
0-2
  6
CONTINUOUS
 62
    3
 10
983.12832
 20
1577.3411
 11
983.6185
 21
1576.8118
  0
LINE
  8
0-2
  6
CONTINUOUS
 62
    3
 10
983.6185
 20
1576.8118
 11
984.07057
 21
1576.2339
  0
LINE
  8
0-2
  6
CONTINUOUS
 62
    3
 10
984.07057
 20
1576.2339
 11
984.48503
 21
1575.6129
  0
LINE
  8
0-2
  6
CONTINUOUS
 62
    3
 10
984.48503
 20
1575.6129
 11
984.86238
 21
1574.9545
  0
LINE
  8
0-2
  6
CONTINUOUS
 62
    3
 10
984.86238
 20
1574.9545
 11
985.2036
 21
1574.2638
  0
LINE
  8
0-2
  6
CONTINUOUS
 62
    3
 10
985.2036
 20
1574.2638
 11
985.50943
 21
1573.5448
  0
LINE
  8
0-2
  6
CONTINUOUS
 62
    3
 10
985.50943
 20
1573.5448
 11
985.78063
 21
1572.8046
  0
LINE
  8
0-2
  6
CONTINUOUS
 62
    3
 10
985.78063
 20
1572.8046
 11
986.01767
 21
1572.0479
  0
LINE
  8
0-2
  6
CONTINUOUS
 62
    3
 10
986.01767
 20
1572.0479
 11
986.22206
 21
1571.2796
  0
LINE
  8
0-2
  6
CONTINUOUS
 62
    3
 10
976.25964
 20
1579.1174
 11
975.45719
 21
1578.8289
  0
LINE
  8
0-2
  6
CONTINUOUS
 62
    3
 10
975.45719
 20
1578.8289
 11
974.70398
 21
1578.4879
  0
LINE
  8
0-2
  6
CONTINUOUS
 62
    3
 10
974.70398
 20
1578.4879
 11
973.99977
 21
1578.0979
  0
LINE
  8
0-2
  6
CONTINUOUS
 62
    3
 10
973.99977
 20
1578.0979
 11
973.3443
 21
1577.6599
  0
LINE
  8
0-2
  6
CONTINUOUS
 62
    3
 10
973.3443
 20
1577.6599
 11
972.73659
 21
1577.1781
  0
LINE
  8
0-2
  6
CONTINUOUS
 62
    3
 10
972.73659
 20
1577.1781
 11
972.17614
 21
1576.6544
  0
LINE
  8
0-2
  6
CONTINUOUS
 62
    3
 10
972.17614
 20
1576.6544
 11
971.66295
 21
1576.0912
  0
LINE
  8
0-2
  6
CONTINUOUS
 62
    3
 10
971.66295
 20
1576.0912
 11
971.19603
 21
1575.4927
  0
LINE
  8
0-2
  6
CONTINUOUS
 62
    3
 10
971.19603
 20
1575.4927
 11
970.77489
 21
1574.8595
  0
LINE
  8
0-2
  6
CONTINUOUS
 62
    3
 10
970.77489
 20
1574.8595
 11
970.39902
 21
1574.1954
  0
LINE
  8
0-2
  6
CONTINUOUS
 62
    3
 10
970.39902
 20
1574.1954
 11
970.0682
 21
1573.5025
  0
LINE
  8
0-2
  6
CONTINUOUS
 62
    3
 10
970.0682
 20
1573.5025
 11
969.78141
 21
1572.7843
  0
LINE
  8
0-2
  6
CONTINUOUS
 62
    3
 10
969.78141
 20
1572.7843
 11
969.53843
 21
1572.0424
  0
LINE
  8
0-2
  6
CONTINUOUS
 62
    3
 10
969.53843
 20
1572.0424
 11
969.3385
 21
1571.2796
  0
LINE
  8
0-2
  6
CONTINUOUS
 62
    3
 10
936.2308
 20
1571.2796
 11
935.45334
 21
1572.546
  0
LINE
  8
0-2
  6
CONTINUOUS
 62
    3
 10
935.45334
 20
1572.546
 11
934.66698
 21
1573.6725
  0
LINE
  8
0-2
  6
CONTINUOUS
 62
    3
 10
934.66698
 20
1573.6725
 11
933.87443
 21
1574.6665
  0
LINE
  8
0-2
  6
CONTINUOUS
 62
    3
 10
933.87443
 20
1574.6665
 11
933.07916
 21
1575.5365
  0
LINE
  8
0-2
  6
CONTINUOUS
 62
    3
 10
933.07916
 20
1575.5365
 11
932.28438
 21
1576.2899
  0
LINE
  8
0-2
  6
CONTINUOUS
 62
    3
 10
932.28438
 20
1576.2899
 11
931.49257
 21
1576.9345
  0
LINE
  8
0-2
  6
CONTINUOUS
 62
    3
 10
931.49257
 20
1576.9345
 11
930.70745
 21
1577.4788
  0
LINE
  8
0-2
  6
CONTINUOUS
 62
    3
 10
930.70745
 20
1577.4788
 11
929.93148
 21
1577.9297
  0
LINE
  8
0-2
  6
CONTINUOUS
 62
    3
 10
929.93148
 20
1577.9297
 11
929.16862
 21
1578.2953
  0
LINE
  8
0-2
  6
CONTINUOUS
 62
    3
 10
929.16862
 20
1578.2953
 11
928.42086
 21
1578.5833
  0
LINE
  8
0-2
  6
CONTINUOUS
 62
    3
 10
928.42086
 20
1578.5833
 11
927.69239
 21
1578.8018
  0
LINE
  8
0-2
  6
CONTINUOUS
 62
    3
 10
927.69239
 20
1578.8018
 11
926.98571
 21
1578.9586
  0
LINE
  8
0-2
  6
CONTINUOUS
 62
    3
 10
926.98571
 20
1578.9586
 11
926.30376
 21
1579.0618
  0
LINE
  8
0-2
  6
CONTINUOUS
 62
    3
 10
926.30376
 20
1579.0618
 11
925.65003
 21
1579.1174
  0
LINE
  8
0-2
  6
CONTINUOUS
 62
    3
 10
920.08659
 20
1571.2796
 11
920.10985
 21
1572.1904
  0
LINE
  8
0-2
  6
CONTINUOUS
 62
    3
 10
920.10985
 20
1572.1904
 11
920.18037
 21
1573.0325
  0
LINE
  8
0-2
  6
CONTINUOUS
 62
    3
 10
920.18037
 20
1573.0325
 11
920.30013
 21
1573.8087
  0
LINE
  8
0-2
  6
CONTINUOUS
 62
    3
 10
920.30013
 20
1573.8087
 11
920.47235
 21
1574.5232
  0
LINE
  8
0-2
  6
CONTINUOUS
 62
    3
 10
920.47235
 20
1574.5232
 11
920.69974
 21
1575.1798
  0
LINE
  8
0-2
  6
CONTINUOUS
 62
    3
 10
920.69974
 20
1575.1798
 11
920.98455
 21
1575.7829
  0
LINE
  8
0-2
  6
CONTINUOUS
 62
    3
 10
920.98455
 20
1575.7829
 11
921.32948
 21
1576.3352
  0
LINE
  8
0-2
  6
CONTINUOUS
 62
    3
 10
921.32948
 20
1576.3352
 11
921.73701
 21
1576.8414
  0
LINE
  8
0-2
  6
CONTINUOUS
 62
    3
 10
921.73701
 20
1576.8414
 11
922.21036
 21
1577.3054
  0
LINE
  8
0-2
  6
CONTINUOUS
 62
    3
 10
922.21036
 20
1577.3054
 11
922.75152
 21
1577.7299
  0
LINE
  8
0-2
  6
CONTINUOUS
 62
    3
 10
922.75152
 20
1577.7299
 11
923.36368
 21
1578.1201
  0
LINE
  8
0-2
  6
CONTINUOUS
 62
    3
 10
923.36368
 20
1578.1201
 11
924.04909
 21
1578.4787
  0
LINE
  8
0-2
  6
CONTINUOUS
 62
    3
 10
924.04909
 20
1578.4787
 11
924.81046
 21
1578.8104
  0
LINE
  8
0-2
  6
CONTINUOUS
 62
    3
 10
924.81046
 20
1578.8104
 11
925.65003
 21
1579.1174
  0
LINE
  8
0-2
  6
CONTINUOUS
 62
    3
 10
873.75521
 20
1571.2796
 11
874.15186
 21
1572.3497
  0
LINE
  8
0-2
  6
CONTINUOUS
 62
    3
 10
874.15186
 20
1572.3497
 11
874.56459
 21
1573.3198
  0
LINE
  8
0-2
  6
CONTINUOUS
 62
    3
 10
874.56459
 20
1573.3198
 11
874.99365
 21
1574.1954
  0
LINE
  8
0-2
  6
CONTINUOUS
 62
    3
 10
874.99365
 20
1574.1954
 11
875.43854
 21
1574.9812
  0
LINE
  8
0-2
  6
CONTINUOUS
 62
    3
 10
875.43854
 20
1574.9812
 11
875.89829
 21
1575.6823
  0
LINE
  8
0-2
  6
CONTINUOUS
 62
    3
 10
875.89829
 20
1575.6823
 11
876.37312
 21
1576.3028
  0
LINE
  8
0-2
  6
CONTINUOUS
 62
    3
 10
876.37312
 20
1576.3028
 11
876.86207
 21
1576.8482
  0
LINE
  8
0-2
  6
CONTINUOUS
 62
    3
 10
876.86207
 20
1576.8482
 11
877.36536
 21
1577.3225
  0
LINE
  8
0-2
  6
CONTINUOUS
 62
    3
 10
877.36536
 20
1577.3225
 11
877.88177
 21
1577.7307
  0
LINE
  8
0-2
  6
CONTINUOUS
 62
    3
 10
877.88177
 20
1577.7307
 11
878.41178
 21
1578.0781
  0
LINE
  8
0-2
  6
CONTINUOUS
 62
    3
 10
878.41178
 20
1578.0781
 11
878.95442
 21
1578.3684
  0
LINE
  8
0-2
  6
CONTINUOUS
 62
    3
 10
878.95442
 20
1578.3684
 11
879.50942
 21
1578.6081
  0
LINE
  8
0-2
  6
CONTINUOUS
 62
    3
 10
879.50942
 20
1578.6081
 11
880.07656
 21
1578.7997
  0
LINE
  8
0-2
  6
CONTINUOUS
 62
    3
 10
880.07656
 20
1578.7997
 11
880.65507
 21
1578.95
  0
LINE
  8
0-2
  6
CONTINUOUS
 62
    3
 10
881.92716
 20
1578.95
 11
882.53042
 21
1578.822
  0
LINE
  8
0-2
  6
CONTINUOUS
 62
    3
 10
882.53042
 20
1578.822
 11
883.12897
 21
1578.6177
  0
LINE
  8
0-2
  6
CONTINUOUS
 62
    3
 10
883.12897
 20
1578.6177
 11
883.72233
 21
1578.3387
  0
LINE
  8
0-2
  6
CONTINUOUS
 62
    3
 10
883.72233
 20
1578.3387
 11
884.31099
 21
1577.9832
  0
LINE
  8
0-2
  6
CONTINUOUS
 62
    3
 10
884.31099
 20
1577.9832
 11
884.8947
 21
1577.5534
  0
LINE
  8
0-2
  6
CONTINUOUS
 62
    3
 10
884.8947
 20
1577.5534
 11
885.47371
 21
1577.0467
  0
LINE
  8
0-2
  6
CONTINUOUS
 62
    3
 10
885.47371
 20
1577.0467
 11
886.04753
 21
1576.4636
  0
LINE
  8
0-2
  6
CONTINUOUS
 62
    3
 10
886.04753
 20
1576.4636
 11
886.61664
 21
1575.8063
  0
LINE
  8
0-2
  6
CONTINUOUS
 62
    3
 10
886.61664
 20
1575.8063
 11
887.1808
 21
1575.0733
  0
LINE
  8
0-2
  6
CONTINUOUS
 62
    3
 10
831.34724
 20
1571.2796
 11
831.46205
 21
1572.0951
  0
LINE
  8
0-2
  6
CONTINUOUS
 62
    3
 10
831.46205
 20
1572.0951
 11
831.62462
 21
1572.8541
  0
LINE
  8
0-2
  6
CONTINUOUS
 62
    3
 10
831.62462
 20
1572.8541
 11
831.83197
 21
1573.5597
  0
LINE
  8
0-2
  6
CONTINUOUS
 62
    3
 10
831.83197
 20
1573.5597
 11
832.07966
 21
1574.2129
  0
LINE
  8
0-2
  6
CONTINUOUS
 62
    3
 10
832.07966
 20
1574.2129
 11
832.36422
 21
1574.8161
  0
LINE
  8
0-2
  6
CONTINUOUS
 62
    3
 10
832.36422
 20
1574.8161
 11
832.68243
 21
1575.3728
  0
LINE
  8
0-2
  6
CONTINUOUS
 62
    3
 10
832.68243
 20
1575.3728
 11
833.03082
 21
1575.8839
  0
LINE
  8
0-2
  6
CONTINUOUS
 62
    3
 10
833.03082
 20
1575.8839
 11
833.40668
 21
1576.3501
  0
LINE
  8
0-2
  6
CONTINUOUS
 62
    3
 10
833.40668
 20
1576.3501
 11
833.80729
 21
1576.775
  0
LINE
  8
0-2
  6
CONTINUOUS
 62
    3
 10
833.80729
 20
1576.775
 11
834.22942
 21
1577.1584
  0
LINE
  8
0-2
  6
CONTINUOUS
 62
    3
 10
834.22942
 20
1577.1584
 11
834.67135
 21
1577.5025
  0
LINE
  8
0-2
  6
CONTINUOUS
 62
    3
 10
834.67135
 20
1577.5025
 11
835.13035
 21
1577.8087
  0
LINE
  8
0-2
  6
CONTINUOUS
 62
    3
 10
835.13035
 20
1577.8087
 11
835.60444
 21
1578.0777
  0
LINE
  8
0-2
  6
CONTINUOUS
 62
    3
 10
835.60444
 20
1578.0777
 11
836.0919
 21
1578.3098
  0
LINE
  8
0-2
  6
CONTINUOUS
 62
    3
 10
836.0919
 20
1578.3098
 11
836.59098
 21
1578.5065
  0
LINE
  8
0-2
  6
CONTINUOUS
 62
    3
 10
836.59098
 20
1578.5065
 11
837.10022
 21
1578.6691
  0
LINE
  8
0-2
  6
CONTINUOUS
 62
    3
 10
837.10022
 20
1578.6691
 11
837.61811
 21
1578.7964
  0
LINE
  8
0-2
  6
CONTINUOUS
 62
    3
 10
837.61811
 20
1578.7964
 11
838.14392
 21
1578.8903
  0
LINE
  8
0-2
  6
CONTINUOUS
 62
    3
 10
838.14392
 20
1578.8903
 11
838.67641
 21
1578.95
  0
LINE
  8
0-2
  6
CONTINUOUS
 62
    3
 10
838.81077
 20
1578.9437
 11
839.11042
 21
1578.9096
  0
LINE
  8
0-2
  6
CONTINUOUS
 62
    3
 10
839.11042
 20
1578.9096
 11
839.40512
 21
1578.8621
  0
LINE
  8
0-2
  6
CONTINUOUS
 62
    3
 10
839.40512
 20
1578.8621
 11
839.69462
 21
1578.8001
  0
LINE
  8
0-2
  6
CONTINUOUS
 62
    3
 10
839.69462
 20
1578.8001
 11
839.97893
 21
1578.724
  0
LINE
  8
0-2
  6
CONTINUOUS
 62
    3
 10
839.97893
 20
1578.724
 11
840.25829
 21
1578.6327
  0
LINE
  8
0-2
  6
CONTINUOUS
 62
    3
 10
840.25829
 20
1578.6327
 11
840.53221
 21
1578.5272
  0
LINE
  8
0-2
  6
CONTINUOUS
 62
    3
 10
840.53221
 20
1578.5272
 11
840.80117
 21
1578.4069
  0
LINE
  8
0-2
  6
CONTINUOUS
 62
    3
 10
840.80117
 20
1578.4069
 11
841.0647
 21
1578.2727
  0
LINE
  8
0-2
  6
CONTINUOUS
 62
    3
 10
841.0647
 20
1578.2727
 11
841.32327
 21
1578.1237
  0
LINE
  8
0-2
  6
CONTINUOUS
 62
    3
 10
717.63428
 20
1571.2796
 11
717.73722
 21
1572.1374
  0
LINE
  8
0-2
  6
CONTINUOUS
 62
    3
 10
717.73722
 20
1572.1374
 11
717.8456
 21
1572.9213
  0
LINE
  8
0-2
  6
CONTINUOUS
 62
    3
 10
717.8456
 20
1572.9213
 11
717.96016
 21
1573.6312
  0
LINE
  8
0-2
  6
CONTINUOUS
 62
    3
 10
717.96016
 20
1573.6312
 11
718.08091
 21
1574.2667
  0
LINE
  8
0-2
  6
CONTINUOUS
 62
    3
 10
718.08091
 20
1574.2667
 11
718.20711
 21
1574.8289
  0
LINE
  8
0-2
  6
CONTINUOUS
 62
    3
 10
718.20711
 20
1574.8289
 11
718.33998
 21
1575.3168
  0
LINE
  8
0-2
  6
CONTINUOUS
 62
    3
 10
718.33998
 20
1575.3168
 11
718.47805
 21
1575.7302
  0
LINE
  8
0-2
  6
CONTINUOUS
 62
    3
 10
718.47805
 20
1575.7302
 11
718.62231
 21
1576.0702
  0
LINE
  8
0-2
  6
CONTINUOUS
 62
    3
 10
718.62231
 20
1576.0702
 11
718.77275
 21
1576.3352
  0
LINE
  8
0-2
  6
CONTINUOUS
 62
    3
 10
736.30214
 20
1571.2796
 11
736.35905
 21
1571.9592
  0
LINE
  8
0-2
  6
CONTINUOUS
 62
    3
 10
736.35905
 20
1571.9592
 11
736.45283
 21
1572.6017
  0
LINE
  8
0-2
  6
CONTINUOUS
 62
    3
 10
736.45283
 20
1572.6017
 11
736.57952
 21
1573.2063
  0
LINE
  8
0-2
  6
CONTINUOUS
 62
    3
 10
736.57952
 20
1573.2063
 11
736.7359
 21
1573.7752
  0
LINE
  8
0-2
  6
CONTINUOUS
 62
    3
 10
736.7359
 20
1573.7752
 11
736.91801
 21
1574.3056
  0
LINE
  8
0-2
  6
CONTINUOUS
 62
    3
 10
736.91801
 20
1574.3056
 11
737.1224
 21
1574.7979
  0
LINE
  8
0-2
  6
CONTINUOUS
 62
    3
 10
737.1224
 20
1574.7979
 11
737.34559
 21
1575.2529
  0
LINE
  8
0-2
  6
CONTINUOUS
 62
    3
 10
737.34559
 20
1575.2529
 11
737.58338
 21
1575.67
  0
LINE
  8
0-2
  6
CONTINUOUS
 62
    3
 10
737.58338
 20
1575.67
 11
737.83255
 21
1576.0494
  0
LINE
  8
0-2
  6
CONTINUOUS
 62
    3
 10
737.83255
 20
1576.0494
 11
738.08939
 21
1576.3898
  0
LINE
  8
0-2
  6
CONTINUOUS
 62
    3
 10
738.08939
 20
1576.3898
 11
738.35019
 21
1576.6915
  0
LINE
  8
0-2
  6
CONTINUOUS
 62
    3
 10
738.35019
 20
1576.6915
 11
738.61149
 21
1576.9551
  0
LINE
  8
0-2
  6
CONTINUOUS
 62
    3
 10
738.61149
 20
1576.9551
 11
738.86932
 21
1577.1792
  0
LINE
  8
0-2
  6
CONTINUOUS
 62
    3
 10
738.86932
 20
1577.1792
 11
739.12023
 21
1577.3639
  0
LINE
  8
0-2
  6
CONTINUOUS
 62
    3
 10
793.76633
 20
1571.2796
 11
794.02267
 21
1572.0723
  0
LINE
  8
0-2
  6
CONTINUOUS
 62
    3
 10
794.02267
 20
1572.0723
 11
794.32306
 21
1572.8066
  0
LINE
  8
0-2
  6
CONTINUOUS
 62
    3
 10
794.32306
 20
1572.8066
 11
794.66354
 21
1573.4827
  0
LINE
  8
0-2
  6
CONTINUOUS
 62
    3
 10
794.66354
 20
1573.4827
 11
795.04089
 21
1574.1012
  0
LINE
  8
0-2
  6
CONTINUOUS
 62
    3
 10
795.04089
 20
1574.1012
 11
795.45114
 21
1574.6613
  0
LINE
  8
0-2
  6
CONTINUOUS
 62
    3
 10
795.45114
 20
1574.6613
 11
795.89035
 21
1575.1631
  0
LINE
  8
0-2
  6
CONTINUOUS
 62
    3
 10
795.89035
 20
1575.1631
 11
796.35529
 21
1575.6069
  0
LINE
  8
0-2
  6
CONTINUOUS
 62
    3
 10
796.35529
 20
1575.6069
 11
796.84077
 21
1575.9945
  0
LINE
  8
0-2
  6
CONTINUOUS
 62
    3
 10
796.84077
 20
1575.9945
 11
797.34406
 21
1576.3248
  0
LINE
  8
0-2
  6
CONTINUOUS
 62
    3
 10
797.34406
 20
1576.3248
 11
797.85997
 21
1576.5995
  0
LINE
  8
0-2
  6
CONTINUOUS
 62
    3
 10
797.85997
 20
1576.5995
 11
798.38504
 21
1576.8211
  0
LINE
  8
0-2
  6
CONTINUOUS
 62
    3
 10
798.38504
 20
1576.8211
 11
798.91382
 21
1576.9899
  0
LINE
  8
0-2
  6
CONTINUOUS
 62
    3
 10
798.91382
 20
1576.9899
 11
799.44259
 21
1577.1061
  0
LINE
  8
0-2
  6
CONTINUOUS
 62
    3
 10
799.44259
 20
1577.1061
 11
799.96667
 21
1577.174
  0
LINE
  8
0-2
  6
CONTINUOUS
 62
    3
 10
799.96667
 20
1577.174
 11
800.48135
 21
1577.1941
  0
LINE
  8
0-2
  6
CONTINUOUS
 62
    3
 10
800.48135
 20
1577.1941
 11
800.98142
 21
1577.1696
  0
LINE
  8
0-2
  6
CONTINUOUS
 62
    3
 10
800.98142
 20
1577.1696
 11
801.46269
 21
1577.102
  0
LINE
  8
0-2
  6
CONTINUOUS
 62
    3
 10
801.46269
 20
1577.102
 11
801.91972
 21
1576.994
  0
LINE
  8
0-2
  6
CONTINUOUS
 62
    3
 10
801.91972
 20
1576.994
 11
802.34729
 21
1576.8496
  0
LINE
  8
0-2
  6
CONTINUOUS
 62
    3
 10
717.63428
 20
1571.2796
 11
709.23345
 21
1571.2796
  0
LINE
  8
0-2
  6
CONTINUOUS
 62
    3
 10
635.3499
 20
1665.5999
 11
717.63428
 21
1571.2796
  0
LINE
  8
0-2
  6
CONTINUOUS
 62
    3
 10
723.06237
 20
1571.2796
 11
642.10179
 21
1665.5999
  0
LINE
  8
0-2
  6
CONTINUOUS
 62
    3
 10
658.57089
 20
1665.5999
 11
736.30214
 21
1571.2796
  0
LINE
  8
0-2
  6
CONTINUOUS
 62
    3
 10
736.30214
 20
1571.2796
 11
723.06237
 21
1571.2796
  0
LINE
  8
0-2
  6
CONTINUOUS
 62
    3
 10
744.08214
 20
1571.2796
 11
668.24826
 21
1665.5999
  0
LINE
  8
0-2
  6
CONTINUOUS
 62
    3
 10
770.01878
 20
1571.2796
 11
744.08214
 21
1571.2796
  0
LINE
  8
0-2
  6
CONTINUOUS
 62
    3
 10
690.37334
 20
1665.5999
 11
770.01878
 21
1571.2796
  0
LINE
  8
0-2
  6
CONTINUOUS
 62
    3
 10
779.98244
 20
1571.2796
 11
702.76711
 21
1665.5999
  0
LINE
  8
0-2
  6
CONTINUOUS
 62
    3
 10
793.78068
 20
1571.2796
 11
779.98244
 21
1571.2796
  0
LINE
  8
0-2
  6
CONTINUOUS
 62
    3
 10
730.06863
 20
1665.5999
 11
793.78068
 21
1571.2796
  0
LINE
  8
0-2
  6
CONTINUOUS
 62
    3
 10
805.71247
 20
1571.2796
 11
744.91032
 21
1665.5999
  0
LINE
  8
0-2
  6
CONTINUOUS
 62
    3
 10
831.34724
 20
1571.2796
 11
805.71247
 21
1571.2796
  0
LINE
  8
0-2
  6
CONTINUOUS
 62
    3
 10
776.79764
 20
1665.5999
 11
831.34724
 21
1571.2796
  0
LINE
  8
0-2
  6
CONTINUOUS
 62
    3
 10
844.9886
 20
1571.2796
 11
793.76633
 21
1665.5999
  0
LINE
  8
0-2
  6
CONTINUOUS
 62
    3
 10
873.75521
 20
1571.2796
 11
844.9886
 21
1571.2796
  0
LINE
  8
0-2
  6
CONTINUOUS
 62
    3
 10
888.81094
 20
1571.2796
 11
848.27707
 21
1665.5999
  0
LINE
  8
0-2
  6
CONTINUOUS
 62
    3
 10
920.08659
 20
1571.2796
 11
888.81094
 21
1571.2796
  0
LINE
  8
0-2
  6
CONTINUOUS
 62
    3
 10
887.1808
 20
1665.5999
 11
920.08659
 21
1571.2796
  0
LINE
  8
0-2
  6
CONTINUOUS
 62
    3
 10
907.26277
 20
1665.5999
 11
936.2308
 21
1571.2796
  0
LINE
  8
0-2
  6
CONTINUOUS
 62
    3
 10
969.3385
 20
1571.2796
 11
936.2308
 21
1571.2796
  0
LINE
  8
0-2
  6
CONTINUOUS
 62
    3
 10
969.3385
 20
1571.2796
 11
948.44517
 21
1665.5999
  0
LINE
  8
0-2
  6
CONTINUOUS
 62
    3
 10
969.44663
 20
1665.5999
 11
986.22206
 21
1571.2796
  0
LINE
  8
0-2
  6
CONTINUOUS
 62
    3
 10
1020.4447
 20
1571.2796
 11
986.22206
 21
1571.2796
  0
LINE
  8
0-2
  6
CONTINUOUS
 62
    3
 10
1020.4447
 20
1571.2796
 11
1012.0166
 21
1665.5999
  0
LINE
  8
0-2
  6
CONTINUOUS
 62
    3
 10
1037.7016
 20
1571.2796
 11
1033.4825
 21
1665.5999
  0
LINE
  8
0-2
  6
CONTINUOUS
 62
    3
 10
1055.0001
 20
1571.2796
 11
1037.7016
 21
1571.2796
  0
LINE
  8
0-2
  6
CONTINUOUS
 62
    3
 10
829.54909
 20
1665.5999
 11
873.75546
 21
1571.2796
  0
LINE
  8
0-2
  6
CONTINUOUS
 62
    3
 10
881.21874
 20
1571.2796
 11
881.21874
 21
1475.0505
  0
LINE
  8
0-2
  6
CONTINUOUS
 62
    3
 10
847.48551
 20
1571.2796
 11
847.48551
 21
1475.0505
  0
LINE
  8
0-8
  6
CONTINUOUS
 62
    7
 10
460.45039
 20
1399.5939
 11
460.45039
 21
2429.5939
  0
LINE
  8
0-8
  6
CONTINUOUS
 62
    7
 10
635.81954
 20
1399.5946
 11
460.45039
 21
1399.5946
  0
LINE
  8
0-2
  6
CONTINUOUS
 62
    3
 10
880.65507
 20
2280.4426
 11
880.80923
 21
2280.4302
  0
LINE
  8
0-2
  6
CONTINUOUS
 62
    3
 10
880.80923
 20
2280.4302
 11
880.96041
 21
2280.4213
  0
LINE
  8
0-2
  6
CONTINUOUS
 62
    3
 10
880.96041
 20
2280.4213
 11
881.10789
 21
2280.4154
  0
LINE
  8
0-2
  6
CONTINUOUS
 62
    3
 10
881.10789
 20
2280.4154
 11
881.25239
 21
2280.4124
  0
LINE
  8
0-2
  6
CONTINUOUS
 62
    3
 10
881.25239
 20
2280.4124
 11
881.39393
 21
2280.4124
  0
LINE
  8
0-2
  6
CONTINUOUS
 62
    3
 10
881.39393
 20
2280.4124
 11
881.532
 21
2280.4154
  0
LINE
  8
0-2
  6
CONTINUOUS
 62
    3
 10
881.532
 20
2280.4154
 11
881.66685
 21
2280.4213
  0
LINE
  8
0-2
  6
CONTINUOUS
 62
    3
 10
881.66685
 20
2280.4213
 11
881.79874
 21
2280.4302
  0
LINE
  8
0-2
  6
CONTINUOUS
 62
    3
 10
881.79874
 20
2280.4302
 11
881.92716
 21
2280.4426
  0
LINE
  8
0-2
  6
CONTINUOUS
 62
    3
 10
976.25964
 20
2280.2758
 11
976.67286
 21
2280.2471
  0
LINE
  8
0-2
  6
CONTINUOUS
 62
    3
 10
976.67286
 20
2280.2471
 11
977.08881
 21
2280.2268
  0
LINE
  8
0-2
  6
CONTINUOUS
 62
    3
 10
977.08881
 20
2280.2268
 11
977.50673
 21
2280.2154
  0
LINE
  8
0-2
  6
CONTINUOUS
 62
    3
 10
977.50673
 20
2280.2154
 11
977.92763
 21
2280.212
  0
LINE
  8
0-2
  6
CONTINUOUS
 62
    3
 10
977.92763
 20
2280.212
 11
978.35149
 21
2280.2164
  0
LINE
  8
0-2
  6
CONTINUOUS
 62
    3
 10
978.35149
 20
2280.2164
 11
978.77783
 21
2280.2288
  0
LINE
  8
0-2
  6
CONTINUOUS
 62
    3
 10
978.77783
 20
2280.2288
 11
979.20665
 21
2280.2503
  0
LINE
  8
0-2
  6
CONTINUOUS
 62
    3
 10
979.20665
 20
2280.2503
 11
979.63793
 21
2280.2793
  0
LINE
  8
0-2
  6
CONTINUOUS
 62
    3
 10
979.63793
 20
2280.2793
 11
980.07244
 21
2280.3174
  0
LINE
  8
0-2
  6
CONTINUOUS
 62
    3
 10
1133.7407
 20
2280.2758
 11
1133.3275
 21
2280.2471
  0
LINE
  8
0-2
  6
CONTINUOUS
 62
    3
 10
1133.3275
 20
2280.2471
 11
1132.9123
 21
2280.2268
  0
LINE
  8
0-2
  6
CONTINUOUS
 62
    3
 10
1132.9123
 20
2280.2268
 11
1132.4936
 21
2280.2154
  0
LINE
  8
0-2
  6
CONTINUOUS
 62
    3
 10
1132.4936
 20
2280.2154
 11
1132.0727
 21
2280.212
  0
LINE
  8
0-2
  6
CONTINUOUS
 62
    3
 10
1132.0727
 20
2280.212
 11
1131.6488
 21
2280.2164
  0
LINE
  8
0-2
  6
CONTINUOUS
 62
    3
 10
1131.6488
 20
2280.2164
 11
1131.2227
 21
2280.2288
  0
LINE
  8
0-2
  6
CONTINUOUS
 62
    3
 10
1131.2227
 20
2280.2288
 11
1130.7939
 21
2280.2503
  0
LINE
  8
0-2
  6
CONTINUOUS
 62
    3
 10
1130.7939
 20
2280.2503
 11
1130.3624
 21
2280.2793
  0
LINE
  8
0-2
  6
CONTINUOUS
 62
    3
 10
1130.3624
 20
2280.2793
 11
1129.9281
 21
2280.3174
  0
LINE
  8
0-2
  6
CONTINUOUS
 62
    3
 10
1271.1901
 20
2280.4495
 11
1270.8902
 21
2280.4827
  0
LINE
  8
0-2
  6
CONTINUOUS
 62
    3
 10
1270.8902
 20
2280.4827
 11
1270.5955
 21
2280.5302
  0
LINE
  8
0-2
  6
CONTINUOUS
 62
    3
 10
1270.5955
 20
2280.5302
 11
1270.306
 21
2280.593
  0
LINE
  8
0-2
  6
CONTINUOUS
 62
    3
 10
1270.306
 20
2280.593
 11
1270.0214
 21
2280.6692
  0
LINE
  8
0-2
  6
CONTINUOUS
 62
    3
 10
1270.0214
 20
2280.6692
 11
1269.7425
 21
2280.7598
  0
LINE
  8
0-2
  6
CONTINUOUS
 62
    3
 10
1269.7425
 20
2280.7598
 11
1269.4681
 21
2280.8652
  0
LINE
  8
0-2
  6
CONTINUOUS
 62
    3
 10
1269.4681
 20
2280.8652
 11
1269.1994
 21
2280.9855
  0
LINE
  8
0-2
  6
CONTINUOUS
 62
    3
 10
1269.1994
 20
2280.9855
 11
1268.9359
 21
2281.1201
  0
LINE
  8
0-2
  6
CONTINUOUS
 62
    3
 10
1268.9359
 20
2281.1201
 11
1268.6773
 21
2281.2685
  0
LINE
  8
0-2
  6
CONTINUOUS
 62
    3
 10
1229.3455
 20
2280.4426
 11
1229.1911
 21
2280.4302
  0
LINE
  8
0-2
  6
CONTINUOUS
 62
    3
 10
1229.1911
 20
2280.4302
 11
1229.0404
 21
2280.4213
  0
LINE
  8
0-2
  6
CONTINUOUS
 62
    3
 10
1229.0404
 20
2280.4213
 11
1228.8927
 21
2280.4154
  0
LINE
  8
0-2
  6
CONTINUOUS
 62
    3
 10
1228.8927
 20
2280.4154
 11
1228.7479
 21
2280.4124
  0
LINE
  8
0-2
  6
CONTINUOUS
 62
    3
 10
1228.7479
 20
2280.4124
 11
1228.6064
 21
2280.4124
  0
LINE
  8
0-2
  6
CONTINUOUS
 62
    3
 10
1228.6064
 20
2280.4124
 11
1228.4688
 21
2280.4154
  0
LINE
  8
0-2
  6
CONTINUOUS
 62
    3
 10
1228.4688
 20
2280.4154
 11
1228.3337
 21
2280.4213
  0
LINE
  8
0-2
  6
CONTINUOUS
 62
    3
 10
1228.3337
 20
2280.4213
 11
1228.2018
 21
2280.4302
  0
LINE
  8
0-2
  6
CONTINUOUS
 62
    3
 10
1228.2018
 20
2280.4302
 11
1228.0732
 21
2280.4426
  0
LINE
  8
0-2
  6
CONTINUOUS
 62
    3
 10
976.25964
 20
1579.1174
 11
976.67286
 21
1579.146
  0
LINE
  8
0-2
  6
CONTINUOUS
 62
    3
 10
976.67286
 20
1579.146
 11
977.08881
 21
1579.1657
  0
LINE
  8
0-2
  6
CONTINUOUS
 62
    3
 10
977.08881
 20
1579.1657
 11
977.50673
 21
1579.1774
  0
LINE
  8
0-2
  6
CONTINUOUS
 62
    3
 10
977.50673
 20
1579.1774
 11
977.92763
 21
1579.1813
  0
LINE
  8
0-2
  6
CONTINUOUS
 62
    3
 10
977.92763
 20
1579.1813
 11
978.35149
 21
1579.1763
  0
LINE
  8
0-2
  6
CONTINUOUS
 62
    3
 10
978.35149
 20
1579.1763
 11
978.77783
 21
1579.1638
  0
LINE
  8
0-2
  6
CONTINUOUS
 62
    3
 10
978.77783
 20
1579.1638
 11
979.20665
 21
1579.143
  0
LINE
  8
0-2
  6
CONTINUOUS
 62
    3
 10
979.20665
 20
1579.143
 11
979.63793
 21
1579.1136
  0
LINE
  8
0-2
  6
CONTINUOUS
 62
    3
 10
979.63793
 20
1579.1136
 11
980.07244
 21
1579.0757
  0
LINE
  8
0-2
  6
CONTINUOUS
 62
    3
 10
880.65507
 20
1578.95
 11
880.80923
 21
1578.9623
  0
LINE
  8
0-2
  6
CONTINUOUS
 62
    3
 10
880.80923
 20
1578.9623
 11
880.96041
 21
1578.9712
  0
LINE
  8
0-2
  6
CONTINUOUS
 62
    3
 10
880.96041
 20
1578.9712
 11
881.10789
 21
1578.9777
  0
LINE
  8
0-2
  6
CONTINUOUS
 62
    3
 10
881.10789
 20
1578.9777
 11
881.25239
 21
1578.9808
  0
LINE
  8
0-2
  6
CONTINUOUS
 62
    3
 10
881.25239
 20
1578.9808
 11
881.39393
 21
1578.9808
  0
LINE
  8
0-2
  6
CONTINUOUS
 62
    3
 10
881.39393
 20
1578.9808
 11
881.532
 21
1578.9777
  0
LINE
  8
0-2
  6
CONTINUOUS
 62
    3
 10
881.532
 20
1578.9777
 11
881.66685
 21
1578.9712
  0
LINE
  8
0-2
  6
CONTINUOUS
 62
    3
 10
881.66685
 20
1578.9712
 11
881.79874
 21
1578.9623
  0
LINE
  8
0-2
  6
CONTINUOUS
 62
    3
 10
881.79874
 20
1578.9623
 11
881.92716
 21
1578.95
  0
LINE
  8
0-8
  6
CONTINUOUS
 62
    7
 10
927.40388
 20
2429.5939
 11
460.45039
 21
2429.5939
  0
LINE
  8
0-2
  6
CONTINUOUS
 62
    3
 10
695.00022
 20
1339.5947
 11
695.00022
 21
1399.5946
  0
LINE
  8
0-2
  6
CONTINUOUS
 62
    3
 10
695.00022
 20
1339.5947
 11
1415.0001
 21
1339.5944
  0
LINE
  8
0-2
  6
CONTINUOUS
 62
    3
 10
1415.0001
 20
1339.5944
 11
1415.0001
 21
1399.5944
  0
LINE
  8
0-2
  6
CONTINUOUS
 62
    3
 10
695.00022
 20
1399.5946
 11
1415.0001
 21
1399.5944
  0
LINE
  8
0-8
  6
CONTINUOUS
 62
    7
 10
460.45039
 20
1339.5947
 11
460.45039
 21
1399.5946
  0
LINE
  8
0-8
  6
CONTINUOUS
 62
    7
 10
635.81954
 20
1339.5947
 11
460.45039
 21
1339.5947
  0
LINE
  8
0-2
  6
CONTINUOUS
 62
    3
 10
1055.0001
 20
1809.0805
 11
1012.0166
 21
1820.5129
  0
LINE
  8
0-2
  6
CONTINUOUS
 62
    3
 10
625.00147
 20
1797.648
 11
1055.0001
 21
1797.648
  0
LINE
  8
0-2
  6
CONTINUOUS
 62
    3
 10
625.00147
 20
1778.785
 11
1055.0001
 21
1778.785
  0
LINE
  8
0-2
  6
CONTINUOUS
 62
    3
 10
625.00048
 20
1684.4632
 11
1055.0001
 21
1684.4632
  0
LINE
  8
0-2
  6
CONTINUOUS
 62
    3
 10
625.00048
 20
1665.5999
 11
1055.0001
 21
1665.5999
  0
LINE
  8
0-2
  6
CONTINUOUS
 62
    3
 10
625.00023
 20
2080.6082
 11
1055.0001
 21
2080.6082
  0
LINE
  8
0-2
  6
CONTINUOUS
 62
    3
 10
625.00023
 20
2061.7445
 11
1055.0001
 21
2061.7445
  0
LINE
  8
0-2
  6
CONTINUOUS
 62
    3
 10
1419.627
 20
2061.7449
 11
1419.627
 21
1797.6484
  0
LINE
  8
0-2
  6
CONTINUOUS
 62
    3
 10
1055.0001
 20
1714.8686
 11
1312.5004
 21
1714.8686
  0
LINE
  8
0-2
  6
CONTINUOUS
 62
    3
 10
1409.1999
 20
1714.8686
 11
1055.0001
 21
1714.8686
  0
LINE
  8
0-2
  6
CONTINUOUS
 62
    3
 10
1409.1999
 20
1702.2187
 11
1055.0001
 21
1702.2187
  0
LINE
  8
0-2
  6
CONTINUOUS
 62
    3
 10
1409.1999
 20
2133.2914
 11
1409.1999
 21
1714.8686
  0
LINE
  8
0-2
  6
CONTINUOUS
 62
    3
 10
1409.1999
 20
2133.2914
 11
1055.0001
 21
2133.2914
  0
LINE
  8
0-2
  6
CONTINUOUS
 62
    3
 10
1409.1999
 20
2145.9412
 11
1055.0001
 21
2145.9412
  0
LINE
  8
0-2
  6
CONTINUOUS
 62
    3
 10
1257.4002
 20
2057.3912
 11
1257.4002
 21
1790.7686
  0
LINE
  8
0-2
  6
CONTINUOUS
 62
    3
 10
1345.9498
 20
2057.3912
 11
1345.9498
 21
1790.7686
  0
LINE
  8
0-2
  6
CONTINUOUS
 62
    3
 10
1168.8502
 20
2057.3912
 11
1118.2502
 21
2057.3912
  0
LINE
  8
0-2
  6
CONTINUOUS
 62
    3
 10
1168.8502
 20
2057.3912
 11
1168.8502
 21
1790.7686
  0
LINE
  8
0-2
  6
CONTINUOUS
 62
    3
 10
1168.8502
 20
1790.7686
 11
1118.2502
 21
1790.7686
  0
LINE
  8
0-2
  6
CONTINUOUS
 62
    3
 10
1257.4002
 20
2057.3912
 11
1206.8
 21
2057.3912
  0
LINE
  8
0-2
  6
CONTINUOUS
 62
    3
 10
1345.9498
 20
2057.3912
 11
1295.3498
 21
2057.3912
  0
LINE
  8
0-2
  6
CONTINUOUS
 62
    3
 10
1345.9498
 20
1790.7686
 11
1295.3498
 21
1790.7686
  0
LINE
  8
0-2
  6
CONTINUOUS
 62
    3
 10
1257.4002
 20
1790.7686
 11
1206.8
 21
1790.7686
  0
LINE
  8
0-2
  6
DASHED1
 62
    3
 10
1139.3326
 20
2028.8802
 11
1055.0001
 21
2028.8802
  0
LINE
  8
0-2
  6
CONTINUOUS
 62
    3
 10
1296.0432
 20
1714.8686
 11
1283.3292
 21
1740.1679
  0
LINE
  8
0-2
  6
CONTINUOUS
 62
    3
 10
1271.4365
 20
1714.8686
 11
1260.4554
 21
1740.1679
  0
LINE
  8
0-2
  6
CONTINUOUS
 62
    3
 10
1246.8289
 20
1714.8686
 11
1237.4398
 21
1740.1679
  0
LINE
  8
0-2
  6
CONTINUOUS
 62
    3
 10
1073.5022
 20
1740.1679
 11
1074.5793
 21
1714.8686
  0
LINE
  8
0-2
  6
CONTINUOUS
 62
    3
 10
1099.186
 20
1714.8686
 11
1097.1557
 21
1740.1679
  0
LINE
  8
0-2
  6
CONTINUOUS
 62
    3
 10
1123.7931
 20
1714.8686
 11
1120.7442
 21
1740.1679
  0
LINE
  8
0-2
  6
CONTINUOUS
 62
    3
 10
1148.4008
 20
1714.8686
 11
1144.2616
 21
1740.1679
  0
LINE
  8
0-2
  6
CONTINUOUS
 62
    3
 10
1173.0079
 20
1714.8686
 11
1167.6991
 21
1740.1679
  0
LINE
  8
0-2
  6
CONTINUOUS
 62
    3
 10
1197.6146
 20
1714.8686
 11
1191.0488
 21
1740.1679
  0
LINE
  8
0-2
  6
CONTINUOUS
 62
    3
 10
1222.2217
 20
1714.8686
 11
1214.2997
 21
1740.1679
  0
LINE
  8
0-2
  6
CONTINUOUS
 62
    3
 10
1409.1999
 20
2080.6082
 11
1485.0011
 21
2080.6082
  0
LINE
  8
0-2
  6
CONTINUOUS
 62
    3
 10
1409.1999
 20
2061.7445
 11
1485.0011
 21
2061.7445
  0
LINE
  8
0-2
  6
CONTINUOUS
 62
    3
 10
1409.1999
 20
1797.648
 11
1485.0026
 21
1797.648
  0
LINE
  8
0-2
  6
CONTINUOUS
 62
    3
 10
1409.1999
 20
1778.785
 11
1485.0026
 21
1778.785
  0
LINE
  8
0-2
  6
CONTINUOUS
 62
    3
 10
1312.5014
 20
1702.2186
 11
1312.4992
 21
1475.0505
  0
LINE
  8
0-2
  6
CONTINUOUS
 62
    3
 10
770.01878
 20
1571.2796
 11
770.2489
 21
1571.8282
  0
LINE
  8
0-2
  6
CONTINUOUS
 62
    3
 10
770.2489
 20
1571.8282
 11
770.66534
 21
1572.7518
  0
LINE
  8
0-2
  6
CONTINUOUS
 62
    3
 10
770.66534
 20
1572.7518
 11
771.13647
 21
1573.6137
  0
LINE
  8
0-2
  6
CONTINUOUS
 62
    3
 10
771.13647
 20
1573.6137
 11
771.69667
 21
1574.3747
  0
LINE
  8
0-2
  6
CONTINUOUS
 62
    3
 10
771.69667
 20
1574.3747
 11
772.076
 21
1574.7546
  0
LINE
  8
0-2
  6
CONTINUOUS
 62
    3
 10
772.076
 20
1574.7546
 11
772.49244
 21
1575.076
  0
LINE
  8
0-2
  6
CONTINUOUS
 62
    3
 10
772.49244
 20
1575.076
 11
773.30058
 21
1575.5284
  0
LINE
  8
0-2
  6
CONTINUOUS
 62
    3
 10
773.30058
 20
1575.5284
 11
774.19433
 21
1575.8841
  0
LINE
  8
0-2
  6
CONTINUOUS
 62
    3
 10
774.19433
 20
1575.8841
 11
775.14029
 21
1576.1804
  0
LINE
  8
0-2
  6
CONTINUOUS
 62
    3
 10
775.14029
 20
1576.1804
 11
775.7
 21
1576.34
  0
LINE
  8
0-2
  6
CONTINUOUS
 62
    3
 10
1055.0001
 20
2429.5939
 11
835.89543
 21
2288.1132
  0
LINE
  8
0-2
  6
CONTINUOUS
 62
    3
 10
1298.5482
 20
1740.1679
 11
1055.0001
 21
1740.1679
  0
LINE
  8
0-2
  6
DASHED1
 62
    3
 10
1139.3326
 20
2028.8802
 11
1298.5482
 21
1740.1679
  0
LINE
  8
0-2
  6
CONTINUOUS
 62
    3
 10
1298.5482
 20
1740.1679
 11
1312.5001
 21
1714.8686
  0
LINE
  8
0-2
  6
CONTINUOUS
 62
    3
 10
1312.4999
 20
1456.1872
 11
1312.5009
 21
1418.4576
  0
LINE
  8
0-2
  6
CONTINUOUS
 62
    3
 10
797.50019
 20
1399.5945
 11
1312.5004
 21
1399.5945
  0
LINE
  8
0-2
  6
CONTINUOUS
 62
    3
 10
797.50019
 20
1409.5945
 11
1312.5004
 21
1409.5945
  0
LINE
  8
0-2
  6
CONTINUOUS
 62
    3
 10
797.49871
 20
1465.0505
 11
797.50044
 21
1409.5945
  0
LINE
  8
0-2
  6
CONTINUOUS
 62
    3
 10
797.49896
 20
1465.0505
 11
1312.5004
 21
1465.0505
  0
LINE
  8
0-2
  6
CONTINUOUS
 62
    3
 10
1312.5019
 20
1465.0505
 11
1312.4999
 21
1409.5945
  0
LINE
  8
0-2
  6
CONTINUOUS
 62
    3
 10
1312.4999
 20
1456.1872
 11
1312.5009
 21
1418.4576
  0
LINE
  8
0-2
  6
CONTINUOUS
 62
    3
 10
797.50019
 20
1399.5945
 11
1312.5004
 21
1399.5945
  0
LINE
  8
0-2
  6
CONTINUOUS
 62
    3
 10
797.49896
 20
1475.0505
 11
1312.5004
 21
1475.0505
  0
LINE
  8
0-2
  6
CONTINUOUS
 62
    3
 10
797.50019
 20
1409.5945
 11
1312.5004
 21
1409.5945
  0
LINE
  8
0-2
  6
CONTINUOUS
 62
    3
 10
797.49871
 20
1465.0505
 11
797.50044
 21
1409.5945
  0
LINE
  8
0-2
  6
CONTINUOUS
 62
    3
 10
797.49896
 20
1465.0505
 11
1312.5004
 21
1465.0505
  0
LINE
  8
0-2
  6
CONTINUOUS
 62
    3
 10
1312.5019
 20
1465.0505
 11
1312.4999
 21
1409.5945
  0
LINE
  8
0-2
  6
CONTINUOUS
 62
    3
 10
1485.0001
 20
1665.5999
 11
1400.7669
 21
1571.2796
  0
LINE
  8
0-2
  6
CONTINUOUS
 62
    3
 10
1392.366
 20
1571.2796
 11
1392.2634
 21
1572.1374
  0
LINE
  8
0-2
  6
CONTINUOUS
 62
    3
 10
1392.2634
 20
1572.1374
 11
1392.1547
 21
1572.9213
  0
LINE
  8
0-2
  6
CONTINUOUS
 62
    3
 10
1392.1547
 20
1572.9213
 11
1392.0404
 21
1573.6313
  0
LINE
  8
0-2
  6
CONTINUOUS
 62
    3
 10
1392.0404
 20
1573.6313
 11
1391.9197
 21
1574.2667
  0
LINE
  8
0-2
  6
CONTINUOUS
 62
    3
 10
1391.9197
 20
1574.2667
 11
1391.793
 21
1574.8289
  0
LINE
  8
0-2
  6
CONTINUOUS
 62
    3
 10
1391.793
 20
1574.8289
 11
1391.6606
 21
1575.3168
  0
LINE
  8
0-2
  6
CONTINUOUS
 62
    3
 10
1391.6606
 20
1575.3168
 11
1391.5223
 21
1575.7302
  0
LINE
  8
0-2
  6
CONTINUOUS
 62
    3
 10
1391.5223
 20
1575.7302
 11
1391.3783
 21
1576.0702
  0
LINE
  8
0-2
  6
CONTINUOUS
 62
    3
 10
1391.3783
 20
1576.0702
 11
1391.2278
 21
1576.3352
  0
LINE
  8
0-2
  6
CONTINUOUS
 62
    3
 10
1373.6982
 20
1571.2796
 11
1373.6415
 21
1571.9592
  0
LINE
  8
0-2
  6
CONTINUOUS
 62
    3
 10
1373.6415
 20
1571.9592
 11
1373.5478
 21
1572.6017
  0
LINE
  8
0-2
  6
CONTINUOUS
 62
    3
 10
1373.5478
 20
1572.6017
 11
1373.4206
 21
1573.2063
  0
LINE
  8
0-2
  6
CONTINUOUS
 62
    3
 10
1373.4206
 20
1573.2063
 11
1373.2647
 21
1573.7752
  0
LINE
  8
0-2
  6
CONTINUOUS
 62
    3
 10
1373.2647
 20
1573.7752
 11
1373.0821
 21
1574.3056
  0
LINE
  8
0-2
  6
CONTINUOUS
 62
    3
 10
1373.0821
 20
1574.3056
 11
1372.8782
 21
1574.7979
  0
LINE
  8
0-2
  6
CONTINUOUS
 62
    3
 10
1372.8782
 20
1574.7979
 11
1372.655
 21
1575.2529
  0
LINE
  8
0-2
  6
CONTINUOUS
 62
    3
 10
1372.655
 20
1575.2529
 11
1372.417
 21
1575.67
  0
LINE
  8
0-2
  6
CONTINUOUS
 62
    3
 10
1372.417
 20
1575.67
 11
1372.1675
 21
1576.0494
  0
LINE
  8
0-2
  6
CONTINUOUS
 62
    3
 10
1372.1675
 20
1576.0494
 11
1371.9112
 21
1576.3898
  0
LINE
  8
0-2
  6
CONTINUOUS
 62
    3
 10
1371.9112
 20
1576.3898
 11
1371.6504
 21
1576.6915
  0
LINE
  8
0-2
  6
CONTINUOUS
 62
    3
 10
1371.6504
 20
1576.6915
 11
1371.3888
 21
1576.9551
  0
LINE
  8
0-2
  6
CONTINUOUS
 62
    3
 10
1371.3888
 20
1576.9551
 11
1371.131
 21
1577.1792
  0
LINE
  8
0-2
  6
CONTINUOUS
 62
    3
 10
1371.131
 20
1577.1792
 11
1370.8801
 21
1577.3639
  0
LINE
  8
0-2
  6
CONTINUOUS
 62
    3
 10
1316.2343
 20
1571.2796
 11
1315.9779
 21
1572.0723
  0
LINE
  8
0-2
  6
CONTINUOUS
 62
    3
 10
1315.9779
 20
1572.0723
 11
1315.6775
 21
1572.8066
  0
LINE
  8
0-2
  6
CONTINUOUS
 62
    3
 10
1315.6775
 20
1572.8066
 11
1315.3368
 21
1573.4827
  0
LINE
  8
0-2
  6
CONTINUOUS
 62
    3
 10
1315.3368
 20
1573.4827
 11
1314.9597
 21
1574.1012
  0
LINE
  8
0-2
  6
CONTINUOUS
 62
    3
 10
1314.9597
 20
1574.1012
 11
1314.5492
 21
1574.6613
  0
LINE
  8
0-2
  6
CONTINUOUS
 62
    3
 10
1314.5492
 20
1574.6613
 11
1314.1102
 21
1575.1631
  0
LINE
  8
0-2
  6
CONTINUOUS
 62
    3
 10
1314.1102
 20
1575.1631
 11
1313.6453
 21
1575.6069
  0
LINE
  8
0-2
  6
CONTINUOUS
 62
    3
 10
1313.6453
 20
1575.6069
 11
1313.1596
 21
1575.9945
  0
LINE
  8
0-2
  6
CONTINUOUS
 62
    3
 10
1313.1596
 20
1575.9945
 11
1312.6563
 21
1576.3248
  0
LINE
  8
0-2
  6
CONTINUOUS
 62
    3
 10
1392.366
 20
1571.2796
 11
1400.7669
 21
1571.2796
  0
LINE
  8
0-2
  6
CONTINUOUS
 62
    3
 10
1474.6502
 20
1665.5999
 11
1392.366
 21
1571.2796
  0
LINE
  8
0-2
  6
CONTINUOUS
 62
    3
 10
1386.938
 20
1571.2796
 11
1467.898
 21
1665.5999
  0
LINE
  8
0-2
  6
CONTINUOUS
 62
    3
 10
1365.9182
 20
1571.2796
 11
1441.7518
 21
1665.5999
  0
LINE
  8
0-2
  6
CONTINUOUS
 62
    3
 10
1379.9319
 20
1665.5999
 11
1316.2199
 21
1571.2796
  0
LINE
  8
0-2
  6
CONTINUOUS
 62
    3
 10
1348.1317
 20
1571.2796
 11
1347.962
 21
1572.0358
  0
LINE
  8
0-2
  6
CONTINUOUS
 62
    3
 10
1347.962
 20
1572.0358
 11
1347.7556
 21
1572.7435
  0
LINE
  8
0-2
  6
CONTINUOUS
 62
    3
 10
1347.7556
 20
1572.7435
 11
1347.5141
 21
1573.4042
  0
LINE
  8
0-2
  6
CONTINUOUS
 62
    3
 10
1347.5141
 20
1573.4042
 11
1347.2382
 21
1574.0163
  0
LINE
  8
0-2
  6
CONTINUOUS
 62
    3
 10
1347.2382
 20
1574.0163
 11
1346.9302
 21
1574.583
  0
LINE
  8
0-2
  6
CONTINUOUS
 62
    3
 10
1346.9302
 20
1574.583
 11
1346.5912
 21
1575.1021
  0
LINE
  8
0-2
  6
CONTINUOUS
 62
    3
 10
1346.5912
 20
1575.1021
 11
1346.223
 21
1575.5747
  0
LINE
  8
0-2
  6
CONTINUOUS
 62
    3
 10
1346.223
 20
1575.5747
 11
1345.8266
 21
1576.0023
  0
LINE
  8
0-2
  6
CONTINUOUS
 62
    3
 10
1345.8266
 20
1576.0023
 11
1345.4044
 21
1576.3828
  0
LINE
  8
0-2
  6
CONTINUOUS
 62
    3
 10
1345.4044
 20
1576.3828
 11
1344.9561
 21
1576.7199
  0
LINE
  8
0-2
  6
CONTINUOUS
 62
    3
 10
1344.9561
 20
1576.7199
 11
1344.4855
 21
1577.0118
  0
LINE
  8
0-2
  6
CONTINUOUS
 62
    3
 10
1344.4855
 20
1577.0118
 11
1343.9916
 21
1577.2588
  0
LINE
  8
0-2
  6
CONTINUOUS
 62
    3
 10
1343.9916
 20
1577.2588
 11
1343.4779
 21
1577.4612
  0
LINE
  8
0-2
  6
CONTINUOUS
 62
    3
 10
1343.4779
 20
1577.4612
 11
1343.2698
 21
1577.5234
  0
LINE
  8
0-2
  6
CONTINUOUS
 62
    3
 10
1451.4294
 20
1665.5999
 11
1373.6982
 21
1571.2796
  0
LINE
  8
0-2
  6
CONTINUOUS
 62
    3
 10
1373.6982
 20
1571.2796
 11
1386.938
 21
1571.2796
  0
LINE
  8
0-2
  6
CONTINUOUS
 62
    3
 10
1316.2199
 20
1571.2796
 11
1338.1678
 21
1571.2796
  0
LINE
  8
0-2
  6
CONTINUOUS
 62
    3
 10
1338.1678
 20
1571.2796
 11
1407.233
 21
1665.5999
  0
LINE
  8
0-2
  6
CONTINUOUS
 62
    3
 10
1348.1317
 20
1571.2796
 11
1365.9182
 21
1571.2796
  0
LINE
  8
0-2
  6
CONTINUOUS
 62
    3
 10
1419.627
 20
1665.5999
 11
1348.1317
 21
1571.2796
  0
LINE
  8
0-2
  6
CONTINUOUS
 62
    3
 10
1485.0001
 20
1665.5998
 11
1312.5011
 21
1665.5998
  0
LINE
  8
0-2
  6
CONTINUOUS
 62
    3
 10
1485.0001
 20
1684.4628
 11
1312.5011
 21
1684.4628
  0
LINE
  8
0-2
  6
CONTINUOUS
 62
    3
 10
1312.5001
 20
1584.019
 11
1365.0898
 21
1665.5999
  0
LINE
  8
0-2
  6
CONTINUOUS
 62
    3
 10
1312.6563
 20
1576.3248
 11
1312.5001
 21
1576.408
  0
LINE
  8
0-8
  6
CONTINUOUS
 62
    7
 10
695.00022
 20
1189.5939
 11
1415.0001
 21
1189.5939
  0
LINE
  8
0-8
  6
CONTINUOUS
 62
    7
 10
695.00022
 20
1313.5135
 11
695.00022
 21
1189.5939
  0
LINE
  8
0-8
  6
CONTINUOUS
 62
    7
 10
1415.0001
 20
1313.5135
 11
1415.0001
 21
1189.5939
  0
LINE
  8
0-2
  6
CONTINUOUS
 62
    3
 10
797.49896
 20
1475.0505
 11
1312.5004
 21
1475.0505
  0
LINE
  8
0-2
  6
CENTER2
 62
    7
 10
1055.0001
 20
2429.5939
 11
1055.0001
 21
1339.5947
  0
LINE
  8
0-2
  6
CONTINUOUS
 62
    3
 10
625.00147
 20
1797.6485
 11
623.53713
 21
1797.5052
  0
LINE
  8
0-2
  6
CONTINUOUS
 62
    3
 10
623.53713
 20
1797.5052
 11
622.11729
 21
1797.0797
  0
LINE
  8
0-2
  6
CONTINUOUS
 62
    3
 10
622.11729
 20
1797.0797
 11
620.78508
 21
1796.3849
  0
LINE
  8
0-2
  6
CONTINUOUS
 62
    3
 10
620.78508
 20
1796.3849
 11
619.58099
 21
1795.442
  0
LINE
  8
0-2
  6
CONTINUOUS
 62
    3
 10
619.58099
 20
1795.442
 11
618.54159
 21
1794.2795
  0
LINE
  8
0-2
  6
CONTINUOUS
 62
    3
 10
618.54159
 20
1794.2795
 11
617.69847
 21
1792.9327
  0
LINE
  8
0-2
  6
CONTINUOUS
 62
    3
 10
617.69847
 20
1792.9327
 11
617.07725
 21
1791.4427
  0
LINE
  8
0-2
  6
CONTINUOUS
 62
    3
 10
617.07725
 20
1791.4427
 11
616.69681
 21
1789.8547
  0
LINE
  8
0-2
  6
CONTINUOUS
 62
    3
 10
616.69681
 20
1789.8547
 11
616.5687
 21
1788.217
  0
LINE
  8
0-2
  6
CONTINUOUS
 62
    3
 10
616.5687
 20
1788.217
 11
616.69681
 21
1786.5792
  0
LINE
  8
0-2
  6
CONTINUOUS
 62
    3
 10
616.69681
 20
1786.5792
 11
617.07725
 21
1784.9912
  0
LINE
  8
0-2
  6
CONTINUOUS
 62
    3
 10
617.07725
 20
1784.9912
 11
617.69847
 21
1783.5012
  0
LINE
  8
0-2
  6
CONTINUOUS
 62
    3
 10
617.69847
 20
1783.5012
 11
618.54159
 21
1782.1545
  0
LINE
  8
0-2
  6
CONTINUOUS
 62
    3
 10
618.54159
 20
1782.1545
 11
619.58099
 21
1780.9919
  0
LINE
  8
0-2
  6
CONTINUOUS
 62
    3
 10
619.58099
 20
1780.9919
 11
620.78508
 21
1780.049
  0
LINE
  8
0-2
  6
CONTINUOUS
 62
    3
 10
620.78508
 20
1780.049
 11
622.11729
 21
1779.3542
  0
LINE
  8
0-2
  6
CONTINUOUS
 62
    3
 10
622.11729
 20
1779.3542
 11
623.53713
 21
1778.9287
  0
LINE
  8
0-2
  6
CONTINUOUS
 62
    3
 10
623.53713
 20
1778.9287
 11
625.00147
 21
1778.7854
  0
LINE
  8
0-2
  6
CONTINUOUS
 62
    3
 10
625.00048
 20
1684.4629
 11
623.53614
 21
1684.3196
  0
LINE
  8
0-2
  6
CONTINUOUS
 62
    3
 10
623.53614
 20
1684.3196
 11
622.1163
 21
1683.8941
  0
LINE
  8
0-2
  6
CONTINUOUS
 62
    3
 10
622.1163
 20
1683.8941
 11
620.78409
 21
1683.1993
  0
LINE
  8
0-2
  6
CONTINUOUS
 62
    3
 10
620.78409
 20
1683.1993
 11
619.58
 21
1682.2563
  0
LINE
  8
0-2
  6
CONTINUOUS
 62
    3
 10
619.58
 20
1682.2563
 11
618.5406
 21
1681.0938
  0
LINE
  8
0-2
  6
CONTINUOUS
 62
    3
 10
618.5406
 20
1681.0938
 11
617.69748
 21
1679.7471
  0
LINE
  8
0-2
  6
CONTINUOUS
 62
    3
 10
617.69748
 20
1679.7471
 11
617.07626
 21
1678.2571
  0
LINE
  8
0-2
  6
CONTINUOUS
 62
    3
 10
617.07626
 20
1678.2571
 11
616.69582
 21
1676.6691
  0
LINE
  8
0-2
  6
CONTINUOUS
 62
    3
 10
616.69582
 20
1676.6691
 11
616.56771
 21
1675.0313
  0
LINE
  8
0-2
  6
CONTINUOUS
 62
    3
 10
616.56771
 20
1675.0313
 11
616.69582
 21
1673.3935
  0
LINE
  8
0-2
  6
CONTINUOUS
 62
    3
 10
616.69582
 20
1673.3935
 11
617.07626
 21
1671.8055
  0
LINE
  8
0-2
  6
CONTINUOUS
 62
    3
 10
617.07626
 20
1671.8055
 11
617.69748
 21
1670.3155
  0
LINE
  8
0-2
  6
CONTINUOUS
 62
    3
 10
617.69748
 20
1670.3155
 11
618.5406
 21
1668.9688
  0
LINE
  8
0-2
  6
CONTINUOUS
 62
    3
 10
618.5406
 20
1668.9688
 11
619.58
 21
1667.8063
  0
LINE
  8
0-2
  6
CONTINUOUS
 62
    3
 10
619.58
 20
1667.8063
 11
620.78409
 21
1666.8633
  0
LINE
  8
0-2
  6
CONTINUOUS
 62
    3
 10
620.78409
 20
1666.8633
 11
622.1163
 21
1666.1685
  0
LINE
  8
0-2
  6
CONTINUOUS
 62
    3
 10
622.1163
 20
1666.1685
 11
623.53614
 21
1665.743
  0
LINE
  8
0-2
  6
CONTINUOUS
 62
    3
 10
623.53614
 20
1665.743
 11
625.00048
 21
1665.5997
  0
LINE
  8
0-2
  6
CONTINUOUS
 62
    3
 10
1485.0011
 20
1778.7854
 11
1486.4654
 21
1778.9287
  0
LINE
  8
0-2
  6
CONTINUOUS
 62
    3
 10
1486.4654
 20
1778.9287
 11
1487.8853
 21
1779.3542
  0
LINE
  8
0-2
  6
CONTINUOUS
 62
    3
 10
1487.8853
 20
1779.3542
 11
1489.2175
 21
1780.049
  0
LINE
  8
0-2
  6
CONTINUOUS
 62
    3
 10
1489.2175
 20
1780.049
 11
1490.4216
 21
1780.9919
  0
LINE
  8
0-2
  6
CONTINUOUS
 62
    3
 10
1490.4216
 20
1780.9919
 11
1491.461
 21
1782.1545
  0
LINE
  8
0-2
  6
CONTINUOUS
 62
    3
 10
1491.461
 20
1782.1545
 11
1492.3041
 21
1783.5012
  0
LINE
  8
0-2
  6
CONTINUOUS
 62
    3
 10
1492.3041
 20
1783.5012
 11
1492.9253
 21
1784.9912
  0
LINE
  8
0-2
  6
CONTINUOUS
 62
    3
 10
1492.9253
 20
1784.9912
 11
1493.3058
 21
1786.5792
  0
LINE
  8
0-2
  6
CONTINUOUS
 62
    3
 10
1493.3058
 20
1786.5792
 11
1493.4339
 21
1788.217
  0
LINE
  8
0-2
  6
CONTINUOUS
 62
    3
 10
1493.4339
 20
1788.217
 11
1493.3058
 21
1789.8547
  0
LINE
  8
0-2
  6
CONTINUOUS
 62
    3
 10
1493.3058
 20
1789.8547
 11
1492.9253
 21
1791.4427
  0
LINE
  8
0-2
  6
CONTINUOUS
 62
    3
 10
1492.9253
 20
1791.4427
 11
1492.3041
 21
1792.9327
  0
LINE
  8
0-2
  6
CONTINUOUS
 62
    3
 10
1492.3041
 20
1792.9327
 11
1491.461
 21
1794.2795
  0
LINE
  8
0-2
  6
CONTINUOUS
 62
    3
 10
1491.461
 20
1794.2795
 11
1490.4216
 21
1795.442
  0
LINE
  8
0-2
  6
CONTINUOUS
 62
    3
 10
1490.4216
 20
1795.442
 11
1489.2175
 21
1796.3849
  0
LINE
  8
0-2
  6
CONTINUOUS
 62
    3
 10
1489.2175
 20
1796.3849
 11
1487.8853
 21
1797.0797
  0
LINE
  8
0-2
  6
CONTINUOUS
 62
    3
 10
1487.8853
 20
1797.0797
 11
1486.4654
 21
1797.5052
  0
LINE
  8
0-2
  6
CONTINUOUS
 62
    3
 10
1486.4654
 20
1797.5052
 11
1485.0011
 21
1797.6485
  0
LINE
  8
0-2
  6
CONTINUOUS
 62
    3
 10
625.00023
 20
2193.7928
 11
623.5359
 21
2193.6495
  0
LINE
  8
0-2
  6
CONTINUOUS
 62
    3
 10
623.5359
 20
2193.6495
 11
622.11605
 21
2193.224
  0
LINE
  8
0-2
  6
CONTINUOUS
 62
    3
 10
622.11605
 20
2193.224
 11
620.78385
 21
2192.5292
  0
LINE
  8
0-2
  6
CONTINUOUS
 62
    3
 10
620.78385
 20
2192.5292
 11
619.57975
 21
2191.5862
  0
LINE
  8
0-2
  6
CONTINUOUS
 62
    3
 10
619.57975
 20
2191.5862
 11
618.54035
 21
2190.4237
  0
LINE
  8
0-2
  6
CONTINUOUS
 62
    3
 10
618.54035
 20
2190.4237
 11
617.69724
 21
2189.077
  0
LINE
  8
0-2
  6
CONTINUOUS
 62
    3
 10
617.69724
 20
2189.077
 11
617.07602
 21
2187.587
  0
LINE
  8
0-2
  6
CONTINUOUS
 62
    3
 10
617.07602
 20
2187.587
 11
616.69557
 21
2185.999
  0
LINE
  8
0-2
  6
CONTINUOUS
 62
    3
 10
616.69557
 20
2185.999
 11
616.56746
 21
2184.3612
  0
LINE
  8
0-2
  6
CONTINUOUS
 62
    3
 10
616.56746
 20
2184.3612
 11
616.69557
 21
2182.7234
  0
LINE
  8
0-2
  6
CONTINUOUS
 62
    3
 10
616.69557
 20
2182.7234
 11
617.07602
 21
2181.1354
  0
LINE
  8
0-2
  6
CONTINUOUS
 62
    3
 10
617.07602
 20
2181.1354
 11
617.69724
 21
2179.6454
  0
LINE
  8
0-2
  6
CONTINUOUS
 62
    3
 10
617.69724
 20
2179.6454
 11
618.54035
 21
2178.2987
  0
LINE
  8
0-2
  6
CONTINUOUS
 62
    3
 10
618.54035
 20
2178.2987
 11
619.57975
 21
2177.1362
  0
LINE
  8
0-2
  6
CONTINUOUS
 62
    3
 10
619.57975
 20
2177.1362
 11
620.78385
 21
2176.1932
  0
LINE
  8
0-2
  6
CONTINUOUS
 62
    3
 10
620.78385
 20
2176.1932
 11
622.11605
 21
2175.4984
  0
LINE
  8
0-2
  6
CONTINUOUS
 62
    3
 10
622.11605
 20
2175.4984
 11
623.5359
 21
2175.0729
  0
LINE
  8
0-2
  6
CONTINUOUS
 62
    3
 10
623.5359
 20
2175.0729
 11
625.00023
 21
2174.9296
  0
LINE
  8
0-2
  6
CONTINUOUS
 62
    3
 10
625.00023
 20
2080.608
 11
623.5359
 21
2080.4647
  0
LINE
  8
0-2
  6
CONTINUOUS
 62
    3
 10
623.5359
 20
2080.4647
 11
622.11605
 21
2080.0392
  0
LINE
  8
0-2
  6
CONTINUOUS
 62
    3
 10
622.11605
 20
2080.0392
 11
620.78385
 21
2079.3444
  0
LINE
  8
0-2
  6
CONTINUOUS
 62
    3
 10
620.78385
 20
2079.3444
 11
619.57975
 21
2078.4014
  0
LINE
  8
0-2
  6
CONTINUOUS
 62
    3
 10
619.57975
 20
2078.4014
 11
618.54035
 21
2077.2389
  0
LINE
  8
0-2
  6
CONTINUOUS
 62
    3
 10
618.54035
 20
2077.2389
 11
617.69724
 21
2075.8922
  0
LINE
  8
0-2
  6
CONTINUOUS
 62
    3
 10
617.69724
 20
2075.8922
 11
617.07602
 21
2074.4022
  0
LINE
  8
0-2
  6
CONTINUOUS
 62
    3
 10
617.07602
 20
2074.4022
 11
616.69557
 21
2072.8142
  0
LINE
  8
0-2
  6
CONTINUOUS
 62
    3
 10
616.69557
 20
2072.8142
 11
616.56746
 21
2071.1764
  0
LINE
  8
0-2
  6
CONTINUOUS
 62
    3
 10
616.56746
 20
2071.1764
 11
616.69557
 21
2069.5386
  0
LINE
  8
0-2
  6
CONTINUOUS
 62
    3
 10
616.69557
 20
2069.5386
 11
617.07602
 21
2067.9506
  0
LINE
  8
0-2
  6
CONTINUOUS
 62
    3
 10
617.07602
 20
2067.9506
 11
617.69724
 21
2066.4606
  0
LINE
  8
0-2
  6
CONTINUOUS
 62
    3
 10
617.69724
 20
2066.4606
 11
618.54035
 21
2065.1139
  0
LINE
  8
0-2
  6
CONTINUOUS
 62
    3
 10
618.54035
 20
2065.1139
 11
619.57975
 21
2063.9514
  0
LINE
  8
0-2
  6
CONTINUOUS
 62
    3
 10
619.57975
 20
2063.9514
 11
620.78385
 21
2063.0084
  0
LINE
  8
0-2
  6
CONTINUOUS
 62
    3
 10
620.78385
 20
2063.0084
 11
622.11605
 21
2062.3136
  0
LINE
  8
0-2
  6
CONTINUOUS
 62
    3
 10
622.11605
 20
2062.3136
 11
623.5359
 21
2061.8881
  0
LINE
  8
0-2
  6
CONTINUOUS
 62
    3
 10
623.5359
 20
2061.8881
 11
625.00023
 21
2061.7448
  0
LINE
  8
0-2
  6
CONTINUOUS
 62
    3
 10
1485.0001
 20
2174.9296
 11
1486.4644
 21
2175.0729
  0
LINE
  8
0-2
  6
CONTINUOUS
 62
    3
 10
1486.4644
 20
2175.0729
 11
1487.8843
 21
2175.4984
  0
LINE
  8
0-2
  6
CONTINUOUS
 62
    3
 10
1487.8843
 20
2175.4984
 11
1489.2165
 21
2176.1932
  0
LINE
  8
0-2
  6
CONTINUOUS
 62
    3
 10
1489.2165
 20
2176.1932
 11
1490.4206
 21
2177.1362
  0
LINE
  8
0-2
  6
CONTINUOUS
 62
    3
 10
1490.4206
 20
2177.1362
 11
1491.46
 21
2178.2987
  0
LINE
  8
0-2
  6
CONTINUOUS
 62
    3
 10
1491.46
 20
2178.2987
 11
1492.3031
 21
2179.6454
  0
LINE
  8
0-2
  6
CONTINUOUS
 62
    3
 10
1492.3031
 20
2179.6454
 11
1492.9243
 21
2181.1354
  0
LINE
  8
0-2
  6
CONTINUOUS
 62
    3
 10
1492.9243
 20
2181.1354
 11
1493.3048
 21
2182.7234
  0
LINE
  8
0-2
  6
CONTINUOUS
 62
    3
 10
1493.3048
 20
2182.7234
 11
1493.4329
 21
2184.3612
  0
LINE
  8
0-2
  6
CONTINUOUS
 62
    3
 10
1493.4329
 20
2184.3612
 11
1493.3048
 21
2185.999
  0
LINE
  8
0-2
  6
CONTINUOUS
 62
    3
 10
1493.3048
 20
2185.999
 11
1492.9243
 21
2187.587
  0
LINE
  8
0-2
  6
CONTINUOUS
 62
    3
 10
1492.9243
 20
2187.587
 11
1492.3031
 21
2189.077
  0
LINE
  8
0-2
  6
CONTINUOUS
 62
    3
 10
1492.3031
 20
2189.077
 11
1491.46
 21
2190.4237
  0
LINE
  8
0-2
  6
CONTINUOUS
 62
    3
 10
1491.46
 20
2190.4237
 11
1490.4206
 21
2191.5862
  0
LINE
  8
0-2
  6
CONTINUOUS
 62
    3
 10
1490.4206
 20
2191.5862
 11
1489.2165
 21
2192.5292
  0
LINE
  8
0-2
  6
CONTINUOUS
 62
    3
 10
1489.2165
 20
2192.5292
 11
1487.8843
 21
2193.224
  0
LINE
  8
0-2
  6
CONTINUOUS
 62
    3
 10
1487.8843
 20
2193.224
 11
1486.4644
 21
2193.6495
  0
LINE
  8
0-2
  6
CONTINUOUS
 62
    3
 10
1486.4644
 20
2193.6495
 11
1485.0001
 21
2193.7928
  0
LINE
  8
0-2
  6
CONTINUOUS
 62
    3
 10
1485.0001
 20
2061.7448
 11
1486.4644
 21
2061.8881
  0
LINE
  8
0-2
  6
CONTINUOUS
 62
    3
 10
1486.4644
 20
2061.8881
 11
1487.8843
 21
2062.3136
  0
LINE
  8
0-2
  6
CONTINUOUS
 62
    3
 10
1487.8843
 20
2062.3136
 11
1489.2165
 21
2063.0084
  0
LINE
  8
0-2
  6
CONTINUOUS
 62
    3
 10
1489.2165
 20
2063.0084
 11
1490.4206
 21
2063.9514
  0
LINE
  8
0-2
  6
CONTINUOUS
 62
    3
 10
1490.4206
 20
2063.9514
 11
1491.46
 21
2065.1139
  0
LINE
  8
0-2
  6
CONTINUOUS
 62
    3
 10
1491.46
 20
2065.1139
 11
1492.3031
 21
2066.4606
  0
LINE
  8
0-2
  6
CONTINUOUS
 62
    3
 10
1492.3031
 20
2066.4606
 11
1492.9243
 21
2067.9506
  0
LINE
  8
0-2
  6
CONTINUOUS
 62
    3
 10
1492.9243
 20
2067.9506
 11
1493.3048
 21
2069.5386
  0
LINE
  8
0-2
  6
CONTINUOUS
 62
    3
 10
1493.3048
 20
2069.5386
 11
1493.4329
 21
2071.1764
  0
LINE
  8
0-2
  6
CONTINUOUS
 62
    3
 10
1493.4329
 20
2071.1764
 11
1493.3048
 21
2072.8142
  0
LINE
  8
0-2
  6
CONTINUOUS
 62
    3
 10
1493.3048
 20
2072.8142
 11
1492.9243
 21
2074.4022
  0
LINE
  8
0-2
  6
CONTINUOUS
 62
    3
 10
1492.9243
 20
2074.4022
 11
1492.3031
 21
2075.8922
  0
LINE
  8
0-2
  6
CONTINUOUS
 62
    3
 10
1492.3031
 20
2075.8922
 11
1491.46
 21
2077.2389
  0
LINE
  8
0-2
  6
CONTINUOUS
 62
    3
 10
1491.46
 20
2077.2389
 11
1490.4206
 21
2078.4014
  0
LINE
  8
0-2
  6
CONTINUOUS
 62
    3
 10
1490.4206
 20
2078.4014
 11
1489.2165
 21
2079.3444
  0
LINE
  8
0-2
  6
CONTINUOUS
 62
    3
 10
1489.2165
 20
2079.3444
 11
1487.8843
 21
2080.0392
  0
LINE
  8
0-2
  6
CONTINUOUS
 62
    3
 10
1487.8843
 20
2080.0392
 11
1486.4644
 21
2080.4647
  0
LINE
  8
0-2
  6
CONTINUOUS
 62
    3
 10
1486.4644
 20
2080.4647
 11
1485.0001
 21
2080.608
  0
LINE
  8
0-2
  6
CONTINUOUS
 62
    3
 10
1020.4449
 20
2288.1132
 11
1020.8867
 21
2286.4678
  0
LINE
  8
0-2
  6
CONTINUOUS
 62
    3
 10
1020.8867
 20
2286.4678
 11
1021.5772
 21
2284.9333
  0
LINE
  8
0-2
  6
CONTINUOUS
 62
    3
 10
1021.5772
 20
2284.9333
 11
1022.4955
 21
2283.5562
  0
LINE
  8
0-2
  6
CONTINUOUS
 62
    3
 10
1022.4955
 20
2283.5562
 11
1023.6137
 21
2282.3783
  0
LINE
  8
0-2
  6
CONTINUOUS
 62
    3
 10
1023.6137
 20
2282.3783
 11
1024.8977
 21
2281.4356
  0
LINE
  8
0-2
  6
CONTINUOUS
 62
    3
 10
1024.8977
 20
2281.4356
 11
1026.3087
 21
2280.7565
  0
LINE
  8
0-2
  6
CONTINUOUS
 62
    3
 10
1026.3087
 20
2280.7565
 11
1027.8036
 21
2280.3618
  0
LINE
  8
0-2
  6
CONTINUOUS
 62
    3
 10
1027.8036
 20
2280.3618
 11
1029.3371
 21
2280.2633
  0
LINE
  8
0-2
  6
CONTINUOUS
 62
    3
 10
1029.3371
 20
2280.2633
 11
1030.8625
 21
2280.4643
  0
LINE
  8
0-2
  6
CONTINUOUS
 62
    3
 10
1030.8625
 20
2280.4643
 11
1032.3336
 21
2280.9584
  0
LINE
  8
0-2
  6
CONTINUOUS
 62
    3
 10
1032.3336
 20
2280.9584
 11
1033.7057
 21
2281.7307
  0
LINE
  8
0-2
  6
CONTINUOUS
 62
    3
 10
1033.7057
 20
2281.7307
 11
1034.9369
 21
2282.7578
  0
LINE
  8
0-2
  6
CONTINUOUS
 62
    3
 10
1034.9369
 20
2282.7578
 11
1035.9901
 21
2284.0084
  0
LINE
  8
0-2
  6
CONTINUOUS
 62
    3
 10
1035.9901
 20
2284.0084
 11
1036.833
 21
2285.4446
  0
LINE
  8
0-2
  6
CONTINUOUS
 62
    3
 10
1036.833
 20
2285.4446
 11
1037.4402
 21
2287.0226
  0
LINE
  8
0-2
  6
CONTINUOUS
 62
    3
 10
1037.4402
 20
2287.0226
 11
1037.7014
 21
2288.1132
  0
LINE
  8
0-2
  6
CONTINUOUS
 62
    3
 10
1072.2988
 20
2288.1132
 11
1072.7407
 21
2286.4678
  0
LINE
  8
0-2
  6
CONTINUOUS
 62
    3
 10
1072.7407
 20
2286.4678
 11
1073.4312
 21
2284.9333
  0
LINE
  8
0-2
  6
CONTINUOUS
 62
    3
 10
1073.4312
 20
2284.9333
 11
1074.3495
 21
2283.5562
  0
LINE
  8
0-2
  6
CONTINUOUS
 62
    3
 10
1074.3495
 20
2283.5562
 11
1075.4677
 21
2282.3783
  0
LINE
  8
0-2
  6
CONTINUOUS
 62
    3
 10
1075.4677
 20
2282.3783
 11
1076.7517
 21
2281.4356
  0
LINE
  8
0-2
  6
CONTINUOUS
 62
    3
 10
1076.7517
 20
2281.4356
 11
1078.1626
 21
2280.7565
  0
LINE
  8
0-2
  6
CONTINUOUS
 62
    3
 10
1078.1626
 20
2280.7565
 11
1079.6576
 21
2280.3618
  0
LINE
  8
0-2
  6
CONTINUOUS
 62
    3
 10
1079.6576
 20
2280.3618
 11
1081.1911
 21
2280.2633
  0
LINE
  8
0-2
  6
CONTINUOUS
 62
    3
 10
1081.1911
 20
2280.2633
 11
1082.7165
 21
2280.4643
  0
LINE
  8
0-2
  6
CONTINUOUS
 62
    3
 10
1082.7165
 20
2280.4643
 11
1084.1876
 21
2280.9584
  0
LINE
  8
0-2
  6
CONTINUOUS
 62
    3
 10
1084.1876
 20
2280.9584
 11
1085.5597
 21
2281.7307
  0
LINE
  8
0-2
  6
CONTINUOUS
 62
    3
 10
1085.5597
 20
2281.7307
 11
1086.7909
 21
2282.7578
  0
LINE
  8
0-2
  6
CONTINUOUS
 62
    3
 10
1086.7909
 20
2282.7578
 11
1087.844
 21
2284.0084
  0
LINE
  8
0-2
  6
CONTINUOUS
 62
    3
 10
1087.844
 20
2284.0084
 11
1088.687
 21
2285.4446
  0
LINE
  8
0-2
  6
CONTINUOUS
 62
    3
 10
1088.687
 20
2285.4446
 11
1089.2941
 21
2287.0226
  0
LINE
  8
0-2
  6
CONTINUOUS
 62
    3
 10
1089.2941
 20
2287.0226
 11
1089.5554
 21
2288.1132
  0
LINE
  8
0-2
  6
CONTINUOUS
 62
    3
 10
804.72024
 20
2089.2869
 11
804.64337
 21
2090.2696
  0
LINE
  8
0-2
  6
CONTINUOUS
 62
    3
 10
804.64337
 20
2090.2696
 11
804.41509
 21
2091.2225
  0
LINE
  8
0-2
  6
CONTINUOUS
 62
    3
 10
804.41509
 20
2091.2225
 11
804.04234
 21
2092.1165
  0
LINE
  8
0-2
  6
CONTINUOUS
 62
    3
 10
804.04234
 20
2092.1165
 11
803.53645
 21
2092.9246
  0
LINE
  8
0-2
  6
CONTINUOUS
 62
    3
 10
803.53645
 20
2092.9246
 11
802.91278
 21
2093.6221
  0
LINE
  8
0-2
  6
CONTINUOUS
 62
    3
 10
802.91278
 20
2093.6221
 11
802.19029
 21
2094.1879
  0
LINE
  8
0-2
  6
CONTINUOUS
 62
    3
 10
802.19029
 20
2094.1879
 11
801.39093
 21
2094.6048
  0
LINE
  8
0-2
  6
CONTINUOUS
 62
    3
 10
801.39093
 20
2094.6048
 11
800.53898
 21
2094.8601
  0
LINE
  8
0-2
  6
CONTINUOUS
 62
    3
 10
800.53898
 20
2094.8601
 11
799.66034
 21
2094.9461
  0
LINE
  8
0-2
  6
CONTINUOUS
 62
    3
 10
799.66034
 20
2094.9461
 11
798.7817
 21
2094.8601
  0
LINE
  8
0-2
  6
CONTINUOUS
 62
    3
 10
798.7817
 20
2094.8601
 11
797.92975
 21
2094.6048
  0
LINE
  8
0-2
  6
CONTINUOUS
 62
    3
 10
797.92975
 20
2094.6048
 11
797.13039
 21
2094.1879
  0
LINE
  8
0-2
  6
CONTINUOUS
 62
    3
 10
797.13039
 20
2094.1879
 11
796.4079
 21
2093.6221
  0
LINE
  8
0-2
  6
CONTINUOUS
 62
    3
 10
796.4079
 20
2093.6221
 11
795.78424
 21
2092.9246
  0
LINE
  8
0-2
  6
CONTINUOUS
 62
    3
 10
795.78424
 20
2092.9246
 11
795.27834
 21
2092.1165
  0
LINE
  8
0-2
  6
CONTINUOUS
 62
    3
 10
795.27834
 20
2092.1165
 11
794.90559
 21
2091.2225
  0
LINE
  8
0-2
  6
CONTINUOUS
 62
    3
 10
794.90559
 20
2091.2225
 11
794.67731
 21
2090.2696
  0
LINE
  8
0-2
  6
CONTINUOUS
 62
    3
 10
794.67731
 20
2090.2696
 11
794.60044
 21
2089.2869
  0
LINE
  8
0-2
  6
CONTINUOUS
 62
    3
 10
794.60044
 20
2089.2869
 11
794.67731
 21
2088.3042
  0
LINE
  8
0-2
  6
CONTINUOUS
 62
    3
 10
794.67731
 20
2088.3042
 11
794.90559
 21
2087.3513
  0
LINE
  8
0-2
  6
CONTINUOUS
 62
    3
 10
794.90559
 20
2087.3513
 11
795.27834
 21
2086.4573
  0
LINE
  8
0-2
  6
CONTINUOUS
 62
    3
 10
795.27834
 20
2086.4573
 11
795.78424
 21
2085.6492
  0
LINE
  8
0-2
  6
CONTINUOUS
 62
    3
 10
795.78424
 20
2085.6492
 11
796.4079
 21
2084.9517
  0
LINE
  8
0-2
  6
CONTINUOUS
 62
    3
 10
796.4079
 20
2084.9517
 11
797.13039
 21
2084.3859
  0
LINE
  8
0-2
  6
CONTINUOUS
 62
    3
 10
797.13039
 20
2084.3859
 11
797.92975
 21
2083.969
  0
LINE
  8
0-2
  6
CONTINUOUS
 62
    3
 10
797.92975
 20
2083.969
 11
798.7817
 21
2083.7137
  0
LINE
  8
0-2
  6
CONTINUOUS
 62
    3
 10
798.7817
 20
2083.7137
 11
799.66034
 21
2083.6277
  0
LINE
  8
0-2
  6
CONTINUOUS
 62
    3
 10
799.66034
 20
2083.6277
 11
800.53898
 21
2083.7137
  0
LINE
  8
0-2
  6
CONTINUOUS
 62
    3
 10
800.53898
 20
2083.7137
 11
801.39093
 21
2083.969
  0
LINE
  8
0-2
  6
CONTINUOUS
 62
    3
 10
801.39093
 20
2083.969
 11
802.19029
 21
2084.3859
  0
LINE
  8
0-2
  6
CONTINUOUS
 62
    3
 10
802.19029
 20
2084.3859
 11
802.91278
 21
2084.9517
  0
LINE
  8
0-2
  6
CONTINUOUS
 62
    3
 10
802.91278
 20
2084.9517
 11
803.53645
 21
2085.6492
  0
LINE
  8
0-2
  6
CONTINUOUS
 62
    3
 10
803.53645
 20
2085.6492
 11
804.04234
 21
2086.4573
  0
LINE
  8
0-2
  6
CONTINUOUS
 62
    3
 10
804.04234
 20
2086.4573
 11
804.41509
 21
2087.3513
  0
LINE
  8
0-2
  6
CONTINUOUS
 62
    3
 10
804.41509
 20
2087.3513
 11
804.64337
 21
2088.3042
  0
LINE
  8
0-2
  6
CONTINUOUS
 62
    3
 10
804.64337
 20
2088.3042
 11
804.72024
 21
2089.2869
  0
LINE
  8
0-2
  6
CONTINUOUS
 62
    3
 10
804.72024
 20
2156.8919
 11
804.64337
 21
2157.8746
  0
LINE
  8
0-2
  6
CONTINUOUS
 62
    3
 10
804.64337
 20
2157.8746
 11
804.41509
 21
2158.8275
  0
LINE
  8
0-2
  6
CONTINUOUS
 62
    3
 10
804.41509
 20
2158.8275
 11
804.04234
 21
2159.7215
  0
LINE
  8
0-2
  6
CONTINUOUS
 62
    3
 10
804.04234
 20
2159.7215
 11
803.53645
 21
2160.5296
  0
LINE
  8
0-2
  6
CONTINUOUS
 62
    3
 10
803.53645
 20
2160.5296
 11
802.91278
 21
2161.2271
  0
LINE
  8
0-2
  6
CONTINUOUS
 62
    3
 10
802.91278
 20
2161.2271
 11
802.19029
 21
2161.7929
  0
LINE
  8
0-2
  6
CONTINUOUS
 62
    3
 10
802.19029
 20
2161.7929
 11
801.39093
 21
2162.2098
  0
LINE
  8
0-2
  6
CONTINUOUS
 62
    3
 10
801.39093
 20
2162.2098
 11
800.53898
 21
2162.4652
  0
LINE
  8
0-2
  6
CONTINUOUS
 62
    3
 10
800.53898
 20
2162.4652
 11
799.66034
 21
2162.5511
  0
LINE
  8
0-2
  6
CONTINUOUS
 62
    3
 10
799.66034
 20
2162.5511
 11
798.7817
 21
2162.4652
  0
LINE
  8
0-2
  6
CONTINUOUS
 62
    3
 10
798.7817
 20
2162.4652
 11
797.92975
 21
2162.2098
  0
LINE
  8
0-2
  6
CONTINUOUS
 62
    3
 10
797.92975
 20
2162.2098
 11
797.13039
 21
2161.7929
  0
LINE
  8
0-2
  6
CONTINUOUS
 62
    3
 10
797.13039
 20
2161.7929
 11
796.4079
 21
2161.2271
  0
LINE
  8
0-2
  6
CONTINUOUS
 62
    3
 10
796.4079
 20
2161.2271
 11
795.78424
 21
2160.5296
  0
LINE
  8
0-2
  6
CONTINUOUS
 62
    3
 10
795.78424
 20
2160.5296
 11
795.27834
 21
2159.7215
  0
LINE
  8
0-2
  6
CONTINUOUS
 62
    3
 10
795.27834
 20
2159.7215
 11
794.90559
 21
2158.8275
  0
LINE
  8
0-2
  6
CONTINUOUS
 62
    3
 10
794.90559
 20
2158.8275
 11
794.67731
 21
2157.8746
  0
LINE
  8
0-2
  6
CONTINUOUS
 62
    3
 10
794.67731
 20
2157.8746
 11
794.60044
 21
2156.8919
  0
LINE
  8
0-2
  6
CONTINUOUS
 62
    3
 10
794.60044
 20
2156.8919
 11
794.67731
 21
2155.9092
  0
LINE
  8
0-2
  6
CONTINUOUS
 62
    3
 10
794.67731
 20
2155.9092
 11
794.90559
 21
2154.9564
  0
LINE
  8
0-2
  6
CONTINUOUS
 62
    3
 10
794.90559
 20
2154.9564
 11
795.27834
 21
2154.0623
  0
LINE
  8
0-2
  6
CONTINUOUS
 62
    3
 10
795.27834
 20
2154.0623
 11
795.78424
 21
2153.2542
  0
LINE
  8
0-2
  6
CONTINUOUS
 62
    3
 10
795.78424
 20
2153.2542
 11
796.4079
 21
2152.5567
  0
LINE
  8
0-2
  6
CONTINUOUS
 62
    3
 10
796.4079
 20
2152.5567
 11
797.13039
 21
2151.9909
  0
LINE
  8
0-2
  6
CONTINUOUS
 62
    3
 10
797.13039
 20
2151.9909
 11
797.92975
 21
2151.574
  0
LINE
  8
0-2
  6
CONTINUOUS
 62
    3
 10
797.92975
 20
2151.574
 11
798.7817
 21
2151.3187
  0
LINE
  8
0-2
  6
CONTINUOUS
 62
    3
 10
798.7817
 20
2151.3187
 11
799.66034
 21
2151.2327
  0
LINE
  8
0-2
  6
CONTINUOUS
 62
    3
 10
799.66034
 20
2151.2327
 11
800.53898
 21
2151.3187
  0
LINE
  8
0-2
  6
CONTINUOUS
 62
    3
 10
800.53898
 20
2151.3187
 11
801.39093
 21
2151.574
  0
LINE
  8
0-2
  6
CONTINUOUS
 62
    3
 10
801.39093
 20
2151.574
 11
802.19029
 21
2151.9909
  0
LINE
  8
0-2
  6
CONTINUOUS
 62
    3
 10
802.19029
 20
2151.9909
 11
802.91278
 21
2152.5567
  0
LINE
  8
0-2
  6
CONTINUOUS
 62
    3
 10
802.91278
 20
2152.5567
 11
803.53645
 21
2153.2542
  0
LINE
  8
0-2
  6
CONTINUOUS
 62
    3
 10
803.53645
 20
2153.2542
 11
804.04234
 21
2154.0623
  0
LINE
  8
0-2
  6
CONTINUOUS
 62
    3
 10
804.04234
 20
2154.0623
 11
804.41509
 21
2154.9564
  0
LINE
  8
0-2
  6
CONTINUOUS
 62
    3
 10
804.41509
 20
2154.9564
 11
804.64337
 21
2155.9092
  0
LINE
  8
0-2
  6
CONTINUOUS
 62
    3
 10
804.64337
 20
2155.9092
 11
804.72024
 21
2156.8919
  0
LINE
  8
0-2
  6
CONTINUOUS
 62
    3
 10
804.72024
 20
1770.1066
 11
804.64337
 21
1771.0893
  0
LINE
  8
0-2
  6
CONTINUOUS
 62
    3
 10
804.64337
 20
1771.0893
 11
804.41509
 21
1772.0422
  0
LINE
  8
0-2
  6
CONTINUOUS
 62
    3
 10
804.41509
 20
1772.0422
 11
804.04234
 21
1772.9362
  0
LINE
  8
0-2
  6
CONTINUOUS
 62
    3
 10
804.04234
 20
1772.9362
 11
803.53645
 21
1773.7443
  0
LINE
  8
0-2
  6
CONTINUOUS
 62
    3
 10
803.53645
 20
1773.7443
 11
802.91278
 21
1774.4418
  0
LINE
  8
0-2
  6
CONTINUOUS
 62
    3
 10
802.91278
 20
1774.4418
 11
802.19029
 21
1775.0076
  0
LINE
  8
0-2
  6
CONTINUOUS
 62
    3
 10
802.19029
 20
1775.0076
 11
801.39093
 21
1775.4245
  0
LINE
  8
0-2
  6
CONTINUOUS
 62
    3
 10
801.39093
 20
1775.4245
 11
800.53898
 21
1775.6798
  0
LINE
  8
0-2
  6
CONTINUOUS
 62
    3
 10
800.53898
 20
1775.6798
 11
799.66034
 21
1775.7658
  0
LINE
  8
0-2
  6
CONTINUOUS
 62
    3
 10
799.66034
 20
1775.7658
 11
798.7817
 21
1775.6798
  0
LINE
  8
0-2
  6
CONTINUOUS
 62
    3
 10
798.7817
 20
1775.6798
 11
797.92975
 21
1775.4245
  0
LINE
  8
0-2
  6
CONTINUOUS
 62
    3
 10
797.92975
 20
1775.4245
 11
797.13039
 21
1775.0076
  0
LINE
  8
0-2
  6
CONTINUOUS
 62
    3
 10
797.13039
 20
1775.0076
 11
796.4079
 21
1774.4418
  0
LINE
  8
0-2
  6
CONTINUOUS
 62
    3
 10
796.4079
 20
1774.4418
 11
795.78424
 21
1773.7443
  0
LINE
  8
0-2
  6
CONTINUOUS
 62
    3
 10
795.78424
 20
1773.7443
 11
795.27834
 21
1772.9362
  0
LINE
  8
0-2
  6
CONTINUOUS
 62
    3
 10
795.27834
 20
1772.9362
 11
794.90559
 21
1772.0422
  0
LINE
  8
0-2
  6
CONTINUOUS
 62
    3
 10
794.90559
 20
1772.0422
 11
794.67731
 21
1771.0893
  0
LINE
  8
0-2
  6
CONTINUOUS
 62
    3
 10
794.67731
 20
1771.0893
 11
794.60044
 21
1770.1066
  0
LINE
  8
0-2
  6
CONTINUOUS
 62
    3
 10
794.60044
 20
1770.1066
 11
794.67731
 21
1769.1239
  0
LINE
  8
0-2
  6
CONTINUOUS
 62
    3
 10
794.67731
 20
1769.1239
 11
794.90559
 21
1768.171
  0
LINE
  8
0-2
  6
CONTINUOUS
 62
    3
 10
794.90559
 20
1768.171
 11
795.27834
 21
1767.277
  0
LINE
  8
0-2
  6
CONTINUOUS
 62
    3
 10
795.27834
 20
1767.277
 11
795.78424
 21
1766.4689
  0
LINE
  8
0-2
  6
CONTINUOUS
 62
    3
 10
795.78424
 20
1766.4689
 11
796.4079
 21
1765.7714
  0
LINE
  8
0-2
  6
CONTINUOUS
 62
    3
 10
796.4079
 20
1765.7714
 11
797.13039
 21
1765.2056
  0
LINE
  8
0-2
  6
CONTINUOUS
 62
    3
 10
797.13039
 20
1765.2056
 11
797.92975
 21
1764.7887
  0
LINE
  8
0-2
  6
CONTINUOUS
 62
    3
 10
797.92975
 20
1764.7887
 11
798.7817
 21
1764.5334
  0
LINE
  8
0-2
  6
CONTINUOUS
 62
    3
 10
798.7817
 20
1764.5334
 11
799.66034
 21
1764.4474
  0
LINE
  8
0-2
  6
CONTINUOUS
 62
    3
 10
799.66034
 20
1764.4474
 11
800.53898
 21
1764.5334
  0
LINE
  8
0-2
  6
CONTINUOUS
 62
    3
 10
800.53898
 20
1764.5334
 11
801.39093
 21
1764.7887
  0
LINE
  8
0-2
  6
CONTINUOUS
 62
    3
 10
801.39093
 20
1764.7887
 11
802.19029
 21
1765.2056
  0
LINE
  8
0-2
  6
CONTINUOUS
 62
    3
 10
802.19029
 20
1765.2056
 11
802.91278
 21
1765.7714
  0
LINE
  8
0-2
  6
CONTINUOUS
 62
    3
 10
802.91278
 20
1765.7714
 11
803.53645
 21
1766.4689
  0
LINE
  8
0-2
  6
CONTINUOUS
 62
    3
 10
803.53645
 20
1766.4689
 11
804.04234
 21
1767.277
  0
LINE
  8
0-2
  6
CONTINUOUS
 62
    3
 10
804.04234
 20
1767.277
 11
804.41509
 21
1768.171
  0
LINE
  8
0-2
  6
CONTINUOUS
 62
    3
 10
804.41509
 20
1768.171
 11
804.64337
 21
1769.1239
  0
LINE
  8
0-2
  6
CONTINUOUS
 62
    3
 10
804.64337
 20
1769.1239
 11
804.72024
 21
1770.1066
  0
LINE
  8
0-2
  6
CONTINUOUS
 62
    3
 10
804.72024
 20
1702.501
 11
804.64337
 21
1703.4837
  0
LINE
  8
0-2
  6
CONTINUOUS
 62
    3
 10
804.64337
 20
1703.4837
 11
804.41509
 21
1704.4365
  0
LINE
  8
0-2
  6
CONTINUOUS
 62
    3
 10
804.41509
 20
1704.4365
 11
804.04234
 21
1705.3306
  0
LINE
  8
0-2
  6
CONTINUOUS
 62
    3
 10
804.04234
 20
1705.3306
 11
803.53645
 21
1706.1386
  0
LINE
  8
0-2
  6
CONTINUOUS
 62
    3
 10
803.53645
 20
1706.1386
 11
802.91278
 21
1706.8362
  0
LINE
  8
0-2
  6
CONTINUOUS
 62
    3
 10
802.91278
 20
1706.8362
 11
802.19029
 21
1707.402
  0
LINE
  8
0-2
  6
CONTINUOUS
 62
    3
 10
802.19029
 20
1707.402
 11
801.39093
 21
1707.8189
  0
LINE
  8
0-2
  6
CONTINUOUS
 62
    3
 10
801.39093
 20
1707.8189
 11
800.53898
 21
1708.0742
  0
LINE
  8
0-2
  6
CONTINUOUS
 62
    3
 10
800.53898
 20
1708.0742
 11
799.66034
 21
1708.1602
  0
LINE
  8
0-2
  6
CONTINUOUS
 62
    3
 10
799.66034
 20
1708.1602
 11
798.7817
 21
1708.0742
  0
LINE
  8
0-2
  6
CONTINUOUS
 62
    3
 10
798.7817
 20
1708.0742
 11
797.92975
 21
1707.8189
  0
LINE
  8
0-2
  6
CONTINUOUS
 62
    3
 10
797.92975
 20
1707.8189
 11
797.13039
 21
1707.402
  0
LINE
  8
0-2
  6
CONTINUOUS
 62
    3
 10
797.13039
 20
1707.402
 11
796.4079
 21
1706.8362
  0
LINE
  8
0-2
  6
CONTINUOUS
 62
    3
 10
796.4079
 20
1706.8362
 11
795.78424
 21
1706.1386
  0
LINE
  8
0-2
  6
CONTINUOUS
 62
    3
 10
795.78424
 20
1706.1386
 11
795.27834
 21
1705.3306
  0
LINE
  8
0-2
  6
CONTINUOUS
 62
    3
 10
795.27834
 20
1705.3306
 11
794.90559
 21
1704.4365
  0
LINE
  8
0-2
  6
CONTINUOUS
 62
    3
 10
794.90559
 20
1704.4365
 11
794.67731
 21
1703.4837
  0
LINE
  8
0-2
  6
CONTINUOUS
 62
    3
 10
794.67731
 20
1703.4837
 11
794.60044
 21
1702.501
  0
LINE
  8
0-2
  6
CONTINUOUS
 62
    3
 10
794.60044
 20
1702.501
 11
794.67731
 21
1701.5182
  0
LINE
  8
0-2
  6
CONTINUOUS
 62
    3
 10
794.67731
 20
1701.5182
 11
794.90559
 21
1700.5654
  0
LINE
  8
0-2
  6
CONTINUOUS
 62
    3
 10
794.90559
 20
1700.5654
 11
795.27834
 21
1699.6713
  0
LINE
  8
0-2
  6
CONTINUOUS
 62
    3
 10
795.27834
 20
1699.6713
 11
795.78424
 21
1698.8633
  0
LINE
  8
0-2
  6
CONTINUOUS
 62
    3
 10
795.78424
 20
1698.8633
 11
796.4079
 21
1698.1657
  0
LINE
  8
0-2
  6
CONTINUOUS
 62
    3
 10
796.4079
 20
1698.1657
 11
797.13039
 21
1697.5999
  0
LINE
  8
0-2
  6
CONTINUOUS
 62
    3
 10
797.13039
 20
1697.5999
 11
797.92975
 21
1697.183
  0
LINE
  8
0-2
  6
CONTINUOUS
 62
    3
 10
797.92975
 20
1697.183
 11
798.7817
 21
1696.9277
  0
LINE
  8
0-2
  6
CONTINUOUS
 62
    3
 10
798.7817
 20
1696.9277
 11
799.66034
 21
1696.8417
  0
LINE
  8
0-2
  6
CONTINUOUS
 62
    3
 10
799.66034
 20
1696.8417
 11
800.53898
 21
1696.9277
  0
LINE
  8
0-2
  6
CONTINUOUS
 62
    3
 10
800.53898
 20
1696.9277
 11
801.39093
 21
1697.183
  0
LINE
  8
0-2
  6
CONTINUOUS
 62
    3
 10
801.39093
 20
1697.183
 11
802.19029
 21
1697.5999
  0
LINE
  8
0-2
  6
CONTINUOUS
 62
    3
 10
802.19029
 20
1697.5999
 11
802.91278
 21
1698.1657
  0
LINE
  8
0-2
  6
CONTINUOUS
 62
    3
 10
802.91278
 20
1698.1657
 11
803.53645
 21
1698.8633
  0
LINE
  8
0-2
  6
CONTINUOUS
 62
    3
 10
803.53645
 20
1698.8633
 11
804.04234
 21
1699.6713
  0
LINE
  8
0-2
  6
CONTINUOUS
 62
    3
 10
804.04234
 20
1699.6713
 11
804.41509
 21
1700.5654
  0
LINE
  8
0-2
  6
CONTINUOUS
 62
    3
 10
804.41509
 20
1700.5654
 11
804.64337
 21
1701.5182
  0
LINE
  8
0-2
  6
CONTINUOUS
 62
    3
 10
804.64337
 20
1701.5182
 11
804.72024
 21
1702.501
  0
LINE
  8
0-2
  6
CONTINUOUS
 62
    3
 10
1037.7014
 20
1571.2801
 11
1037.2596
 21
1572.9254
  0
LINE
  8
0-2
  6
CONTINUOUS
 62
    3
 10
1037.2596
 20
1572.9254
 11
1036.5691
 21
1574.4599
  0
LINE
  8
0-2
  6
CONTINUOUS
 62
    3
 10
1036.5691
 20
1574.4599
 11
1035.6508
 21
1575.8371
  0
LINE
  8
0-2
  6
CONTINUOUS
 62
    3
 10
1035.6508
 20
1575.8371
 11
1034.5326
 21
1577.0149
  0
LINE
  8
0-2
  6
CONTINUOUS
 62
    3
 10
1034.5326
 20
1577.0149
 11
1033.2486
 21
1577.9577
  0
LINE
  8
0-2
  6
CONTINUOUS
 62
    3
 10
1033.2486
 20
1577.9577
 11
1031.8376
 21
1578.6368
  0
LINE
  8
0-2
  6
CONTINUOUS
 62
    3
 10
1031.8376
 20
1578.6368
 11
1030.3427
 21
1579.0315
  0
LINE
  8
0-2
  6
CONTINUOUS
 62
    3
 10
1030.3427
 20
1579.0315
 11
1028.8092
 21
1579.1299
  0
LINE
  8
0-2
  6
CONTINUOUS
 62
    3
 10
1028.8092
 20
1579.1299
 11
1027.2838
 21
1578.929
  0
LINE
  8
0-2
  6
CONTINUOUS
 62
    3
 10
1027.2838
 20
1578.929
 11
1025.8127
 21
1578.4348
  0
LINE
  8
0-2
  6
CONTINUOUS
 62
    3
 10
1025.8127
 20
1578.4348
 11
1024.4406
 21
1577.6625
  0
LINE
  8
0-2
  6
CONTINUOUS
 62
    3
 10
1024.4406
 20
1577.6625
 11
1023.2094
 21
1576.6354
  0
LINE
  8
0-2
  6
CONTINUOUS
 62
    3
 10
1023.2094
 20
1576.6354
 11
1022.1562
 21
1575.3848
  0
LINE
  8
0-2
  6
CONTINUOUS
 62
    3
 10
1022.1562
 20
1575.3848
 11
1021.3133
 21
1573.9487
  0
LINE
  8
0-2
  6
CONTINUOUS
 62
    3
 10
1021.3133
 20
1573.9487
 11
1020.7061
 21
1572.3707
  0
LINE
  8
0-2
  6
CONTINUOUS
 62
    3
 10
1020.7061
 20
1572.3707
 11
1020.4449
 21
1571.2801
  0
LINE
  8
0-2
  6
CONTINUOUS
 62
    3
 10
869.41215
 20
1554.6706
 11
869.33528
 21
1555.6533
  0
LINE
  8
0-2
  6
CONTINUOUS
 62
    3
 10
869.33528
 20
1555.6533
 11
869.107
 21
1556.6062
  0
LINE
  8
0-2
  6
CONTINUOUS
 62
    3
 10
869.107
 20
1556.6062
 11
868.73425
 21
1557.5002
  0
LINE
  8
0-2
  6
CONTINUOUS
 62
    3
 10
868.73425
 20
1557.5002
 11
868.22836
 21
1558.3083
  0
LINE
  8
0-2
  6
CONTINUOUS
 62
    3
 10
868.22836
 20
1558.3083
 11
867.60469
 21
1559.0058
  0
LINE
  8
0-2
  6
CONTINUOUS
 62
    3
 10
867.60469
 20
1559.0058
 11
866.8822
 21
1559.5716
  0
LINE
  8
0-2
  6
CONTINUOUS
 62
    3
 10
866.8822
 20
1559.5716
 11
866.08284
 21
1559.9885
  0
LINE
  8
0-2
  6
CONTINUOUS
 62
    3
 10
866.08284
 20
1559.9885
 11
865.23089
 21
1560.2439
  0
LINE
  8
0-2
  6
CONTINUOUS
 62
    3
 10
865.23089
 20
1560.2439
 11
864.35225
 21
1560.3298
  0
LINE
  8
0-2
  6
CONTINUOUS
 62
    3
 10
864.35225
 20
1560.3298
 11
863.47361
 21
1560.2439
  0
LINE
  8
0-2
  6
CONTINUOUS
 62
    3
 10
863.47361
 20
1560.2439
 11
862.62166
 21
1559.9885
  0
LINE
  8
0-2
  6
CONTINUOUS
 62
    3
 10
862.62166
 20
1559.9885
 11
861.8223
 21
1559.5716
  0
LINE
  8
0-2
  6
CONTINUOUS
 62
    3
 10
861.8223
 20
1559.5716
 11
861.09981
 21
1559.0058
  0
LINE
  8
0-2
  6
CONTINUOUS
 62
    3
 10
861.09981
 20
1559.0058
 11
860.47614
 21
1558.3083
  0
LINE
  8
0-2
  6
CONTINUOUS
 62
    3
 10
860.47614
 20
1558.3083
 11
859.97025
 21
1557.5002
  0
LINE
  8
0-2
  6
CONTINUOUS
 62
    3
 10
859.97025
 20
1557.5002
 11
859.5975
 21
1556.6062
  0
LINE
  8
0-2
  6
CONTINUOUS
 62
    3
 10
859.5975
 20
1556.6062
 11
859.36922
 21
1555.6533
  0
LINE
  8
0-2
  6
CONTINUOUS
 62
    3
 10
859.36922
 20
1555.6533
 11
859.29235
 21
1554.6706
  0
LINE
  8
0-2
  6
CONTINUOUS
 62
    3
 10
859.29235
 20
1554.6706
 11
859.36922
 21
1553.6879
  0
LINE
  8
0-2
  6
CONTINUOUS
 62
    3
 10
859.36922
 20
1553.6879
 11
859.5975
 21
1552.7351
  0
LINE
  8
0-2
  6
CONTINUOUS
 62
    3
 10
859.5975
 20
1552.7351
 11
859.97025
 21
1551.841
  0
LINE
  8
0-2
  6
CONTINUOUS
 62
    3
 10
859.97025
 20
1551.841
 11
860.47614
 21
1551.033
  0
LINE
  8
0-2
  6
CONTINUOUS
 62
    3
 10
860.47614
 20
1551.033
 11
861.09981
 21
1550.3354
  0
LINE
  8
0-2
  6
CONTINUOUS
 62
    3
 10
861.09981
 20
1550.3354
 11
861.8223
 21
1549.7696
  0
LINE
  8
0-2
  6
CONTINUOUS
 62
    3
 10
861.8223
 20
1549.7696
 11
862.62166
 21
1549.3527
  0
LINE
  8
0-2
  6
CONTINUOUS
 62
    3
 10
862.62166
 20
1549.3527
 11
863.47361
 21
1549.0974
  0
LINE
  8
0-2
  6
CONTINUOUS
 62
    3
 10
863.47361
 20
1549.0974
 11
864.35225
 21
1549.0114
  0
LINE
  8
0-2
  6
CONTINUOUS
 62
    3
 10
864.35225
 20
1549.0114
 11
865.23089
 21
1549.0974
  0
LINE
  8
0-2
  6
CONTINUOUS
 62
    3
 10
865.23089
 20
1549.0974
 11
866.08284
 21
1549.3527
  0
LINE
  8
0-2
  6
CONTINUOUS
 62
    3
 10
866.08284
 20
1549.3527
 11
866.8822
 21
1549.7696
  0
LINE
  8
0-2
  6
CONTINUOUS
 62
    3
 10
866.8822
 20
1549.7696
 11
867.60469
 21
1550.3354
  0
LINE
  8
0-2
  6
CONTINUOUS
 62
    3
 10
867.60469
 20
1550.3354
 11
868.22836
 21
1551.033
  0
LINE
  8
0-2
  6
CONTINUOUS
 62
    3
 10
868.22836
 20
1551.033
 11
868.73425
 21
1551.841
  0
LINE
  8
0-2
  6
CONTINUOUS
 62
    3
 10
868.73425
 20
1551.841
 11
869.107
 21
1552.7351
  0
LINE
  8
0-2
  6
CONTINUOUS
 62
    3
 10
869.107
 20
1552.7351
 11
869.33528
 21
1553.6879
  0
LINE
  8
0-2
  6
CONTINUOUS
 62
    3
 10
869.33528
 20
1553.6879
 11
869.41215
 21
1554.6706
  0
LINE
  8
0-2
  6
CONTINUOUS
 62
    3
 10
869.41215
 20
1490.9953
 11
869.33528
 21
1491.978
  0
LINE
  8
0-2
  6
CONTINUOUS
 62
    3
 10
869.33528
 20
1491.978
 11
869.107
 21
1492.9309
  0
LINE
  8
0-2
  6
CONTINUOUS
 62
    3
 10
869.107
 20
1492.9309
 11
868.73425
 21
1493.8249
  0
LINE
  8
0-2
  6
CONTINUOUS
 62
    3
 10
868.73425
 20
1493.8249
 11
868.22836
 21
1494.633
  0
LINE
  8
0-2
  6
CONTINUOUS
 62
    3
 10
868.22836
 20
1494.633
 11
867.60469
 21
1495.3305
  0
LINE
  8
0-2
  6
CONTINUOUS
 62
    3
 10
867.60469
 20
1495.3305
 11
866.8822
 21
1495.8963
  0
LINE
  8
0-2
  6
CONTINUOUS
 62
    3
 10
866.8822
 20
1495.8963
 11
866.08284
 21
1496.3132
  0
LINE
  8
0-2
  6
CONTINUOUS
 62
    3
 10
866.08284
 20
1496.3132
 11
865.23089
 21
1496.5686
  0
LINE
  8
0-2
  6
CONTINUOUS
 62
    3
 10
865.23089
 20
1496.5686
 11
864.35225
 21
1496.6545
  0
LINE
  8
0-2
  6
CONTINUOUS
 62
    3
 10
864.35225
 20
1496.6545
 11
863.47361
 21
1496.5686
  0
LINE
  8
0-2
  6
CONTINUOUS
 62
    3
 10
863.47361
 20
1496.5686
 11
862.62166
 21
1496.3132
  0
LINE
  8
0-2
  6
CONTINUOUS
 62
    3
 10
862.62166
 20
1496.3132
 11
861.8223
 21
1495.8963
  0
LINE
  8
0-2
  6
CONTINUOUS
 62
    3
 10
861.8223
 20
1495.8963
 11
861.09981
 21
1495.3305
  0
LINE
  8
0-2
  6
CONTINUOUS
 62
    3
 10
861.09981
 20
1495.3305
 11
860.47614
 21
1494.633
  0
LINE
  8
0-2
  6
CONTINUOUS
 62
    3
 10
860.47614
 20
1494.633
 11
859.97025
 21
1493.8249
  0
LINE
  8
0-2
  6
CONTINUOUS
 62
    3
 10
859.97025
 20
1493.8249
 11
859.5975
 21
1492.9309
  0
LINE
  8
0-2
  6
CONTINUOUS
 62
    3
 10
859.5975
 20
1492.9309
 11
859.36922
 21
1491.978
  0
LINE
  8
0-2
  6
CONTINUOUS
 62
    3
 10
859.36922
 20
1491.978
 11
859.29235
 21
1490.9953
  0
LINE
  8
0-2
  6
CONTINUOUS
 62
    3
 10
859.29235
 20
1490.9953
 11
859.36922
 21
1490.0126
  0
LINE
  8
0-2
  6
CONTINUOUS
 62
    3
 10
859.36922
 20
1490.0126
 11
859.5975
 21
1489.0598
  0
LINE
  8
0-2
  6
CONTINUOUS
 62
    3
 10
859.5975
 20
1489.0598
 11
859.97025
 21
1488.1657
  0
LINE
  8
0-2
  6
CONTINUOUS
 62
    3
 10
859.97025
 20
1488.1657
 11
860.47614
 21
1487.3577
  0
LINE
  8
0-2
  6
CONTINUOUS
 62
    3
 10
860.47614
 20
1487.3577
 11
861.09981
 21
1486.6601
  0
LINE
  8
0-2
  6
CONTINUOUS
 62
    3
 10
861.09981
 20
1486.6601
 11
861.8223
 21
1486.0943
  0
LINE
  8
0-2
  6
CONTINUOUS
 62
    3
 10
861.8223
 20
1486.0943
 11
862.62166
 21
1485.6774
  0
LINE
  8
0-2
  6
CONTINUOUS
 62
    3
 10
862.62166
 20
1485.6774
 11
863.47361
 21
1485.4221
  0
LINE
  8
0-2
  6
CONTINUOUS
 62
    3
 10
863.47361
 20
1485.4221
 11
864.35225
 21
1485.3361
  0
LINE
  8
0-2
  6
CONTINUOUS
 62
    3
 10
864.35225
 20
1485.3361
 11
865.23089
 21
1485.4221
  0
LINE
  8
0-2
  6
CONTINUOUS
 62
    3
 10
865.23089
 20
1485.4221
 11
866.08284
 21
1485.6774
  0
LINE
  8
0-2
  6
CONTINUOUS
 62
    3
 10
866.08284
 20
1485.6774
 11
866.8822
 21
1486.0943
  0
LINE
  8
0-2
  6
CONTINUOUS
 62
    3
 10
866.8822
 20
1486.0943
 11
867.60469
 21
1486.6601
  0
LINE
  8
0-2
  6
CONTINUOUS
 62
    3
 10
867.60469
 20
1486.6601
 11
868.22836
 21
1487.3577
  0
LINE
  8
0-2
  6
CONTINUOUS
 62
    3
 10
868.22836
 20
1487.3577
 11
868.73425
 21
1488.1657
  0
LINE
  8
0-2
  6
CONTINUOUS
 62
    3
 10
868.73425
 20
1488.1657
 11
869.107
 21
1489.0598
  0
LINE
  8
0-2
  6
CONTINUOUS
 62
    3
 10
869.107
 20
1489.0598
 11
869.33528
 21
1490.0126
  0
LINE
  8
0-2
  6
CONTINUOUS
 62
    3
 10
869.33528
 20
1490.0126
 11
869.41215
 21
1490.9953
  0
ARC
  8
0-2
  6
CONTINUOUS
 62
    3
 10
1409.336
 20
1708.5436
 40
6.3264769
 50
268.77102
 51
91.228973
  0
ARC
  8
0-2
  6
CONTINUOUS
 62
    3
 10
1409.336
 20
2139.6164
 40
6.3264769
 50
268.77102
 51
91.228973
  0
ARC
  8
0-2
  6
CONTINUOUS
 62
    3
 10
1312.636
 20
1708.5436
 40
6.3264769
 50
268.77102
 51
91.228973
  0
ARC
  8
0-2
  6
CONTINUOUS
 62
    3
 10
797.50019
 20
1404.5945
 40
5.0000167
 50
90
 51
270
  0
ARC
  8
0-2
  6
CONTINUOUS
 62
    3
 10
797.49896
 20
1470.0505
 40
5.0000167
 50
90
 51
270
  0
ARC
  8
0-2
  6
CONTINUOUS
 62
    3
 10
1312.5004
 20
1404.5945
 40
5.0000167
 50
270
 51
90
  0
ARC
  8
0-2
  6
CONTINUOUS
 62
    3
 10
1312.5014
 20
1470.0505
 40
5.0000167
 50
270
 51
90
  0
ARC
  8
0-2
  6
CONTINUOUS
 62
    3
 10
797.50019
 20
1404.5945
 40
5.0000167
 50
90
 51
270
  0
ARC
  8
0-2
  6
CONTINUOUS
 62
    3
 10
797.49896
 20
1470.0505
 40
5.0000167
 50
90
 51
270
  0
ARC
  8
0-2
  6
CONTINUOUS
 62
    3
 10
1312.5004
 20
1404.5945
 40
5.0000167
 50
270
 51
90
  0
ARC
  8
0-2
  6
CONTINUOUS
 62
    3
 10
1312.5014
 20
1470.0505
 40
5.0000167
 50
270
 51
90
  0
LINE
  8
0-2
  6
CONTINUOUS
 62
    3
 10
1485.0001
 20
1665.5997
 11
1486.4644
 21
1665.743
  0
LINE
  8
0-2
  6
CONTINUOUS
 62
    3
 10
1486.4644
 20
1665.743
 11
1487.8843
 21
1666.1685
  0
LINE
  8
0-2
  6
CONTINUOUS
 62
    3
 10
1487.8843
 20
1666.1685
 11
1489.2165
 21
1666.8633
  0
LINE
  8
0-2
  6
CONTINUOUS
 62
    3
 10
1489.2165
 20
1666.8633
 11
1490.4206
 21
1667.8063
  0
LINE
  8
0-2
  6
CONTINUOUS
 62
    3
 10
1490.4206
 20
1667.8063
 11
1491.46
 21
1668.9688
  0
LINE
  8
0-2
  6
CONTINUOUS
 62
    3
 10
1491.46
 20
1668.9688
 11
1492.3031
 21
1670.3155
  0
LINE
  8
0-2
  6
CONTINUOUS
 62
    3
 10
1492.3031
 20
1670.3155
 11
1492.9243
 21
1671.8055
  0
LINE
  8
0-2
  6
CONTINUOUS
 62
    3
 10
1492.9243
 20
1671.8055
 11
1493.3048
 21
1673.3935
  0
LINE
  8
0-2
  6
CONTINUOUS
 62
    3
 10
1493.3048
 20
1673.3935
 11
1493.4329
 21
1675.0313
  0
LINE
  8
0-2
  6
CONTINUOUS
 62
    3
 10
1493.4329
 20
1675.0313
 11
1493.3048
 21
1676.6691
  0
LINE
  8
0-2
  6
CONTINUOUS
 62
    3
 10
1493.3048
 20
1676.6691
 11
1492.9243
 21
1678.2571
  0
LINE
  8
0-2
  6
CONTINUOUS
 62
    3
 10
1492.9243
 20
1678.2571
 11
1492.3031
 21
1679.7471
  0
LINE
  8
0-2
  6
CONTINUOUS
 62
    3
 10
1492.3031
 20
1679.7471
 11
1491.46
 21
1681.0938
  0
LINE
  8
0-2
  6
CONTINUOUS
 62
    3
 10
1491.46
 20
1681.0938
 11
1490.4206
 21
1682.2563
  0
LINE
  8
0-2
  6
CONTINUOUS
 62
    3
 10
1490.4206
 20
1682.2563
 11
1489.2165
 21
1683.1993
  0
LINE
  8
0-2
  6
CONTINUOUS
 62
    3
 10
1489.2165
 20
1683.1993
 11
1487.8843
 21
1683.8941
  0
LINE
  8
0-2
  6
CONTINUOUS
 62
    3
 10
1487.8843
 20
1683.8941
 11
1486.4644
 21
1684.3196
  0
LINE
  8
0-2
  6
CONTINUOUS
 62
    3
 10
1486.4644
 20
1684.3196
 11
1485.0001
 21
1684.4629
  0
TEXT
  8
0-d
 10
259.99975
 20
167.50018
 40
25
 41
1
 50
0
  1
図
  0
TEXT
  8
0-d
 10
259.99975
 20
107.50023
 40
25
 41
1
 50
0
  1
番
  0
TEXT
  8
0-d
 10
660.0006
 20
167.50018
 40
25
 41
1
 50
0
  1
承
  0
TEXT
  8
0-d
 10
660.0006
 20
107.50023
 40
25
 41
1
 50
0
  1
認
  0
TEXT
  8
0-d
 10
1025.0003
 20
247.50021
 40
25
 41
1
 50
0
  1
尺
  0
TEXT
  8
0-d
 10
1025.0003
 20
207.50007
 40
25
 41
1
 50
0.0000762
  1
度
  0
TEXT
  8
0-d
 10
860.00028
 20
167.50018
 40
25
 41
1
 50
0
  1
製
  0
TEXT
  8
0-d
 10
860.00028
 20
107.50023
 40
25
 41
1
 50
0
  1
図
  0
TEXT
  8
0-d
 10
1560.0001
 20
247.50021
 40
25
 41
1
 50
0
  1
日
  0
TEXT
  8
0-d
 10
1560.0001
 20
207.50007
 40
25
 41
1
 50
0.0000762
  1
付
  0
TEXT
  8
0-d
 10
1116.4263
 20
173.48254
 40
20
 41
1
 50
0
  1
株式
  0
TEXT
  8
0-d
 10
1116.4263
 20
151.85209
 40
20
 41
1
 50
0.0000152
  1
会社
  0
TEXT
  8
0-d
 10
1179.2248
 20
153.2474
 40
40
 41
1
 50
0
  1
スズキベンチレーター
  0
TEXT
  8
0-d
 10
1242.9183
 20
104.02444
 40
20
 41
1
 50
0
  1
TEL(054)296-7000  FAX(054)296-7001
  0
TEXT
  8
0-d
 10
1089.349
 20
220.10095
 40
40
 41
1
 50
0
  1
１／１０
  0
TEXT
  8
0-8
 10
980.45572
 20
2582.6923
 40
30
 41
1
 50
0
  1
860φ
  0
TEXT
  8
0-8
 10
452.86042
 20
1827.8025
 40
30
 41
1
 50
90
  1
1,030
  0
TEXT
  8
0-8
 10
445.45047
 20
1348.9696
 40
30
 41
1
 50
90
  1
60
  0
TEXT
  8
0-d
 10
313.45925
 20
150.30237
 40
30
 41
1
 50
0
  1
50-C10b
  0
TEXT
  8
0-8
 10
994.18925
 20
1200.946
 40
30
 41
1
 50
0
  1
720x720
  0
TEXT
  8
0-d
 10
264.45945
 20
2794.1893
 40
50
 41
1
 50
0
  1
ＡＳ－５００　自然回転  架台型断面
  0
TEXT
  8
0-d
 10
285.67572
 20
225.81111
 40
30
 41
1
 50
0
  1
ＡＳ－５００　自然回転  架台型断面
  0
TEXT
  8
0-d
 10
1240.6792
 20
128.64619
 40
20
 41
1
 50
0
  1
〒421-2114　静岡市葵区安倍口新田１５２番地
  0
POINT
  8
0-8
 62
    2
 10
625.00023
 20
2567.7089
  0
POINT
  8
0-8
 62
    2
 10
1485.0001
 20
2567.7089
  0
POINT
  8
0-8
 62
    2
 10
460.45039
 20
1399.5939
  0
POINT
  8
0-8
 62
    2
 10
460.45039
 20
2429.5939
  0
POINT
  8
0-8
 62
    2
 10
460.45039
 20
1399.5946
  0
POINT
  8
0-8
 62
    2
 10
460.45039
 20
1339.5947
  0
POINT
  8
0-8
 62
    2
 10
695.00022
 20
1189.5939
  0
POINT
  8
0-8
 62
    2
 10
1415.0001
 20
1189.5939
  0
ENDSEC
  0
EOF
