  0
SECTION
  2
HEADER
  9
$EXTMIN
 10
0
 20
0
  9
$EXTMAX
 10
4200
 20
2970
  0
ENDSEC
  0
SECTION
  2
TABLES
  0
TABLE
  2
LTYPE
 70
     9
  0
LTYPE
  2
CONTINUOUS
 70
    64
  3
実線
 72
    65
 73
     0
 40
0.0
  0
LTYPE
  2
DASHED1
 70
    64
  3
--  --  --  --  --  --  --  --  
 72
    65
 73
     2
 40
2.5
 49
1.25
 49
-1.25
  0
LTYPE
  2
DASHED2
 70
    64
  3
----    ----    ----    ----    
 72
    65
 73
     2
 40
5.0
 49
2.5
 49
-2.5
  0
LTYPE
  2
DASHED3
 70
    64
  3
------  ------  ------  ------  
 72
    65
 73
     2
 40
5.0
 49
3.75
 49
-1.25
  0
LTYPE
  2
CENTER1
 70
    64
  3
----- - ----- - ----- - ----- - 
 72
    65
 73
     4
 40
10.0
 49
6.25
 49
-1.25
 49
1.25
 49
-1.25
  0
LTYPE
  2
CENTER2
 70
    64
  3
----------  --  ----------  --  
 72
    65
 73
     4
 40
20.0
 49
12.5
 49
-2.5
 49
2.5
 49
-2.5
  0
LTYPE
  2
PHANTOM1
 70
    64
  3
--- - - --- - - --- - - --- - - 
 72
    65
 73
     6
 40
10.0
 49
3.25
 49
-1.25
 49
1.25
 49
-1.25
 49
1.25
 49
-1.25
  0
LTYPE
  2
PHANTOM2
 70
    64
  3
--------  -  -  --------  -  -  
 72
    65
 73
     6
 40
20.0
 49
10.0
 49
-2.5
 49
1.25
 49
-2.5
 49
1.25
 49
-2.5
  0
LTYPE
  2
DOT
 70
    64
  3
-   -   -   -   -   -   -   -   
 72
    65
 73
     2
 40
2.5
 49
0.625
 49
-1.875
  0
ENDTAB
  0
TABLE
  2
STYLE
 70
    1
  0
STYLE
  2
STANDARD
 70
    64
 40
0.0
 41
1.0
 42
0.0
 50
0.0
 71
     0
  3
TXT
  4
BIGFONT
  0
ENDTAB
  0
TABLE
  2
LAYER
 70
    3
  0
LAYER
  2
0-2
 70
   64
 62
    7
  6
CONTINUOUS
  0
LAYER
  2
0-d
 70
   64
 62
    7
  6
CONTINUOUS
  0
LAYER
  2
ADD_LINE
 70
   64
 62
    7
  6
CONTINUOUS
  0
ENDTAB
  0
ENDSEC
  0
SECTION
  2
ENTITIES
  0
LINE
  8
0-d
  6
CONTINUOUS
 62
    7
 10
290.0001
 20
100.00008
 11
290.0001
 21
200.00017
  0
LINE
  8
0-d
  6
CONTINUOUS
 62
    7
 10
690.0002
 20
100.00008
 11
690.0002
 21
200.00017
  0
LINE
  8
0-d
  6
CONTINUOUS
 62
    7
 10
1055.0001
 20
200.00017
 11
1055.0001
 21
280.00019
  0
LINE
  8
0-d
  6
CONTINUOUS
 62
    7
 10
854.9997
 20
100.00008
 11
854.9997
 21
200.00017
  0
LINE
  8
0-d
  6
CONTINUOUS
 62
    7
 10
890.00013
 20
100.00008
 11
890.00013
 21
200.00017
  0
LINE
  8
0-d
  6
CONTINUOUS
 62
    7
 10
1590.0002
 20
200.00017
 11
1590.0002
 21
280.00019
  0
LINE
  8
0-d
  6
CONTINUOUS
 62
    7
 10
1855.0003
 20
280.00019
 11
1855.0003
 21
100.00008
  0
LINE
  8
0-d
  6
CONTINUOUS
 62
    7
 10
1020
 20
200.00017
 11
1020
 21
280.00019
  0
LINE
  8
0-d
  6
CONTINUOUS
 62
    7
 10
1555.0003
 20
200.00017
 11
1555.0003
 21
280.00019
  0
LINE
  8
0-d
  6
CONTINUOUS
 62
    4
 10
1249.9636
 20
1565.992
 11
1379.3155
 21
1491.3106
  0
LINE
  8
0-d
  6
CONTINUOUS
 62
    7
 10
254.99974
 20
100.00008
 11
254.99974
 21
280.00019
  0
LINE
  8
0-d
  6
CONTINUOUS
 62
    7
 10
254.99974
 20
100.00008
 11
1855.0003
 21
100.00008
  0
LINE
  8
0-d
  6
CONTINUOUS
 62
    7
 10
254.99974
 20
200.00017
 11
1855.0003
 21
200.00017
  0
LINE
  8
0-d
  6
CONTINUOUS
 62
    7
 10
250.00004
 20
2757.7011
 11
1850.0001
 21
2757.7011
  0
LINE
  8
0-d
  6
CONTINUOUS
 62
    7
 10
250.00004
 20
2767.7016
 11
1850.0001
 21
2767.7016
  0
LINE
  8
0-d
  6
CONTINUOUS
 62
    7
 10
655.00033
 20
100.00008
 11
655.00033
 21
200.00017
  0
LINE
  8
0-d
  6
CONTINUOUS
 62
    4
 10
1379.3155
 20
1491.3106
 11
1408.0558
 21
1491.3106
  0
LINE
  8
0-d
  6
CONTINUOUS
 62
    7
 10
254.99974
 20
280.00019
 11
1855.0003
 21
280.00019
  0
LINE
  8
0-d
  6
CONTINUOUS
 62
    7
 10
1055.0001
 20
280.00019
 11
1055.0001
 21
100.00008
  0
LINE
  8
0-2
  6
DASHED3
 62
    3
 10
1055.0001
 20
1565.0507
 11
1312.5001
 21
1565.0507
  0
LINE
  8
0-2
  6
DASHED1
 62
    3
 10
1139.3323
 20
2028.8802
 11
1055.0001
 21
2028.8802
  0
LINE
  8
0-2
  6
CONTINUOUS
 62
    3
 10
1296.0432
 20
1714.8686
 11
1283.3291
 21
1740.1679
  0
LINE
  8
0-2
  6
CONTINUOUS
 62
    3
 10
1345.9496
 20
1790.7687
 11
1295.35
 21
1790.7687
  0
LINE
  8
0-2
  6
CONTINUOUS
 62
    3
 10
1257.4002
 20
1790.7687
 11
1206.8
 21
1790.7687
  0
LINE
  8
0-2
  6
CONTINUOUS
 62
    3
 10
1073.502
 20
1740.1679
 11
1074.5793
 21
1714.8686
  0
LINE
  8
0-2
  6
CONTINUOUS
 62
    3
 10
1099.186
 20
1714.8686
 11
1097.1557
 21
1740.1679
  0
LINE
  8
0-2
  6
CONTINUOUS
 62
    3
 10
1271.4365
 20
1714.8686
 11
1260.4551
 21
1740.1679
  0
LINE
  8
0-2
  6
CONTINUOUS
 62
    3
 10
1246.8289
 20
1714.8686
 11
1237.4398
 21
1740.1679
  0
LINE
  8
0-2
  6
CONTINUOUS
 62
    3
 10
1345.9496
 20
2057.3912
 11
1295.35
 21
2057.3912
  0
LINE
  8
0-2
  6
CONTINUOUS
 62
    3
 10
1257.4002
 20
2057.3912
 11
1257.4002
 21
1790.7687
  0
LINE
  8
0-2
  6
CONTINUOUS
 62
    3
 10
1345.9496
 20
2057.3912
 11
1345.9496
 21
1790.7687
  0
LINE
  8
0-2
  6
CONTINUOUS
 62
    3
 10
1409.2001
 20
2133.2914
 11
1055.0001
 21
2133.2914
  0
LINE
  8
0-2
  6
CONTINUOUS
 62
    3
 10
1409.2001
 20
2145.9412
 11
1055.0001
 21
2145.9412
  0
LINE
  8
0-2
  6
CONTINUOUS
 62
    3
 10
1168.8499
 20
1790.7687
 11
1118.2502
 21
1790.7687
  0
LINE
  8
0-2
  6
CONTINUOUS
 62
    3
 10
1257.4002
 20
2057.3912
 11
1206.8
 21
2057.3912
  0
LINE
  8
0-2
  6
CONTINUOUS
 62
    3
 10
1168.8499
 20
2057.3912
 11
1118.2502
 21
2057.3912
  0
LINE
  8
0-2
  6
CONTINUOUS
 62
    3
 10
1168.8499
 20
2057.3912
 11
1168.8499
 21
1790.7687
  0
LINE
  8
0-2
  6
CONTINUOUS
 62
    3
 10
1123.7931
 20
1714.8686
 11
1120.7442
 21
1740.1679
  0
LINE
  8
0-2
  6
CONTINUOUS
 62
    3
 10
1197.6146
 20
1714.8686
 11
1191.0488
 21
1740.1679
  0
LINE
  8
0-2
  6
CONTINUOUS
 62
    3
 10
1222.2217
 20
1714.8686
 11
1214.2997
 21
1740.1679
  0
LINE
  8
0-2
  6
CONTINUOUS
 62
    3
 10
1148.4005
 20
1714.8686
 11
1144.2613
 21
1740.1679
  0
LINE
  8
0-2
  6
CONTINUOUS
 62
    3
 10
1173.0079
 20
1714.8686
 11
1167.6991
 21
1740.1679
  0
LINE
  8
0-2
  6
CONTINUOUS
 62
    3
 10
1386.9378
 20
2288.113
 11
1467.8985
 21
2193.7929
  0
LINE
  8
0-2
  6
CONTINUOUS
 62
    3
 10
1451.4294
 20
2193.7929
 11
1373.6984
 21
2288.113
  0
LINE
  8
0-2
  6
CONTINUOUS
 62
    3
 10
1392.3663
 20
2288.113
 11
1400.7669
 21
2288.113
  0
LINE
  8
0-2
  6
CONTINUOUS
 62
    3
 10
1474.6504
 20
2193.7929
 11
1392.3663
 21
2288.113
  0
LINE
  8
0-2
  6
CONTINUOUS
 62
    3
 10
1348.1315
 20
2288.113
 11
1365.9179
 21
2288.113
  0
LINE
  8
0-2
  6
CONTINUOUS
 62
    3
 10
1419.627
 20
2193.7929
 11
1348.1315
 21
2288.113
  0
LINE
  8
0-2
  6
CONTINUOUS
 62
    3
 10
1373.6984
 20
2288.113
 11
1386.9378
 21
2288.113
  0
LINE
  8
0-2
  6
CONTINUOUS
 62
    3
 10
1365.9179
 20
2288.113
 11
1441.7519
 21
2193.7929
  0
LINE
  8
0-2
  6
CONTINUOUS
 62
    3
 10
1485.1003
 20
2193.7929
 11
1400.7669
 21
2288.113
  0
LINE
  8
0-2
  6
CONTINUOUS
 62
    3
 10
969.33825
 20
2288.113
 11
948.44517
 21
2193.7929
  0
LINE
  8
0-2
  6
CONTINUOUS
 62
    3
 10
969.44663
 20
2193.7929
 11
986.22206
 21
2288.113
  0
LINE
  8
0-2
  6
CONTINUOUS
 62
    3
 10
907.26252
 20
2193.7929
 11
936.2308
 21
2288.113
  0
LINE
  8
0-2
  6
CONTINUOUS
 62
    3
 10
969.33825
 20
2288.113
 11
936.2308
 21
2288.113
  0
LINE
  8
0-2
  6
CONTINUOUS
 62
    3
 10
1037.7013
 20
2288.113
 11
1033.4825
 21
2193.7929
  0
LINE
  8
0-2
  6
CONTINUOUS
 62
    3
 10
1055.0001
 20
2288.113
 11
1037.7013
 21
2288.113
  0
LINE
  8
0-2
  6
CONTINUOUS
 62
    3
 10
1020.4446
 20
2288.113
 11
986.22206
 21
2288.113
  0
LINE
  8
0-2
  6
CONTINUOUS
 62
    3
 10
1020.4446
 20
2288.113
 11
1012.0166
 21
2193.7929
  0
LINE
  8
0-2
  6
CONTINUOUS
 62
    3
 10
1316.2197
 20
2288.113
 11
1338.1681
 21
2288.113
  0
LINE
  8
0-2
  6
CONTINUOUS
 62
    3
 10
808.09359
 20
2061.7449
 11
808.09359
 21
1797.6484
  0
LINE
  8
0-2
  6
CONTINUOUS
 62
    3
 10
848.27689
 20
1797.6484
 11
808.09359
 21
1810.5019
  0
LINE
  8
0-2
  6
CONTINUOUS
 62
    3
 10
744.91032
 20
1797.6484
 11
690.3731
 21
1820.5127
  0
LINE
  8
0-2
  6
CONTINUOUS
 62
    3
 10
791.2266
 20
2061.7449
 11
791.2266
 21
1797.6484
  0
LINE
  8
0-2
  6
CONTINUOUS
 62
    3
 10
1419.627
 20
2061.7449
 11
1419.627
 21
1797.6484
  0
LINE
  8
0-2
  6
CONTINUOUS
 62
    3
 10
1485.0998
 20
1665.5994
 11
1400.7669
 21
1571.2795
  0
LINE
  8
0-2
  6
CONTINUOUS
 62
    3
 10
791.2266
 20
1815.8973
 11
776.7974
 21
1820.5127
  0
LINE
  8
0-2
  6
CONTINUOUS
 62
    3
 10
624.90002
 20
1684.4637
 11
624.90002
 21
1778.785
  0
LINE
  8
0-2
  6
CONTINUOUS
 62
    3
 10
969.44663
 20
1797.6484
 11
887.1808
 21
1820.5127
  0
LINE
  8
0-2
  6
CONTINUOUS
 62
    3
 10
969.44663
 20
2061.7449
 11
969.44663
 21
1797.6484
  0
LINE
  8
0-2
  6
CONTINUOUS
 62
    3
 10
887.1808
 20
2061.7449
 11
887.1808
 21
1797.6484
  0
LINE
  8
0-2
  6
CONTINUOUS
 62
    3
 10
1278.6533
 20
2288.113
 11
1304.288
 21
2288.113
  0
LINE
  8
0-2
  6
CONTINUOUS
 62
    3
 10
1012.0166
 20
2061.7449
 11
1012.0166
 21
1797.6484
  0
LINE
  8
0-2
  6
CONTINUOUS
 62
    3
 10
744.91032
 20
2061.7449
 11
744.91032
 21
1797.6484
  0
LINE
  8
0-2
  6
CONTINUOUS
 62
    3
 10
690.3731
 20
2061.7449
 11
690.3731
 21
1797.6484
  0
LINE
  8
0-2
  6
CONTINUOUS
 62
    3
 10
848.27689
 20
2061.7449
 11
848.27689
 21
1797.6484
  0
LINE
  8
0-2
  6
CONTINUOUS
 62
    3
 10
776.7974
 20
2061.7449
 11
776.7974
 21
1797.6484
  0
LINE
  8
0-2
  6
CONTINUOUS
 62
    3
 10
624.90027
 20
1665.5994
 11
709.23345
 21
1571.2795
  0
LINE
  8
0-2
  6
CONTINUOUS
 62
    3
 10
1055.0001
 20
2429.5939
 11
843.6017
 21
2293.0892
  0
LINE
  8
0-2
  6
CONTINUOUS
 62
    3
 10
1485.0998
 20
2174.929
 11
1485.0998
 21
2080.6079
  0
LINE
  8
0-2
  6
CONTINUOUS
 62
    7
 10
635.81979
 20
1399.5939
 11
460.45055
 21
1399.5939
  0
LINE
  8
0-2
  6
CONTINUOUS
 62
    3
 10
717.63428
 20
2288.113
 11
709.23345
 21
2288.113
  0
LINE
  8
0-2
  6
CONTINUOUS
 62
    3
 10
635.3499
 20
2193.7929
 11
717.63428
 21
2288.113
  0
LINE
  8
0-2
  6
CONTINUOUS
 62
    3
 10
1485.0998
 20
2193.7929
 11
1400.7669
 21
2288.113
  0
LINE
  8
0-2
  6
CONTINUOUS
 62
    3
 10
624.90002
 20
2193.7929
 11
709.23345
 21
2288.113
  0
LINE
  8
0-2
  6
CONTINUOUS
 62
    3
 10
624.90002
 20
2174.929
 11
624.90002
 21
2080.6079
  0
LINE
  8
0-2
  6
CONTINUOUS
 62
    7
 10
624.90002
 20
2567.7091
 11
624.90002
 21
2343.9488
  0
LINE
  8
0-2
  6
CONTINUOUS
 62
    3
 10
624.90126
 20
1778.7848
 11
624.90027
 21
1684.463
  0
LINE
  8
0-2
  6
CONTINUOUS
 62
    7
 10
624.90002
 20
2567.7091
 11
1485.1003
 21
2567.7091
  0
LINE
  8
0-2
  6
CONTINUOUS
 62
    7
 10
1485.1003
 20
2343.9488
 11
1485.1003
 21
2567.7091
  0
LINE
  8
0-2
  6
CONTINUOUS
 62
    3
 10
624.90002
 20
2174.929
 11
1485.1011
 21
2174.929
  0
LINE
  8
0-2
  6
CONTINUOUS
 62
    3
 10
624.90002
 20
2193.7929
 11
1485.1011
 21
2193.7929
  0
LINE
  8
0-2
  6
CONTINUOUS
 62
    3
 10
797.50019
 20
1571.2795
 11
797.49896
 21
1475.0507
  0
LINE
  8
0-2
  6
CONTINUOUS
 62
    3
 10
1485.1011
 20
1778.7848
 11
1485.1003
 21
1684.463
  0
LINE
  8
0-2
  6
CONTINUOUS
 62
    3
 10
723.06206
 20
2288.113
 11
642.10179
 21
2193.7929
  0
LINE
  8
0-2
  6
CONTINUOUS
 62
    3
 10
844.9886
 20
2288.113
 11
793.76639
 21
2193.7929
  0
LINE
  8
0-2
  6
CONTINUOUS
 62
    3
 10
873.75546
 20
2288.113
 11
844.9886
 21
2288.113
  0
LINE
  8
0-2
  6
CONTINUOUS
 62
    3
 10
831.34699
 20
2288.113
 11
805.71223
 21
2288.113
  0
LINE
  8
0-2
  6
CONTINUOUS
 62
    3
 10
776.7974
 20
2193.7929
 11
831.34699
 21
2288.113
  0
LINE
  8
0-2
  6
CONTINUOUS
 62
    3
 10
920.08684
 20
2288.113
 11
888.81094
 21
2288.113
  0
LINE
  8
0-2
  6
CONTINUOUS
 62
    3
 10
887.1808
 20
2193.7929
 11
920.08684
 21
2288.113
  0
LINE
  8
0-2
  6
CONTINUOUS
 62
    3
 10
829.54909
 20
2193.7929
 11
873.75546
 21
2288.113
  0
LINE
  8
0-2
  6
CONTINUOUS
 62
    3
 10
888.81094
 20
2288.113
 11
848.27689
 21
2193.7929
  0
LINE
  8
0-2
  6
CONTINUOUS
 62
    3
 10
805.71223
 20
2288.113
 11
744.91032
 21
2193.7929
  0
LINE
  8
0-2
  6
CONTINUOUS
 62
    3
 10
744.08239
 20
2288.113
 11
668.24826
 21
2193.7929
  0
LINE
  8
0-2
  6
CONTINUOUS
 62
    3
 10
761.86886
 20
2288.113
 11
744.08239
 21
2288.113
  0
LINE
  8
0-2
  6
CONTINUOUS
 62
    3
 10
658.57064
 20
2193.7929
 11
736.30189
 21
2288.113
  0
LINE
  8
0-2
  6
CONTINUOUS
 62
    3
 10
736.30189
 20
2288.113
 11
723.06206
 21
2288.113
  0
LINE
  8
0-2
  6
CONTINUOUS
 62
    3
 10
793.78018
 20
2288.113
 11
771.83252
 21
2288.113
  0
LINE
  8
0-2
  6
CONTINUOUS
 62
    3
 10
730.06838
 20
2193.7929
 11
793.78018
 21
2288.113
  0
LINE
  8
0-2
  6
CONTINUOUS
 62
    3
 10
690.3731
 20
2193.7929
 11
761.86886
 21
2288.113
  0
LINE
  8
0-2
  6
CONTINUOUS
 62
    3
 10
771.83252
 20
2288.113
 11
702.76686
 21
2193.7929
  0
LINE
  8
0-2
  6
CONTINUOUS
 62
    3
 10
624.90027
 20
1684.4633
 11
1055.0001
 21
1684.4633
  0
LINE
  8
0-2
  6
CONTINUOUS
 62
    3
 10
624.90002
 20
1665.5994
 11
1055.0001
 21
1665.5994
  0
LINE
  8
0-2
  6
CONTINUOUS
 62
    3
 10
1348.1315
 20
1571.2798
 11
1365.9179
 21
1571.2798
  0
LINE
  8
0-2
  6
CONTINUOUS
 62
    3
 10
1338.1681
 20
1571.2798
 11
1407.233
 21
1665.5999
  0
LINE
  8
0-2
  6
CONTINUOUS
 62
    3
 10
1055.0001
 20
1714.8686
 11
1320.6503
 21
1714.8686
  0
LINE
  8
0-2
  6
CONTINUOUS
 62
    3
 10
624.90126
 20
1778.7848
 11
1055.0001
 21
1778.7848
  0
LINE
  8
0-2
  6
CONTINUOUS
 62
    3
 10
1320.6511
 20
1665.5994
 11
1485.1013
 21
1665.5994
  0
LINE
  8
0-2
  6
CONTINUOUS
 62
    3
 10
1320.6511
 20
1684.4633
 11
1485.1013
 21
1684.4633
  0
LINE
  8
0-2
  6
CONTINUOUS
 62
    3
 10
1373.6984
 20
1571.2798
 11
1386.9378
 21
1571.2798
  0
LINE
  8
0-2
  6
CONTINUOUS
 62
    7
 10
460.45055
 20
1399.5939
 11
460.45055
 21
2429.5939
  0
LINE
  8
0-2
  6
CONTINUOUS
 62
    7
 10
635.81979
 20
1399.5946
 11
460.45055
 21
1399.5946
  0
LINE
  8
0-2
  6
CONTINUOUS
 62
    3
 10
881.21874
 20
1571.2795
 11
881.21874
 21
1475.0507
  0
LINE
  8
0-2
  6
CONTINUOUS
 62
    3
 10
847.48551
 20
1571.2795
 11
847.48551
 21
1475.0507
  0
LINE
  8
0-2
  6
CONTINUOUS
 62
    7
 10
927.40413
 20
2429.5939
 11
460.45055
 21
2429.5939
  0
LINE
  8
0-2
  6
CONTINUOUS
 62
    3
 10
1392.3663
 20
1571.2798
 11
1400.7669
 21
1571.2798
  0
LINE
  8
0-2
  6
CONTINUOUS
 62
    7
 10
797.50019
 20
1222.4395
 11
797.50019
 21
1379.2944
  0
LINE
  8
0-2
  6
CONTINUOUS
 62
    7
 10
1312.5009
 20
1379.2944
 11
1312.5009
 21
1222.4395
  0
LINE
  8
0-2
  6
CONTINUOUS
 62
    3
 10
624.90027
 20
1665.5994
 11
1055.0001
 21
1665.5994
  0
LINE
  8
0-2
  6
CONTINUOUS
 62
    3
 10
1304.288
 20
2288.113
 11
1325.8104
 21
2254.7257
  0
LINE
  8
0-2
  6
CONTINUOUS
 62
    3
 10
1348.8001
 20
2239.8813
 11
1316.2197
 21
2288.113
  0
LINE
  8
0-2
  6
CONTINUOUS
 62
    3
 10
1409.2001
 20
1797.6479
 11
1485.1025
 21
1797.6479
  0
LINE
  8
0-2
  6
CONTINUOUS
 62
    3
 10
624.90126
 20
1797.6479
 11
1055.0001
 21
1797.6479
  0
LINE
  8
0-2
  6
CONTINUOUS
 62
    3
 10
1051.0703
 20
2207.3981
 11
1399.1051
 21
2207.3981
  0
LINE
  8
0-2
  6
CONTINUOUS
 62
    3
 10
1409.2001
 20
2133.2914
 11
1409.2001
 21
1714.8686
  0
LINE
  8
0-2
  6
CONTINUOUS
 62
    3
 10
1338.1681
 20
2288.113
 11
1395.6261
 21
2209.6446
  0
LINE
  8
0-2
  6
CONTINUOUS
 62
    3
 10
1055.0001
 20
2429.5939
 11
1399.1051
 21
2207.3981
  0
LINE
  8
0-2
  6
CONTINUOUS
 62
    3
 10
1409.2001
 20
1778.7848
 11
1485.1025
 21
1778.7848
  0
LINE
  8
0-2
  6
CONTINUOUS
 62
    3
 10
1409.2001
 20
1702.2189
 11
1055.0001
 21
1702.2189
  0
LINE
  8
0-2
  6
CONTINUOUS
 62
    3
 10
624.90002
 20
2080.6079
 11
1055.0001
 21
2080.6079
  0
LINE
  8
0-2
  6
CONTINUOUS
 62
    3
 10
1055.0001
 20
1809.0801
 11
1012.0166
 21
1820.5127
  0
LINE
  8
0-2
  6
CONTINUOUS
 62
    3
 10
1409.2001
 20
1714.8686
 11
1055.0001
 21
1714.8686
  0
LINE
  8
0-2
  6
CONTINUOUS
 62
    3
 10
1312.5022
 20
1702.2189
 11
1312.4999
 21
1475.0507
  0
LINE
  8
0-2
  6
CONTINUOUS
 62
    3
 10
624.90002
 20
2061.7449
 11
1055.0001
 21
2061.7449
  0
LINE
  8
0-2
  6
CONTINUOUS
 62
    3
 10
1409.2001
 20
2080.6079
 11
1485.1011
 21
2080.6079
  0
LINE
  8
0-2
  6
CONTINUOUS
 62
    3
 10
1409.2001
 20
2061.7449
 11
1485.1011
 21
2061.7449
  0
LINE
  8
0-2
  6
CONTINUOUS
 62
    3
 10
730.06838
 20
1665.5994
 11
793.78018
 21
1571.2795
  0
LINE
  8
0-2
  6
CONTINUOUS
 62
    3
 10
805.71223
 20
1571.2795
 11
744.91032
 21
1665.5994
  0
LINE
  8
0-2
  6
CONTINUOUS
 62
    3
 10
771.83252
 20
1571.2795
 11
702.76686
 21
1665.5994
  0
LINE
  8
0-2
  6
CONTINUOUS
 62
    3
 10
793.78018
 20
1571.2795
 11
771.83252
 21
1571.2795
  0
LINE
  8
0-2
  6
CONTINUOUS
 62
    3
 10
844.9886
 20
1571.2795
 11
793.76639
 21
1665.5994
  0
LINE
  8
0-2
  6
CONTINUOUS
 62
    3
 10
873.75546
 20
1571.2795
 11
844.9886
 21
1571.2795
  0
LINE
  8
0-2
  6
CONTINUOUS
 62
    3
 10
831.34699
 20
1571.2795
 11
805.71223
 21
1571.2795
  0
LINE
  8
0-2
  6
CONTINUOUS
 62
    3
 10
776.7974
 20
1665.5994
 11
831.34699
 21
1571.2795
  0
LINE
  8
0-2
  6
CONTINUOUS
 62
    3
 10
690.3731
 20
1665.5994
 11
761.86886
 21
1571.2795
  0
LINE
  8
0-2
  6
CONTINUOUS
 62
    3
 10
635.3499
 20
1665.5994
 11
717.63428
 21
1571.2795
  0
LINE
  8
0-2
  6
CONTINUOUS
 62
    3
 10
723.06206
 20
1571.2795
 11
642.10179
 21
1665.5994
  0
LINE
  8
0-2
  6
CONTINUOUS
 62
    3
 10
624.90002
 20
1665.5994
 11
709.23345
 21
1571.2795
  0
LINE
  8
0-2
  6
CONTINUOUS
 62
    3
 10
717.63428
 20
1571.2795
 11
709.23345
 21
1571.2795
  0
LINE
  8
0-2
  6
CONTINUOUS
 62
    3
 10
744.08239
 20
1571.2795
 11
668.24826
 21
1665.5994
  0
LINE
  8
0-2
  6
CONTINUOUS
 62
    3
 10
761.86886
 20
1571.2795
 11
744.08239
 21
1571.2795
  0
LINE
  8
0-2
  6
CONTINUOUS
 62
    3
 10
658.57064
 20
1665.5994
 11
736.30189
 21
1571.2795
  0
LINE
  8
0-2
  6
CONTINUOUS
 62
    3
 10
736.30189
 20
1571.2795
 11
723.06206
 21
1571.2795
  0
LINE
  8
0-2
  6
CONTINUOUS
 62
    3
 10
888.81094
 20
1571.2795
 11
848.27689
 21
1665.5994
  0
LINE
  8
0-2
  6
CONTINUOUS
 62
    3
 10
1474.6504
 20
1665.5994
 11
1392.3663
 21
1571.2795
  0
LINE
  8
0-2
  6
CONTINUOUS
 62
    3
 10
1386.9378
 20
1571.2795
 11
1467.8985
 21
1665.5994
  0
LINE
  8
0-2
  6
CONTINUOUS
 62
    3
 10
1055.0001
 20
1571.2795
 11
1037.7013
 21
1571.2795
  0
LINE
  8
0-2
  6
CONTINUOUS
 62
    3
 10
1485.1003
 20
1665.5994
 11
1400.7669
 21
1571.2795
  0
LINE
  8
0-2
  6
CONTINUOUS
 62
    3
 10
1419.627
 20
1665.5994
 11
1348.1315
 21
1571.2795
  0
LINE
  8
0-2
  6
CONTINUOUS
 62
    3
 10
829.54909
 20
1665.5994
 11
873.75546
 21
1571.2795
  0
LINE
  8
0-2
  6
CONTINUOUS
 62
    3
 10
1451.4294
 20
1665.5994
 11
1373.6984
 21
1571.2795
  0
LINE
  8
0-2
  6
CONTINUOUS
 62
    3
 10
1365.9179
 20
1571.2795
 11
1441.7519
 21
1665.5994
  0
LINE
  8
0-2
  6
CONTINUOUS
 62
    3
 10
1037.7013
 20
1571.2795
 11
1033.4825
 21
1665.5994
  0
LINE
  8
0-2
  6
CONTINUOUS
 62
    3
 10
907.26252
 20
1665.5994
 11
936.2308
 21
1571.2795
  0
LINE
  8
0-2
  6
CONTINUOUS
 62
    3
 10
969.33825
 20
1571.2795
 11
936.2308
 21
1571.2795
  0
LINE
  8
0-2
  6
CONTINUOUS
 62
    3
 10
920.08684
 20
1571.2795
 11
888.81094
 21
1571.2795
  0
LINE
  8
0-2
  6
CONTINUOUS
 62
    3
 10
887.1808
 20
1665.5994
 11
920.08684
 21
1571.2795
  0
LINE
  8
0-2
  6
CONTINUOUS
 62
    3
 10
1020.4446
 20
1571.2795
 11
986.22206
 21
1571.2795
  0
LINE
  8
0-2
  6
CONTINUOUS
 62
    3
 10
1020.4446
 20
1571.2795
 11
1012.0166
 21
1665.5994
  0
LINE
  8
0-2
  6
CONTINUOUS
 62
    3
 10
969.33825
 20
1571.2795
 11
948.44517
 21
1665.5994
  0
LINE
  8
0-2
  6
CONTINUOUS
 62
    3
 10
969.44663
 20
1665.5994
 11
986.22206
 21
1571.2795
  0
LINE
  8
0-2
  6
CONTINUOUS
 62
    3
 10
1298.5482
 20
1740.1679
 11
1055.0001
 21
1740.1679
  0
LINE
  8
0-2
  6
CONTINUOUS
 62
    3
 10
1379.9319
 20
1665.5999
 11
1316.2197
 21
1571.2798
  0
LINE
  8
0-2
  6
CONTINUOUS
 62
    3
 10
1312.5001
 20
1584.0188
 11
1365.09
 21
1665.5999
  0
LINE
  8
0-2
  6
CONTINUOUS
 62
    3
 10
1316.0504
 20
1572.0359
 11
1315.8439
 21
1572.7439
  0
LINE
  8
0-2
  6
CONTINUOUS
 62
    3
 10
1315.8439
 20
1572.7439
 11
1315.6023
 21
1573.4045
  0
LINE
  8
0-2
  6
CONTINUOUS
 62
    3
 10
1312.5001
 20
1571.2798
 11
1338.1681
 21
1571.2798
  0
LINE
  8
0-2
  6
CONTINUOUS
 62
    3
 10
1316.2197
 20
1571.2801
 11
1316.0504
 21
1572.0359
  0
LINE
  8
0-2
  6
CONTINUOUS
 62
    3
 10
1312.5
 20
1456.1866
 11
1312.5009
 21
1418.4568
  0
LINE
  8
0-2
  6
CONTINUOUS
 62
    3
 10
797.50019
 20
1399.5939
 11
1312.5003
 21
1399.5939
  0
LINE
  8
0-2
  6
CONTINUOUS
 62
    7
 10
797.50019
 20
1222.4395
 11
1312.5001
 21
1222.4395
  0
LINE
  8
0-2
  6
CONTINUOUS
 62
    3
 10
797.49896
 20
1475.0499
 11
1312.5003
 21
1475.0499
  0
LINE
  8
0-2
  6
CONTINUOUS
 62
    3
 10
797.49896
 20
1465.0499
 11
1312.5003
 21
1465.0499
  0
LINE
  8
0-2
  6
CONTINUOUS
 62
    3
 10
1312.502
 20
1465.0499
 11
1312.5
 21
1409.5939
  0
LINE
  8
0-2
  6
CONTINUOUS
 62
    3
 10
797.50019
 20
1409.5939
 11
1312.5003
 21
1409.5939
  0
LINE
  8
0-2
  6
CONTINUOUS
 62
    3
 10
797.49858
 20
1465.0499
 11
797.50044
 21
1409.5939
  0
LINE
  8
0-2
  6
CONTINUOUS
 62
    3
 10
1315.0186
 20
1574.5828
 11
1314.6796
 21
1575.1022
  0
LINE
  8
0-2
  6
CONTINUOUS
 62
    3
 10
1314.6796
 20
1575.1022
 11
1314.3119
 21
1575.5751
  0
LINE
  8
0-2
  6
CONTINUOUS
 62
    3
 10
1315.6023
 20
1573.4045
 11
1315.3264
 21
1574.017
  0
LINE
  8
0-2
  6
CONTINUOUS
 62
    3
 10
1315.3264
 20
1574.017
 11
1315.0186
 21
1574.5828
  0
LINE
  8
0-2
  6
CONTINUOUS
 62
    3
 10
1314.3119
 20
1575.5751
 11
1313.915
 21
1576.0027
  0
LINE
  8
0-2
  6
CONTINUOUS
 62
    3
 10
1313.0445
 20
1576.7204
 11
1312.5735
 21
1577.012
  0
LINE
  8
0-2
  6
CONTINUOUS
 62
    3
 10
1312.5735
 20
1577.012
 11
1312.4545
 21
1577.0713
  0
LINE
  8
0-2
  6
CONTINUOUS
 62
    3
 10
1313.915
 20
1576.0027
 11
1313.4926
 21
1576.3833
  0
LINE
  8
0-2
  6
CONTINUOUS
 62
    3
 10
1313.4926
 20
1576.3833
 11
1313.0445
 21
1576.7204
  0
LINE
  8
0-2
  6
DASHED1
 62
    3
 10
1312.5001
 20
1714.8686
 11
1139.3323
 21
2028.8802
  0
LINE
  8
0-2
  6
CONTINUOUS
 62
    3
 10
1348.1315
 20
1571.2798
 11
1347.9622
 21
1572.0357
  0
LINE
  8
0-2
  6
CONTINUOUS
 62
    3
 10
1347.9622
 20
1572.0357
 11
1347.7559
 21
1572.7435
  0
LINE
  8
0-2
  6
CONTINUOUS
 62
    3
 10
1347.7559
 20
1572.7435
 11
1347.5141
 21
1573.4043
  0
LINE
  8
0-2
  6
CONTINUOUS
 62
    3
 10
1347.5141
 20
1573.4043
 11
1347.2382
 21
1574.0167
  0
LINE
  8
0-2
  6
CONTINUOUS
 62
    3
 10
1347.2382
 20
1574.0167
 11
1346.9304
 21
1574.5826
  0
LINE
  8
0-2
  6
CONTINUOUS
 62
    3
 10
1346.9304
 20
1574.5826
 11
1346.5914
 21
1575.102
  0
LINE
  8
0-2
  6
CONTINUOUS
 62
    3
 10
1346.5914
 20
1575.102
 11
1346.2237
 21
1575.5748
  0
LINE
  8
0-2
  6
CONTINUOUS
 62
    3
 10
1346.2237
 20
1575.5748
 11
1345.8269
 21
1576.0024
  0
LINE
  8
0-2
  6
CONTINUOUS
 62
    3
 10
1345.8269
 20
1576.0024
 11
1345.4043
 21
1576.3832
  0
LINE
  8
0-2
  6
CONTINUOUS
 62
    3
 10
1345.4043
 20
1576.3832
 11
1344.9563
 21
1576.72
  0
LINE
  8
0-2
  6
CONTINUOUS
 62
    3
 10
1344.9563
 20
1576.72
 11
1344.4855
 21
1577.0117
  0
LINE
  8
0-2
  6
CONTINUOUS
 62
    3
 10
1344.4855
 20
1577.0117
 11
1343.9919
 21
1577.2587
  0
LINE
  8
0-2
  6
CONTINUOUS
 62
    3
 10
1343.9919
 20
1577.2587
 11
1343.4781
 21
1577.4611
  0
LINE
  8
0-2
  6
CONTINUOUS
 62
    3
 10
1343.4781
 20
1577.4611
 11
1342.9451
 21
1577.6209
  0
LINE
  8
0-2
  6
CONTINUOUS
 62
    3
 10
1373.6984
 20
1571.2798
 11
1373.641
 21
1571.9587
  0
LINE
  8
0-2
  6
CONTINUOUS
 62
    3
 10
1373.641
 20
1571.9587
 11
1373.5475
 21
1572.6011
  0
LINE
  8
0-2
  6
CONTINUOUS
 62
    3
 10
1373.5475
 20
1572.6011
 11
1373.4206
 21
1573.2063
  0
LINE
  8
0-2
  6
CONTINUOUS
 62
    3
 10
1373.4206
 20
1573.2063
 11
1373.2644
 21
1573.775
  0
LINE
  8
0-2
  6
CONTINUOUS
 62
    3
 10
1373.2644
 20
1573.775
 11
1373.0822
 21
1574.3055
  0
LINE
  8
0-2
  6
CONTINUOUS
 62
    3
 10
1373.0822
 20
1574.3055
 11
1372.8779
 21
1574.7979
  0
LINE
  8
0-2
  6
CONTINUOUS
 62
    3
 10
1372.8779
 20
1574.7979
 11
1372.655
 21
1575.2535
  0
LINE
  8
0-2
  6
CONTINUOUS
 62
    3
 10
1372.655
 20
1575.2535
 11
1372.4167
 21
1575.6703
  0
LINE
  8
0-2
  6
CONTINUOUS
 62
    3
 10
1372.4167
 20
1575.6703
 11
1372.1678
 21
1576.05
  0
LINE
  8
0-2
  6
CONTINUOUS
 62
    3
 10
1372.1678
 20
1576.05
 11
1371.9112
 21
1576.3901
  0
LINE
  8
0-2
  6
CONTINUOUS
 62
    3
 10
1371.9112
 20
1576.3901
 11
1371.65
 21
1576.6915
  0
LINE
  8
0-2
  6
CONTINUOUS
 62
    3
 10
1371.65
 20
1576.6915
 11
1371.3888
 21
1576.9548
  0
LINE
  8
0-2
  6
CONTINUOUS
 62
    3
 10
1371.3888
 20
1576.9548
 11
1371.131
 21
1577.179
  0
LINE
  8
0-2
  6
CONTINUOUS
 62
    3
 10
1371.131
 20
1577.179
 11
1370.8801
 21
1577.3638
  0
LINE
  8
0-2
  6
CONTINUOUS
 62
    3
 10
1392.3663
 20
1571.2798
 11
1392.2634
 21
1572.1372
  0
LINE
  8
0-2
  6
CONTINUOUS
 62
    3
 10
1392.2634
 20
1572.1372
 11
1392.1546
 21
1572.9218
  0
LINE
  8
0-2
  6
CONTINUOUS
 62
    3
 10
1392.1546
 20
1572.9218
 11
1392.0402
 21
1573.6311
  0
LINE
  8
0-2
  6
CONTINUOUS
 62
    3
 10
1392.0402
 20
1573.6311
 11
1391.9198
 21
1574.2671
  0
LINE
  8
0-2
  6
CONTINUOUS
 62
    3
 10
1391.9198
 20
1574.2671
 11
1391.7932
 21
1574.8288
  0
LINE
  8
0-2
  6
CONTINUOUS
 62
    3
 10
1391.7932
 20
1574.8288
 11
1391.6611
 21
1575.3165
  0
LINE
  8
0-2
  6
CONTINUOUS
 62
    3
 10
1391.6611
 20
1575.3165
 11
1391.5225
 21
1575.7307
  0
LINE
  8
0-2
  6
CONTINUOUS
 62
    3
 10
1391.5225
 20
1575.7307
 11
1391.3778
 21
1576.07
  0
LINE
  8
0-2
  6
CONTINUOUS
 62
    3
 10
1391.3778
 20
1576.07
 11
1391.2273
 21
1576.3352
  0
LINE
  8
0-2
  6
CONTINUOUS
 62
    3
 10
880.65482
 20
1578.9503
 11
880.80923
 21
1578.962
  0
LINE
  8
0-2
  6
CONTINUOUS
 62
    3
 10
880.80923
 20
1578.962
 11
880.96023
 21
1578.9714
  0
LINE
  8
0-2
  6
CONTINUOUS
 62
    3
 10
880.96023
 20
1578.9714
 11
881.10789
 21
1578.9777
  0
LINE
  8
0-2
  6
CONTINUOUS
 62
    3
 10
881.10789
 20
1578.9777
 11
881.25264
 21
1578.9806
  0
LINE
  8
0-2
  6
CONTINUOUS
 62
    3
 10
881.25264
 20
1578.9806
 11
881.39368
 21
1578.9806
  0
LINE
  8
0-2
  6
CONTINUOUS
 62
    3
 10
881.39368
 20
1578.9806
 11
881.53169
 21
1578.9777
  0
LINE
  8
0-2
  6
CONTINUOUS
 62
    3
 10
881.53169
 20
1578.9777
 11
881.66685
 21
1578.9714
  0
LINE
  8
0-2
  6
CONTINUOUS
 62
    3
 10
881.66685
 20
1578.9714
 11
881.79849
 21
1578.962
  0
LINE
  8
0-2
  6
CONTINUOUS
 62
    3
 10
881.79849
 20
1578.962
 11
881.92691
 21
1578.9503
  0
LINE
  8
0-2
  6
CONTINUOUS
 62
    3
 10
761.86886
 20
2288.113
 11
762.0381
 21
2287.357
  0
LINE
  8
0-2
  6
CONTINUOUS
 62
    3
 10
762.0381
 20
2287.357
 11
762.24447
 21
2286.6496
  0
LINE
  8
0-2
  6
CONTINUOUS
 62
    3
 10
762.24447
 20
2286.6496
 11
762.48647
 21
2285.989
  0
LINE
  8
0-2
  6
CONTINUOUS
 62
    3
 10
762.48647
 20
2285.989
 11
762.76211
 21
2285.3763
  0
LINE
  8
0-2
  6
CONTINUOUS
 62
    3
 10
762.76211
 20
2285.3763
 11
763.06993
 21
2284.8099
  0
LINE
  8
0-2
  6
CONTINUOUS
 62
    3
 10
763.06993
 20
2284.8099
 11
763.40867
 21
2284.2908
  0
LINE
  8
0-2
  6
CONTINUOUS
 62
    3
 10
763.40867
 20
2284.2908
 11
763.77686
 21
2283.8182
  0
LINE
  8
0-2
  6
CONTINUOUS
 62
    3
 10
763.77686
 20
2283.8182
 11
764.17302
 21
2283.3908
  0
LINE
  8
0-2
  6
CONTINUOUS
 62
    3
 10
764.17302
 20
2283.3908
 11
764.59614
 21
2283.0098
  0
LINE
  8
0-2
  6
CONTINUOUS
 62
    3
 10
764.59614
 20
2283.0098
 11
765.044
 21
2282.673
  0
LINE
  8
0-2
  6
CONTINUOUS
 62
    3
 10
765.044
 20
2282.673
 11
765.51507
 21
2282.3815
  0
LINE
  8
0-2
  6
CONTINUOUS
 62
    3
 10
765.51507
 20
2282.3815
 11
766.00846
 21
2282.1341
  0
LINE
  8
0-2
  6
CONTINUOUS
 62
    3
 10
766.00846
 20
2282.1341
 11
766.52196
 21
2281.9317
  0
LINE
  8
0-2
  6
CONTINUOUS
 62
    3
 10
766.52196
 20
2281.9317
 11
767.05519
 21
2281.7721
  0
LINE
  8
0-2
  6
CONTINUOUS
 62
    3
 10
736.30189
 20
2288.113
 11
736.35905
 21
2287.4342
  0
LINE
  8
0-2
  6
CONTINUOUS
 62
    3
 10
736.35905
 20
2287.4342
 11
736.45283
 21
2286.7919
  0
LINE
  8
0-2
  6
CONTINUOUS
 62
    3
 10
736.45283
 20
2286.7919
 11
736.57927
 21
2286.1864
  0
LINE
  8
0-2
  6
CONTINUOUS
 62
    3
 10
736.57927
 20
2286.1864
 11
736.7359
 21
2285.618
  0
LINE
  8
0-2
  6
CONTINUOUS
 62
    3
 10
736.7359
 20
2285.618
 11
736.91801
 21
2285.0875
  0
LINE
  8
0-2
  6
CONTINUOUS
 62
    3
 10
736.91801
 20
2285.0875
 11
737.1224
 21
2284.5951
  0
LINE
  8
0-2
  6
CONTINUOUS
 62
    3
 10
737.1224
 20
2284.5951
 11
737.34559
 21
2284.1393
  0
LINE
  8
0-2
  6
CONTINUOUS
 62
    3
 10
737.34559
 20
2284.1393
 11
737.58332
 21
2283.7229
  0
LINE
  8
0-2
  6
CONTINUOUS
 62
    3
 10
737.58332
 20
2283.7229
 11
737.8328
 21
2283.3428
  0
LINE
  8
0-2
  6
CONTINUOUS
 62
    3
 10
737.8328
 20
2283.3428
 11
738.08939
 21
2283.0028
  0
LINE
  8
0-2
  6
CONTINUOUS
 62
    3
 10
738.08939
 20
2283.0028
 11
738.35019
 21
2282.7015
  0
LINE
  8
0-2
  6
CONTINUOUS
 62
    3
 10
738.35019
 20
2282.7015
 11
738.61149
 21
2282.4382
  0
LINE
  8
0-2
  6
CONTINUOUS
 62
    3
 10
738.61149
 20
2282.4382
 11
738.86939
 21
2282.2143
  0
LINE
  8
0-2
  6
CONTINUOUS
 62
    3
 10
738.86939
 20
2282.2143
 11
739.12023
 21
2282.0289
  0
LINE
  8
0-2
  6
CONTINUOUS
 62
    3
 10
717.63428
 20
2288.113
 11
717.73697
 21
2287.2556
  0
LINE
  8
0-2
  6
CONTINUOUS
 62
    3
 10
717.73697
 20
2287.2556
 11
717.8456
 21
2286.4712
  0
LINE
  8
0-2
  6
CONTINUOUS
 62
    3
 10
717.8456
 20
2286.4712
 11
717.96016
 21
2285.762
  0
LINE
  8
0-2
  6
CONTINUOUS
 62
    3
 10
717.96016
 20
2285.762
 11
718.0806
 21
2285.1256
  0
LINE
  8
0-2
  6
CONTINUOUS
 62
    3
 10
718.0806
 20
2285.1256
 11
718.20711
 21
2284.5644
  0
LINE
  8
0-2
  6
CONTINUOUS
 62
    3
 10
718.20711
 20
2284.5644
 11
718.33949
 21
2284.0762
  0
LINE
  8
0-2
  6
CONTINUOUS
 62
    3
 10
718.33949
 20
2284.0762
 11
718.47781
 21
2283.6625
  0
LINE
  8
0-2
  6
CONTINUOUS
 62
    3
 10
718.47781
 20
2283.6625
 11
718.62256
 21
2283.3228
  0
LINE
  8
0-2
  6
CONTINUOUS
 62
    3
 10
718.62256
 20
2283.3228
 11
718.77275
 21
2283.0575
  0
LINE
  8
0-2
  6
CONTINUOUS
 62
    3
 10
793.76639
 20
2288.113
 11
794.02273
 21
2287.3207
  0
LINE
  8
0-2
  6
CONTINUOUS
 62
    3
 10
794.02273
 20
2287.3207
 11
794.32288
 21
2286.5863
  0
LINE
  8
0-2
  6
CONTINUOUS
 62
    3
 10
794.32288
 20
2286.5863
 11
794.6636
 21
2285.9098
  0
LINE
  8
0-2
  6
CONTINUOUS
 62
    3
 10
794.6636
 20
2285.9098
 11
795.04064
 21
2285.2914
  0
LINE
  8
0-2
  6
CONTINUOUS
 62
    3
 10
795.04064
 20
2285.2914
 11
795.45114
 21
2284.7317
  0
LINE
  8
0-2
  6
CONTINUOUS
 62
    3
 10
795.45114
 20
2284.7317
 11
795.89041
 21
2284.2301
  0
LINE
  8
0-2
  6
CONTINUOUS
 62
    3
 10
795.89041
 20
2284.2301
 11
796.35504
 21
2283.7855
  0
LINE
  8
0-2
  6
CONTINUOUS
 62
    3
 10
796.35504
 20
2283.7855
 11
796.84101
 21
2283.3988
  0
LINE
  8
0-2
  6
CONTINUOUS
 62
    3
 10
796.84101
 20
2283.3988
 11
797.34412
 21
2283.0674
  0
LINE
  8
0-2
  6
CONTINUOUS
 62
    3
 10
797.34412
 20
2283.0674
 11
797.85997
 21
2282.7928
  0
LINE
  8
0-2
  6
CONTINUOUS
 62
    3
 10
797.85997
 20
2282.7928
 11
798.38479
 21
2282.5721
  0
LINE
  8
0-2
  6
CONTINUOUS
 62
    3
 10
798.38479
 20
2282.5721
 11
798.91351
 21
2282.4031
  0
LINE
  8
0-2
  6
CONTINUOUS
 62
    3
 10
798.91351
 20
2282.4031
 11
799.44266
 21
2282.2863
  0
LINE
  8
0-2
  6
CONTINUOUS
 62
    3
 10
799.44266
 20
2282.2863
 11
799.96667
 21
2282.2195
  0
LINE
  8
0-2
  6
CONTINUOUS
 62
    3
 10
799.96667
 20
2282.2195
 11
800.48135
 21
2282.1987
  0
LINE
  8
0-2
  6
CONTINUOUS
 62
    3
 10
800.48135
 20
2282.1987
 11
800.98142
 21
2282.2237
  0
LINE
  8
0-2
  6
CONTINUOUS
 62
    3
 10
800.98142
 20
2282.2237
 11
801.46245
 21
2282.291
  0
LINE
  8
0-2
  6
CONTINUOUS
 62
    3
 10
801.46245
 20
2282.291
 11
801.91947
 21
2282.3984
  0
LINE
  8
0-2
  6
CONTINUOUS
 62
    3
 10
801.91947
 20
2282.3984
 11
802.34754
 21
2282.5429
  0
LINE
  8
0-2
  6
CONTINUOUS
 62
    3
 10
1348.1315
 20
2288.113
 11
1347.9622
 21
2287.357
  0
LINE
  8
0-2
  6
CONTINUOUS
 62
    3
 10
1347.9622
 20
2287.357
 11
1347.7559
 21
2286.6496
  0
LINE
  8
0-2
  6
CONTINUOUS
 62
    3
 10
1347.7559
 20
2286.6496
 11
1347.5141
 21
2285.989
  0
LINE
  8
0-2
  6
CONTINUOUS
 62
    3
 10
1347.5141
 20
2285.989
 11
1347.2382
 21
2285.3763
  0
LINE
  8
0-2
  6
CONTINUOUS
 62
    3
 10
1347.2382
 20
2285.3763
 11
1346.9304
 21
2284.8099
  0
LINE
  8
0-2
  6
CONTINUOUS
 62
    3
 10
1346.9304
 20
2284.8099
 11
1346.5914
 21
2284.2908
  0
LINE
  8
0-2
  6
CONTINUOUS
 62
    3
 10
1346.5914
 20
2284.2908
 11
1346.2237
 21
2283.8182
  0
LINE
  8
0-2
  6
CONTINUOUS
 62
    3
 10
1346.2237
 20
2283.8182
 11
1345.8269
 21
2283.3908
  0
LINE
  8
0-2
  6
CONTINUOUS
 62
    3
 10
1345.8269
 20
2283.3908
 11
1345.4043
 21
2283.0098
  0
LINE
  8
0-2
  6
CONTINUOUS
 62
    3
 10
1345.4043
 20
2283.0098
 11
1344.9563
 21
2282.673
  0
LINE
  8
0-2
  6
CONTINUOUS
 62
    3
 10
1344.9563
 20
2282.673
 11
1344.4855
 21
2282.3815
  0
LINE
  8
0-2
  6
CONTINUOUS
 62
    3
 10
1344.4855
 20
2282.3815
 11
1343.9919
 21
2282.1341
  0
LINE
  8
0-2
  6
CONTINUOUS
 62
    3
 10
1343.9919
 20
2282.1341
 11
1343.4781
 21
2281.9317
  0
LINE
  8
0-2
  6
CONTINUOUS
 62
    3
 10
1343.4781
 20
2281.9317
 11
1342.9451
 21
2281.7721
  0
LINE
  8
0-2
  6
CONTINUOUS
 62
    3
 10
1373.6984
 20
2288.113
 11
1373.641
 21
2287.4342
  0
LINE
  8
0-2
  6
CONTINUOUS
 62
    3
 10
1373.641
 20
2287.4342
 11
1373.5475
 21
2286.7919
  0
LINE
  8
0-2
  6
CONTINUOUS
 62
    3
 10
1373.5475
 20
2286.7919
 11
1373.4206
 21
2286.1864
  0
LINE
  8
0-2
  6
CONTINUOUS
 62
    3
 10
1373.4206
 20
2286.1864
 11
1373.2644
 21
2285.618
  0
LINE
  8
0-2
  6
CONTINUOUS
 62
    3
 10
1373.2644
 20
2285.618
 11
1373.0822
 21
2285.0875
  0
LINE
  8
0-2
  6
CONTINUOUS
 62
    3
 10
1373.0822
 20
2285.0875
 11
1372.8779
 21
2284.5951
  0
LINE
  8
0-2
  6
CONTINUOUS
 62
    3
 10
1372.8779
 20
2284.5951
 11
1372.655
 21
2284.1393
  0
LINE
  8
0-2
  6
CONTINUOUS
 62
    3
 10
1372.655
 20
2284.1393
 11
1372.4167
 21
2283.7229
  0
LINE
  8
0-2
  6
CONTINUOUS
 62
    3
 10
1372.4167
 20
2283.7229
 11
1372.1678
 21
2283.3428
  0
LINE
  8
0-2
  6
CONTINUOUS
 62
    3
 10
1372.1678
 20
2283.3428
 11
1371.9112
 21
2283.0028
  0
LINE
  8
0-2
  6
CONTINUOUS
 62
    3
 10
1371.9112
 20
2283.0028
 11
1371.65
 21
2282.7015
  0
LINE
  8
0-2
  6
CONTINUOUS
 62
    3
 10
1371.65
 20
2282.7015
 11
1371.3888
 21
2282.4382
  0
LINE
  8
0-2
  6
CONTINUOUS
 62
    3
 10
1371.3888
 20
2282.4382
 11
1371.131
 21
2282.2143
  0
LINE
  8
0-2
  6
CONTINUOUS
 62
    3
 10
1371.131
 20
2282.2143
 11
1370.8801
 21
2282.0289
  0
LINE
  8
0-2
  6
CONTINUOUS
 62
    3
 10
1392.3663
 20
2288.113
 11
1392.2634
 21
2287.2556
  0
LINE
  8
0-2
  6
CONTINUOUS
 62
    3
 10
1392.2634
 20
2287.2556
 11
1392.1546
 21
2286.4712
  0
LINE
  8
0-2
  6
CONTINUOUS
 62
    3
 10
1392.1546
 20
2286.4712
 11
1392.0402
 21
2285.762
  0
LINE
  8
0-2
  6
CONTINUOUS
 62
    3
 10
1392.0402
 20
2285.762
 11
1391.9198
 21
2285.1256
  0
LINE
  8
0-2
  6
CONTINUOUS
 62
    3
 10
1391.9198
 20
2285.1256
 11
1391.7932
 21
2284.5644
  0
LINE
  8
0-2
  6
CONTINUOUS
 62
    3
 10
1391.7932
 20
2284.5644
 11
1391.6611
 21
2284.0762
  0
LINE
  8
0-2
  6
CONTINUOUS
 62
    3
 10
1391.6611
 20
2284.0762
 11
1391.5225
 21
2283.6625
  0
LINE
  8
0-2
  6
CONTINUOUS
 62
    3
 10
1391.5225
 20
2283.6625
 11
1391.3778
 21
2283.3228
  0
LINE
  8
0-2
  6
CONTINUOUS
 62
    3
 10
1391.3778
 20
2283.3228
 11
1391.2273
 21
2283.0575
  0
LINE
  8
0-2
  6
CONTINUOUS
 62
    3
 10
838.81077
 20
2280.4495
 11
839.11066
 21
2280.4827
  0
LINE
  8
0-2
  6
CONTINUOUS
 62
    3
 10
839.11066
 20
2280.4827
 11
839.40512
 21
2280.5304
  0
LINE
  8
0-2
  6
CONTINUOUS
 62
    3
 10
839.40512
 20
2280.5304
 11
839.69462
 21
2280.5928
  0
LINE
  8
0-2
  6
CONTINUOUS
 62
    3
 10
839.69462
 20
2280.5928
 11
839.97893
 21
2280.6692
  0
LINE
  8
0-2
  6
CONTINUOUS
 62
    3
 10
839.97893
 20
2280.6692
 11
840.25804
 21
2280.7601
  0
LINE
  8
0-2
  6
CONTINUOUS
 62
    3
 10
840.25804
 20
2280.7601
 11
840.53221
 21
2280.8657
  0
LINE
  8
0-2
  6
CONTINUOUS
 62
    3
 10
840.53221
 20
2280.8657
 11
840.80093
 21
2280.9855
  0
LINE
  8
0-2
  6
CONTINUOUS
 62
    3
 10
840.80093
 20
2280.9855
 11
841.06439
 21
2281.1201
  0
LINE
  8
0-2
  6
CONTINUOUS
 62
    3
 10
841.06439
 20
2281.1201
 11
841.32302
 21
2281.2688
  0
LINE
  8
0-2
  6
CONTINUOUS
 62
    3
 10
936.2308
 20
2288.113
 11
935.45341
 21
2286.8471
  0
LINE
  8
0-2
  6
CONTINUOUS
 62
    3
 10
935.45341
 20
2286.8471
 11
934.66673
 21
2285.721
  0
LINE
  8
0-2
  6
CONTINUOUS
 62
    3
 10
934.66673
 20
2285.721
 11
933.87468
 21
2284.7265
  0
LINE
  8
0-2
  6
CONTINUOUS
 62
    3
 10
933.87468
 20
2284.7265
 11
933.07916
 21
2283.8565
  0
LINE
  8
0-2
  6
CONTINUOUS
 62
    3
 10
933.07916
 20
2283.8565
 11
932.28413
 21
2283.1026
  0
LINE
  8
0-2
  6
CONTINUOUS
 62
    3
 10
932.28413
 20
2283.1026
 11
931.49233
 21
2282.4582
  0
LINE
  8
0-2
  6
CONTINUOUS
 62
    3
 10
931.49233
 20
2282.4582
 11
930.7072
 21
2281.9144
  0
LINE
  8
0-2
  6
CONTINUOUS
 62
    3
 10
930.7072
 20
2281.9144
 11
929.93148
 21
2281.4635
  0
LINE
  8
0-2
  6
CONTINUOUS
 62
    3
 10
929.93148
 20
2281.4635
 11
929.16837
 21
2281.0976
  0
LINE
  8
0-2
  6
CONTINUOUS
 62
    3
 10
929.16837
 20
2281.0976
 11
928.42086
 21
2280.8095
  0
LINE
  8
0-2
  6
CONTINUOUS
 62
    3
 10
928.42086
 20
2280.8095
 11
927.69215
 21
2280.5911
  0
LINE
  8
0-2
  6
CONTINUOUS
 62
    3
 10
927.69215
 20
2280.5911
 11
926.98546
 21
2280.4342
  0
LINE
  8
0-2
  6
CONTINUOUS
 62
    3
 10
926.98546
 20
2280.4342
 11
926.30376
 21
2280.3317
  0
LINE
  8
0-2
  6
CONTINUOUS
 62
    3
 10
926.30376
 20
2280.3317
 11
925.65027
 21
2280.2756
  0
LINE
  8
0-2
  6
CONTINUOUS
 62
    3
 10
976.25964
 20
2280.2756
 11
975.45719
 21
2280.5641
  0
LINE
  8
0-2
  6
CONTINUOUS
 62
    3
 10
975.45719
 20
2280.5641
 11
974.70392
 21
2280.9046
  0
LINE
  8
0-2
  6
CONTINUOUS
 62
    3
 10
974.70392
 20
2280.9046
 11
973.99952
 21
2281.2953
  0
LINE
  8
0-2
  6
CONTINUOUS
 62
    3
 10
973.99952
 20
2281.2953
 11
973.3443
 21
2281.733
  0
LINE
  8
0-2
  6
CONTINUOUS
 62
    3
 10
973.3443
 20
2281.733
 11
972.73653
 21
2282.2143
  0
LINE
  8
0-2
  6
CONTINUOUS
 62
    3
 10
972.73653
 20
2282.2143
 11
972.17608
 21
2282.7381
  0
LINE
  8
0-2
  6
CONTINUOUS
 62
    3
 10
972.17608
 20
2282.7381
 11
971.6627
 21
2283.3013
  0
LINE
  8
0-2
  6
CONTINUOUS
 62
    3
 10
971.6627
 20
2283.3013
 11
971.19603
 21
2283.9006
  0
LINE
  8
0-2
  6
CONTINUOUS
 62
    3
 10
971.19603
 20
2283.9006
 11
970.77489
 21
2284.5335
  0
LINE
  8
0-2
  6
CONTINUOUS
 62
    3
 10
970.77489
 20
2284.5335
 11
970.39927
 21
2285.1974
  0
LINE
  8
0-2
  6
CONTINUOUS
 62
    3
 10
970.39927
 20
2285.1974
 11
970.0682
 21
2285.8902
  0
LINE
  8
0-2
  6
CONTINUOUS
 62
    3
 10
970.0682
 20
2285.8902
 11
969.78117
 21
2286.6088
  0
LINE
  8
0-2
  6
CONTINUOUS
 62
    3
 10
969.78117
 20
2286.6088
 11
969.53818
 21
2287.3506
  0
LINE
  8
0-2
  6
CONTINUOUS
 62
    3
 10
969.53818
 20
2287.3506
 11
969.33825
 21
2288.113
  0
LINE
  8
0-2
  6
CONTINUOUS
 62
    3
 10
980.07219
 20
2280.3171
 11
980.76651
 21
2280.5245
  0
LINE
  8
0-2
  6
CONTINUOUS
 62
    3
 10
980.76651
 20
2280.5245
 11
981.41851
 21
2280.8076
  0
LINE
  8
0-2
  6
CONTINUOUS
 62
    3
 10
981.41851
 20
2280.8076
 11
982.02894
 21
2281.1597
  0
LINE
  8
0-2
  6
CONTINUOUS
 62
    3
 10
982.02894
 20
2281.1597
 11
982.59855
 21
2281.5759
  0
LINE
  8
0-2
  6
CONTINUOUS
 62
    3
 10
982.59855
 20
2281.5759
 11
983.12832
 21
2282.0524
  0
LINE
  8
0-2
  6
CONTINUOUS
 62
    3
 10
983.12832
 20
2282.0524
 11
983.6185
 21
2282.5817
  0
LINE
  8
0-2
  6
CONTINUOUS
 62
    3
 10
983.6185
 20
2282.5817
 11
984.07057
 21
2283.1587
  0
LINE
  8
0-2
  6
CONTINUOUS
 62
    3
 10
984.07057
 20
2283.1587
 11
984.48503
 21
2283.7801
  0
LINE
  8
0-2
  6
CONTINUOUS
 62
    3
 10
984.48503
 20
2283.7801
 11
984.86263
 21
2284.4382
  0
LINE
  8
0-2
  6
CONTINUOUS
 62
    3
 10
984.86263
 20
2284.4382
 11
985.2036
 21
2285.1293
  0
LINE
  8
0-2
  6
CONTINUOUS
 62
    3
 10
985.2036
 20
2285.1293
 11
985.50919
 21
2285.8479
  0
LINE
  8
0-2
  6
CONTINUOUS
 62
    3
 10
985.50919
 20
2285.8479
 11
985.78063
 21
2286.588
  0
LINE
  8
0-2
  6
CONTINUOUS
 62
    3
 10
985.78063
 20
2286.588
 11
986.01767
 21
2287.3454
  0
LINE
  8
0-2
  6
CONTINUOUS
 62
    3
 10
986.01767
 20
2287.3454
 11
986.22206
 21
2288.113
  0
LINE
  8
0-2
  6
CONTINUOUS
 62
    3
 10
920.08684
 20
2288.113
 11
920.10985
 21
2287.2026
  0
LINE
  8
0-2
  6
CONTINUOUS
 62
    3
 10
920.10985
 20
2287.2026
 11
920.18043
 21
2286.3604
  0
LINE
  8
0-2
  6
CONTINUOUS
 62
    3
 10
920.18043
 20
2286.3604
 11
920.30013
 21
2285.5846
  0
LINE
  8
0-2
  6
CONTINUOUS
 62
    3
 10
920.30013
 20
2285.5846
 11
920.47235
 21
2284.8695
  0
LINE
  8
0-2
  6
CONTINUOUS
 62
    3
 10
920.47235
 20
2284.8695
 11
920.6995
 21
2284.2126
  0
LINE
  8
0-2
  6
CONTINUOUS
 62
    3
 10
920.6995
 20
2284.2126
 11
920.98455
 21
2283.6101
  0
LINE
  8
0-2
  6
CONTINUOUS
 62
    3
 10
920.98455
 20
2283.6101
 11
921.32948
 21
2283.0575
  0
LINE
  8
0-2
  6
CONTINUOUS
 62
    3
 10
921.32948
 20
2283.0575
 11
921.73726
 21
2282.5513
  0
LINE
  8
0-2
  6
CONTINUOUS
 62
    3
 10
921.73726
 20
2282.5513
 11
922.21012
 21
2282.0876
  0
LINE
  8
0-2
  6
CONTINUOUS
 62
    3
 10
922.21012
 20
2282.0876
 11
922.75176
 21
2281.6627
  0
LINE
  8
0-2
  6
CONTINUOUS
 62
    3
 10
922.75176
 20
2281.6627
 11
923.36343
 21
2281.273
  0
LINE
  8
0-2
  6
CONTINUOUS
 62
    3
 10
923.36343
 20
2281.273
 11
924.04878
 21
2280.914
  0
LINE
  8
0-2
  6
CONTINUOUS
 62
    3
 10
924.04878
 20
2280.914
 11
924.81046
 21
2280.5824
  0
LINE
  8
0-2
  6
CONTINUOUS
 62
    3
 10
924.81046
 20
2280.5824
 11
925.65027
 21
2280.2756
  0
LINE
  8
0-2
  6
CONTINUOUS
 62
    3
 10
831.34699
 20
2288.113
 11
831.4618
 21
2287.2974
  0
LINE
  8
0-2
  6
CONTINUOUS
 62
    3
 10
831.4618
 20
2287.2974
 11
831.62462
 21
2286.5385
  0
LINE
  8
0-2
  6
CONTINUOUS
 62
    3
 10
831.62462
 20
2286.5385
 11
831.83204
 21
2285.8333
  0
LINE
  8
0-2
  6
CONTINUOUS
 62
    3
 10
831.83204
 20
2285.8333
 11
832.07966
 21
2285.1806
  0
LINE
  8
0-2
  6
CONTINUOUS
 62
    3
 10
832.07966
 20
2285.1806
 11
832.36403
 21
2284.5763
  0
LINE
  8
0-2
  6
CONTINUOUS
 62
    3
 10
832.36403
 20
2284.5763
 11
832.68218
 21
2284.0201
  0
LINE
  8
0-2
  6
CONTINUOUS
 62
    3
 10
832.68218
 20
2284.0201
 11
833.03057
 21
2283.5094
  0
LINE
  8
0-2
  6
CONTINUOUS
 62
    3
 10
833.03057
 20
2283.5094
 11
833.40674
 21
2283.0427
  0
LINE
  8
0-2
  6
CONTINUOUS
 62
    3
 10
833.40674
 20
2283.0427
 11
833.80704
 21
2282.6178
  0
LINE
  8
0-2
  6
CONTINUOUS
 62
    3
 10
833.80704
 20
2282.6178
 11
834.22942
 21
2282.2341
  0
LINE
  8
0-2
  6
CONTINUOUS
 62
    3
 10
834.22942
 20
2282.2341
 11
834.67116
 21
2281.8901
  0
LINE
  8
0-2
  6
CONTINUOUS
 62
    3
 10
834.67116
 20
2281.8901
 11
835.13035
 21
2281.5845
  0
LINE
  8
0-2
  6
CONTINUOUS
 62
    3
 10
835.13035
 20
2281.5845
 11
835.60419
 21
2281.3153
  0
LINE
  8
0-2
  6
CONTINUOUS
 62
    3
 10
835.60419
 20
2281.3153
 11
836.0919
 21
2281.0832
  0
LINE
  8
0-2
  6
CONTINUOUS
 62
    3
 10
836.0919
 20
2281.0832
 11
836.59074
 21
2280.8858
  0
LINE
  8
0-2
  6
CONTINUOUS
 62
    3
 10
836.59074
 20
2280.8858
 11
837.09997
 21
2280.7237
  0
LINE
  8
0-2
  6
CONTINUOUS
 62
    3
 10
837.09997
 20
2280.7237
 11
837.61817
 21
2280.596
  0
LINE
  8
0-2
  6
CONTINUOUS
 62
    3
 10
837.61817
 20
2280.596
 11
838.14367
 21
2280.5027
  0
LINE
  8
0-2
  6
CONTINUOUS
 62
    3
 10
838.14367
 20
2280.5027
 11
838.67616
 21
2280.4426
  0
LINE
  8
0-2
  6
CONTINUOUS
 62
    3
 10
881.92691
 20
2280.4426
 11
882.53042
 21
2280.5703
  0
LINE
  8
0-2
  6
CONTINUOUS
 62
    3
 10
882.53042
 20
2280.5703
 11
883.12873
 21
2280.7751
  0
LINE
  8
0-2
  6
CONTINUOUS
 62
    3
 10
883.12873
 20
2280.7751
 11
883.72209
 21
2281.0538
  0
LINE
  8
0-2
  6
CONTINUOUS
 62
    3
 10
883.72209
 20
2281.0538
 11
884.31106
 21
2281.4093
  0
LINE
  8
0-2
  6
CONTINUOUS
 62
    3
 10
884.31106
 20
2281.4093
 11
884.8947
 21
2281.8399
  0
LINE
  8
0-2
  6
CONTINUOUS
 62
    3
 10
884.8947
 20
2281.8399
 11
885.47347
 21
2282.3461
  0
LINE
  8
0-2
  6
CONTINUOUS
 62
    3
 10
885.47347
 20
2282.3461
 11
886.04728
 21
2282.9286
  0
LINE
  8
0-2
  6
CONTINUOUS
 62
    3
 10
886.04728
 20
2282.9286
 11
886.61664
 21
2283.5868
  0
LINE
  8
0-2
  6
CONTINUOUS
 62
    3
 10
886.61664
 20
2283.5868
 11
887.1808
 21
2284.3197
  0
LINE
  8
0-2
  6
CONTINUOUS
 62
    3
 10
873.75546
 20
2288.113
 11
874.15155
 21
2287.0435
  0
LINE
  8
0-2
  6
CONTINUOUS
 62
    3
 10
874.15155
 20
2287.0435
 11
874.56483
 21
2286.0726
  0
LINE
  8
0-2
  6
CONTINUOUS
 62
    3
 10
874.56483
 20
2286.0726
 11
874.9934
 21
2285.1974
  0
LINE
  8
0-2
  6
CONTINUOUS
 62
    3
 10
874.9934
 20
2285.1974
 11
875.4383
 21
2284.411
  0
LINE
  8
0-2
  6
CONTINUOUS
 62
    3
 10
875.4383
 20
2284.411
 11
875.89835
 21
2283.7105
  0
LINE
  8
0-2
  6
CONTINUOUS
 62
    3
 10
875.89835
 20
2283.7105
 11
876.37312
 21
2283.0899
  0
LINE
  8
0-2
  6
CONTINUOUS
 62
    3
 10
876.37312
 20
2283.0899
 11
876.86207
 21
2282.5448
  0
LINE
  8
0-2
  6
CONTINUOUS
 62
    3
 10
876.86207
 20
2282.5448
 11
877.36536
 21
2282.0707
  0
LINE
  8
0-2
  6
CONTINUOUS
 62
    3
 10
877.36536
 20
2282.0707
 11
877.88177
 21
2281.6617
  0
LINE
  8
0-2
  6
CONTINUOUS
 62
    3
 10
877.88177
 20
2281.6617
 11
878.41178
 21
2281.3151
  0
LINE
  8
0-2
  6
CONTINUOUS
 62
    3
 10
878.41178
 20
2281.3151
 11
878.95442
 21
2281.0243
  0
LINE
  8
0-2
  6
CONTINUOUS
 62
    3
 10
878.95442
 20
2281.0243
 11
879.50942
 21
2280.785
  0
LINE
  8
0-2
  6
CONTINUOUS
 62
    3
 10
879.50942
 20
2280.785
 11
880.07631
 21
2280.5928
  0
LINE
  8
0-2
  6
CONTINUOUS
 62
    3
 10
880.07631
 20
2280.5928
 11
880.65482
 21
2280.4426
  0
LINE
  8
0-2
  6
CONTINUOUS
 62
    3
 10
1316.2343
 20
2288.113
 11
1315.9777
 21
2287.3207
  0
LINE
  8
0-2
  6
CONTINUOUS
 62
    3
 10
1315.9777
 20
2287.3207
 11
1315.6775
 21
2286.5863
  0
LINE
  8
0-2
  6
CONTINUOUS
 62
    3
 10
1315.6775
 20
2286.5863
 11
1315.3368
 21
2285.9098
  0
LINE
  8
0-2
  6
CONTINUOUS
 62
    3
 10
1315.3368
 20
2285.9098
 11
1314.9597
 21
2285.2914
  0
LINE
  8
0-2
  6
CONTINUOUS
 62
    3
 10
1314.9597
 20
2285.2914
 11
1314.5491
 21
2284.7317
  0
LINE
  8
0-2
  6
CONTINUOUS
 62
    3
 10
1314.5491
 20
2284.7317
 11
1314.11
 21
2284.2301
  0
LINE
  8
0-2
  6
CONTINUOUS
 62
    3
 10
1314.11
 20
2284.2301
 11
1313.645
 21
2283.7855
  0
LINE
  8
0-2
  6
CONTINUOUS
 62
    3
 10
1313.645
 20
2283.7855
 11
1313.1594
 21
2283.3988
  0
LINE
  8
0-2
  6
CONTINUOUS
 62
    3
 10
1313.1594
 20
2283.3988
 11
1312.6559
 21
2283.0674
  0
LINE
  8
0-2
  6
CONTINUOUS
 62
    3
 10
1312.6559
 20
2283.0674
 11
1312.1404
 21
2282.7928
  0
LINE
  8
0-2
  6
CONTINUOUS
 62
    3
 10
1312.1404
 20
2282.7928
 11
1311.6157
 21
2282.5721
  0
LINE
  8
0-2
  6
CONTINUOUS
 62
    3
 10
1311.6157
 20
2282.5721
 11
1311.0863
 21
2282.4031
  0
LINE
  8
0-2
  6
CONTINUOUS
 62
    3
 10
1311.0863
 20
2282.4031
 11
1310.5577
 21
2282.2863
  0
LINE
  8
0-2
  6
CONTINUOUS
 62
    3
 10
1310.5577
 20
2282.2863
 11
1310.0335
 21
2282.2195
  0
LINE
  8
0-2
  6
CONTINUOUS
 62
    3
 10
1310.0335
 20
2282.2195
 11
1309.5192
 21
2282.1987
  0
LINE
  8
0-2
  6
CONTINUOUS
 62
    3
 10
1309.5192
 20
2282.1987
 11
1309.0189
 21
2282.2237
  0
LINE
  8
0-2
  6
CONTINUOUS
 62
    3
 10
1309.0189
 20
2282.2237
 11
1308.5376
 21
2282.291
  0
LINE
  8
0-2
  6
CONTINUOUS
 62
    3
 10
1308.5376
 20
2282.291
 11
1308.0809
 21
2282.3984
  0
LINE
  8
0-2
  6
CONTINUOUS
 62
    3
 10
1308.0809
 20
2282.3984
 11
1307.653
 21
2282.5429
  0
LINE
  8
0-2
  6
CONTINUOUS
 62
    3
 10
761.86886
 20
1571.2795
 11
762.0381
 21
1572.0357
  0
LINE
  8
0-2
  6
CONTINUOUS
 62
    3
 10
762.0381
 20
1572.0357
 11
762.24447
 21
1572.7435
  0
LINE
  8
0-2
  6
CONTINUOUS
 62
    3
 10
762.24447
 20
1572.7435
 11
762.48647
 21
1573.4042
  0
LINE
  8
0-2
  6
CONTINUOUS
 62
    3
 10
762.48647
 20
1573.4042
 11
762.76211
 21
1574.0167
  0
LINE
  8
0-2
  6
CONTINUOUS
 62
    3
 10
762.76211
 20
1574.0167
 11
763.06993
 21
1574.5826
  0
LINE
  8
0-2
  6
CONTINUOUS
 62
    3
 10
763.06993
 20
1574.5826
 11
763.40867
 21
1575.102
  0
LINE
  8
0-2
  6
CONTINUOUS
 62
    3
 10
763.40867
 20
1575.102
 11
763.77686
 21
1575.5748
  0
LINE
  8
0-2
  6
CONTINUOUS
 62
    3
 10
763.77686
 20
1575.5748
 11
764.17302
 21
1576.0017
  0
LINE
  8
0-2
  6
CONTINUOUS
 62
    3
 10
764.17302
 20
1576.0017
 11
764.59614
 21
1576.3832
  0
LINE
  8
0-2
  6
CONTINUOUS
 62
    3
 10
764.59614
 20
1576.3832
 11
765.044
 21
1576.7197
  0
LINE
  8
0-2
  6
CONTINUOUS
 62
    3
 10
765.044
 20
1576.7197
 11
765.51507
 21
1577.011
  0
LINE
  8
0-2
  6
CONTINUOUS
 62
    3
 10
765.51507
 20
1577.011
 11
766.00846
 21
1577.2579
  0
LINE
  8
0-2
  6
CONTINUOUS
 62
    3
 10
766.00846
 20
1577.2579
 11
766.52196
 21
1577.4611
  0
LINE
  8
0-2
  6
CONTINUOUS
 62
    3
 10
766.52196
 20
1577.4611
 11
767.05519
 21
1577.6209
  0
LINE
  8
0-2
  6
CONTINUOUS
 62
    3
 10
736.30189
 20
1571.2795
 11
736.35905
 21
1571.9592
  0
LINE
  8
0-2
  6
CONTINUOUS
 62
    3
 10
736.35905
 20
1571.9592
 11
736.45283
 21
1572.6018
  0
LINE
  8
0-2
  6
CONTINUOUS
 62
    3
 10
736.45283
 20
1572.6018
 11
736.57927
 21
1573.2063
  0
LINE
  8
0-2
  6
CONTINUOUS
 62
    3
 10
736.57927
 20
1573.2063
 11
736.7359
 21
1573.775
  0
LINE
  8
0-2
  6
CONTINUOUS
 62
    3
 10
736.7359
 20
1573.775
 11
736.91801
 21
1574.3055
  0
LINE
  8
0-2
  6
CONTINUOUS
 62
    3
 10
736.91801
 20
1574.3055
 11
737.1224
 21
1574.7979
  0
LINE
  8
0-2
  6
CONTINUOUS
 62
    3
 10
737.1224
 20
1574.7979
 11
737.34559
 21
1575.2532
  0
LINE
  8
0-2
  6
CONTINUOUS
 62
    3
 10
737.34559
 20
1575.2532
 11
737.58332
 21
1575.6698
  0
LINE
  8
0-2
  6
CONTINUOUS
 62
    3
 10
737.58332
 20
1575.6698
 11
737.8328
 21
1576.0492
  0
LINE
  8
0-2
  6
CONTINUOUS
 62
    3
 10
737.8328
 20
1576.0492
 11
738.08939
 21
1576.3897
  0
LINE
  8
0-2
  6
CONTINUOUS
 62
    3
 10
738.08939
 20
1576.3897
 11
738.35019
 21
1576.6915
  0
LINE
  8
0-2
  6
CONTINUOUS
 62
    3
 10
738.35019
 20
1576.6915
 11
738.61149
 21
1576.9548
  0
LINE
  8
0-2
  6
CONTINUOUS
 62
    3
 10
738.61149
 20
1576.9548
 11
738.86939
 21
1577.179
  0
LINE
  8
0-2
  6
CONTINUOUS
 62
    3
 10
738.86939
 20
1577.179
 11
739.12023
 21
1577.3638
  0
LINE
  8
0-2
  6
CONTINUOUS
 62
    3
 10
717.63428
 20
1571.2795
 11
717.73697
 21
1572.1376
  0
LINE
  8
0-2
  6
CONTINUOUS
 62
    3
 10
717.73697
 20
1572.1376
 11
717.8456
 21
1572.921
  0
LINE
  8
0-2
  6
CONTINUOUS
 62
    3
 10
717.8456
 20
1572.921
 11
717.96016
 21
1573.6311
  0
LINE
  8
0-2
  6
CONTINUOUS
 62
    3
 10
717.96016
 20
1573.6311
 11
718.0806
 21
1574.2667
  0
LINE
  8
0-2
  6
CONTINUOUS
 62
    3
 10
718.0806
 20
1574.2667
 11
718.20711
 21
1574.8288
  0
LINE
  8
0-2
  6
CONTINUOUS
 62
    3
 10
718.20711
 20
1574.8288
 11
718.33949
 21
1575.3165
  0
LINE
  8
0-2
  6
CONTINUOUS
 62
    3
 10
718.33949
 20
1575.3165
 11
718.47781
 21
1575.73
  0
LINE
  8
0-2
  6
CONTINUOUS
 62
    3
 10
718.47781
 20
1575.73
 11
718.62256
 21
1576.07
  0
LINE
  8
0-2
  6
CONTINUOUS
 62
    3
 10
718.62256
 20
1576.07
 11
718.77275
 21
1576.335
  0
LINE
  8
0-2
  6
CONTINUOUS
 62
    3
 10
793.76639
 20
1571.2795
 11
794.02273
 21
1572.0726
  0
LINE
  8
0-2
  6
CONTINUOUS
 62
    3
 10
794.02273
 20
1572.0726
 11
794.32288
 21
1572.806
  0
LINE
  8
0-2
  6
CONTINUOUS
 62
    3
 10
794.32288
 20
1572.806
 11
794.6636
 21
1573.483
  0
LINE
  8
0-2
  6
CONTINUOUS
 62
    3
 10
794.6636
 20
1573.483
 11
795.04064
 21
1574.1011
  0
LINE
  8
0-2
  6
CONTINUOUS
 62
    3
 10
795.04064
 20
1574.1011
 11
795.45114
 21
1574.661
  0
LINE
  8
0-2
  6
CONTINUOUS
 62
    3
 10
795.45114
 20
1574.661
 11
795.89041
 21
1575.1628
  0
LINE
  8
0-2
  6
CONTINUOUS
 62
    3
 10
795.89041
 20
1575.1628
 11
796.35504
 21
1575.607
  0
LINE
  8
0-2
  6
CONTINUOUS
 62
    3
 10
796.35504
 20
1575.607
 11
796.84101
 21
1575.9942
  0
LINE
  8
0-2
  6
CONTINUOUS
 62
    3
 10
796.84101
 20
1575.9942
 11
797.34412
 21
1576.3247
  0
LINE
  8
0-2
  6
CONTINUOUS
 62
    3
 10
797.34412
 20
1576.3247
 11
797.85997
 21
1576.5995
  0
LINE
  8
0-2
  6
CONTINUOUS
 62
    3
 10
797.85997
 20
1576.5995
 11
798.38479
 21
1576.8207
  0
LINE
  8
0-2
  6
CONTINUOUS
 62
    3
 10
798.38479
 20
1576.8207
 11
798.91351
 21
1576.9896
  0
LINE
  8
0-2
  6
CONTINUOUS
 62
    3
 10
798.91351
 20
1576.9896
 11
799.44266
 21
1577.1062
  0
LINE
  8
0-2
  6
CONTINUOUS
 62
    3
 10
799.44266
 20
1577.1062
 11
799.96667
 21
1577.1738
  0
LINE
  8
0-2
  6
CONTINUOUS
 62
    3
 10
799.96667
 20
1577.1738
 11
800.48135
 21
1577.1938
  0
LINE
  8
0-2
  6
CONTINUOUS
 62
    3
 10
800.48135
 20
1577.1938
 11
800.98142
 21
1577.1693
  0
LINE
  8
0-2
  6
CONTINUOUS
 62
    3
 10
800.98142
 20
1577.1693
 11
801.46245
 21
1577.1018
  0
LINE
  8
0-2
  6
CONTINUOUS
 62
    3
 10
801.46245
 20
1577.1018
 11
801.91947
 21
1576.9941
  0
LINE
  8
0-2
  6
CONTINUOUS
 62
    3
 10
801.91947
 20
1576.9941
 11
802.34754
 21
1576.8494
  0
LINE
  8
0-2
  6
CONTINUOUS
 62
    3
 10
976.25964
 20
1579.1177
 11
976.67286
 21
1579.1461
  0
LINE
  8
0-2
  6
CONTINUOUS
 62
    3
 10
976.67286
 20
1579.1461
 11
977.08856
 21
1579.1654
  0
LINE
  8
0-2
  6
CONTINUOUS
 62
    3
 10
977.08856
 20
1579.1654
 11
977.50673
 21
1579.1773
  0
LINE
  8
0-2
  6
CONTINUOUS
 62
    3
 10
977.50673
 20
1579.1773
 11
977.92757
 21
1579.1811
  0
LINE
  8
0-2
  6
CONTINUOUS
 62
    3
 10
977.92757
 20
1579.1811
 11
978.35149
 21
1579.1761
  0
LINE
  8
0-2
  6
CONTINUOUS
 62
    3
 10
978.35149
 20
1579.1761
 11
978.77758
 21
1579.1639
  0
LINE
  8
0-2
  6
CONTINUOUS
 62
    3
 10
978.77758
 20
1579.1639
 11
979.20615
 21
1579.1427
  0
LINE
  8
0-2
  6
CONTINUOUS
 62
    3
 10
979.20615
 20
1579.1427
 11
979.63793
 21
1579.1135
  0
LINE
  8
0-2
  6
CONTINUOUS
 62
    3
 10
979.63793
 20
1579.1135
 11
980.07219
 21
1579.0756
  0
LINE
  8
0-2
  6
CONTINUOUS
 62
    3
 10
976.25964
 20
2280.2756
 11
976.67286
 21
2280.2469
  0
LINE
  8
0-2
  6
CONTINUOUS
 62
    3
 10
976.67286
 20
2280.2469
 11
977.08856
 21
2280.2268
  0
LINE
  8
0-2
  6
CONTINUOUS
 62
    3
 10
977.08856
 20
2280.2268
 11
977.50673
 21
2280.2154
  0
LINE
  8
0-2
  6
CONTINUOUS
 62
    3
 10
977.50673
 20
2280.2154
 11
977.92757
 21
2280.212
  0
LINE
  8
0-2
  6
CONTINUOUS
 62
    3
 10
977.92757
 20
2280.212
 11
978.35149
 21
2280.2167
  0
LINE
  8
0-2
  6
CONTINUOUS
 62
    3
 10
978.35149
 20
2280.2167
 11
978.77758
 21
2280.2288
  0
LINE
  8
0-2
  6
CONTINUOUS
 62
    3
 10
978.77758
 20
2280.2288
 11
979.20615
 21
2280.2506
  0
LINE
  8
0-2
  6
CONTINUOUS
 62
    3
 10
979.20615
 20
2280.2506
 11
979.63793
 21
2280.2793
  0
LINE
  8
0-2
  6
CONTINUOUS
 62
    3
 10
979.63793
 20
2280.2793
 11
980.07219
 21
2280.3171
  0
LINE
  8
0-2
  6
CONTINUOUS
 62
    3
 10
880.65482
 20
2280.4426
 11
880.80923
 21
2280.4305
  0
LINE
  8
0-2
  6
CONTINUOUS
 62
    3
 10
880.80923
 20
2280.4305
 11
880.96023
 21
2280.4218
  0
LINE
  8
0-2
  6
CONTINUOUS
 62
    3
 10
880.96023
 20
2280.4218
 11
881.10789
 21
2280.4154
  0
LINE
  8
0-2
  6
CONTINUOUS
 62
    3
 10
881.10789
 20
2280.4154
 11
881.25264
 21
2280.4122
  0
LINE
  8
0-2
  6
CONTINUOUS
 62
    3
 10
881.25264
 20
2280.4122
 11
881.39368
 21
2280.4122
  0
LINE
  8
0-2
  6
CONTINUOUS
 62
    3
 10
881.39368
 20
2280.4122
 11
881.53169
 21
2280.4154
  0
LINE
  8
0-2
  6
CONTINUOUS
 62
    3
 10
881.53169
 20
2280.4154
 11
881.66685
 21
2280.4218
  0
LINE
  8
0-2
  6
CONTINUOUS
 62
    3
 10
881.66685
 20
2280.4218
 11
881.79849
 21
2280.4305
  0
LINE
  8
0-2
  6
CONTINUOUS
 62
    3
 10
881.79849
 20
2280.4305
 11
881.92691
 21
2280.4426
  0
LINE
  8
0-2
  6
CONTINUOUS
 62
    3
 10
838.81077
 20
1578.9435
 11
839.11066
 21
1578.9098
  0
LINE
  8
0-2
  6
CONTINUOUS
 62
    3
 10
839.11066
 20
1578.9098
 11
839.40512
 21
1578.8618
  0
LINE
  8
0-2
  6
CONTINUOUS
 62
    3
 10
839.40512
 20
1578.8618
 11
839.69462
 21
1578.8002
  0
LINE
  8
0-2
  6
CONTINUOUS
 62
    3
 10
839.69462
 20
1578.8002
 11
839.97893
 21
1578.7238
  0
LINE
  8
0-2
  6
CONTINUOUS
 62
    3
 10
839.97893
 20
1578.7238
 11
840.25804
 21
1578.6324
  0
LINE
  8
0-2
  6
CONTINUOUS
 62
    3
 10
840.25804
 20
1578.6324
 11
840.53221
 21
1578.527
  0
LINE
  8
0-2
  6
CONTINUOUS
 62
    3
 10
840.53221
 20
1578.527
 11
840.80093
 21
1578.4067
  0
LINE
  8
0-2
  6
CONTINUOUS
 62
    3
 10
840.80093
 20
1578.4067
 11
841.06439
 21
1578.2724
  0
LINE
  8
0-2
  6
CONTINUOUS
 62
    3
 10
841.06439
 20
1578.2724
 11
841.32302
 21
1578.1237
  0
LINE
  8
0-2
  6
CONTINUOUS
 62
    3
 10
936.2308
 20
1571.2795
 11
935.45341
 21
1572.5462
  0
LINE
  8
0-2
  6
CONTINUOUS
 62
    3
 10
935.45341
 20
1572.5462
 11
934.66673
 21
1573.6723
  0
LINE
  8
0-2
  6
CONTINUOUS
 62
    3
 10
934.66673
 20
1573.6723
 11
933.87468
 21
1574.6661
  0
LINE
  8
0-2
  6
CONTINUOUS
 62
    3
 10
933.87468
 20
1574.6661
 11
933.07916
 21
1575.5362
  0
LINE
  8
0-2
  6
CONTINUOUS
 62
    3
 10
933.07916
 20
1575.5362
 11
932.28413
 21
1576.2897
  0
LINE
  8
0-2
  6
CONTINUOUS
 62
    3
 10
932.28413
 20
1576.2897
 11
931.49233
 21
1576.9345
  0
LINE
  8
0-2
  6
CONTINUOUS
 62
    3
 10
931.49233
 20
1576.9345
 11
930.7072
 21
1577.4784
  0
LINE
  8
0-2
  6
CONTINUOUS
 62
    3
 10
930.7072
 20
1577.4784
 11
929.93148
 21
1577.9295
  0
LINE
  8
0-2
  6
CONTINUOUS
 62
    3
 10
929.93148
 20
1577.9295
 11
929.16837
 21
1578.2951
  0
LINE
  8
0-2
  6
CONTINUOUS
 62
    3
 10
929.16837
 20
1578.2951
 11
928.42086
 21
1578.5832
  0
LINE
  8
0-2
  6
CONTINUOUS
 62
    3
 10
928.42086
 20
1578.5832
 11
927.69215
 21
1578.8017
  0
LINE
  8
0-2
  6
CONTINUOUS
 62
    3
 10
927.69215
 20
1578.8017
 11
926.98546
 21
1578.9583
  0
LINE
  8
0-2
  6
CONTINUOUS
 62
    3
 10
926.98546
 20
1578.9583
 11
926.30376
 21
1579.0615
  0
LINE
  8
0-2
  6
CONTINUOUS
 62
    3
 10
926.30376
 20
1579.0615
 11
925.65027
 21
1579.1177
  0
LINE
  8
0-2
  6
CONTINUOUS
 62
    3
 10
976.25964
 20
1579.1177
 11
975.45719
 21
1578.8287
  0
LINE
  8
0-2
  6
CONTINUOUS
 62
    3
 10
975.45719
 20
1578.8287
 11
974.70392
 21
1578.4877
  0
LINE
  8
0-2
  6
CONTINUOUS
 62
    3
 10
974.70392
 20
1578.4877
 11
973.99952
 21
1578.0974
  0
LINE
  8
0-2
  6
CONTINUOUS
 62
    3
 10
973.99952
 20
1578.0974
 11
973.3443
 21
1577.6595
  0
LINE
  8
0-2
  6
CONTINUOUS
 62
    3
 10
973.3443
 20
1577.6595
 11
972.73653
 21
1577.1781
  0
LINE
  8
0-2
  6
CONTINUOUS
 62
    3
 10
972.73653
 20
1577.1781
 11
972.17608
 21
1576.6543
  0
LINE
  8
0-2
  6
CONTINUOUS
 62
    3
 10
972.17608
 20
1576.6543
 11
971.6627
 21
1576.0915
  0
LINE
  8
0-2
  6
CONTINUOUS
 62
    3
 10
971.6627
 20
1576.0915
 11
971.19603
 21
1575.4924
  0
LINE
  8
0-2
  6
CONTINUOUS
 62
    3
 10
971.19603
 20
1575.4924
 11
970.77489
 21
1574.8595
  0
LINE
  8
0-2
  6
CONTINUOUS
 62
    3
 10
970.77489
 20
1574.8595
 11
970.39927
 21
1574.1951
  0
LINE
  8
0-2
  6
CONTINUOUS
 62
    3
 10
970.39927
 20
1574.1951
 11
970.0682
 21
1573.5023
  0
LINE
  8
0-2
  6
CONTINUOUS
 62
    3
 10
970.0682
 20
1573.5023
 11
969.78117
 21
1572.784
  0
LINE
  8
0-2
  6
CONTINUOUS
 62
    3
 10
969.78117
 20
1572.784
 11
969.53818
 21
1572.0421
  0
LINE
  8
0-2
  6
CONTINUOUS
 62
    3
 10
969.53818
 20
1572.0421
 11
969.33825
 21
1571.2795
  0
LINE
  8
0-2
  6
CONTINUOUS
 62
    3
 10
980.07219
 20
1579.0756
 11
980.76651
 21
1578.8679
  0
LINE
  8
0-2
  6
CONTINUOUS
 62
    3
 10
980.76651
 20
1578.8679
 11
981.41851
 21
1578.5854
  0
LINE
  8
0-2
  6
CONTINUOUS
 62
    3
 10
981.41851
 20
1578.5854
 11
982.02894
 21
1578.2331
  0
LINE
  8
0-2
  6
CONTINUOUS
 62
    3
 10
982.02894
 20
1578.2331
 11
982.59855
 21
1577.8166
  0
LINE
  8
0-2
  6
CONTINUOUS
 62
    3
 10
982.59855
 20
1577.8166
 11
983.12832
 21
1577.3409
  0
LINE
  8
0-2
  6
CONTINUOUS
 62
    3
 10
983.12832
 20
1577.3409
 11
983.6185
 21
1576.8113
  0
LINE
  8
0-2
  6
CONTINUOUS
 62
    3
 10
983.6185
 20
1576.8113
 11
984.07057
 21
1576.2335
  0
LINE
  8
0-2
  6
CONTINUOUS
 62
    3
 10
984.07057
 20
1576.2335
 11
984.48503
 21
1575.6132
  0
LINE
  8
0-2
  6
CONTINUOUS
 62
    3
 10
984.48503
 20
1575.6132
 11
984.86263
 21
1574.9543
  0
LINE
  8
0-2
  6
CONTINUOUS
 62
    3
 10
984.86263
 20
1574.9543
 11
985.2036
 21
1574.2636
  0
LINE
  8
0-2
  6
CONTINUOUS
 62
    3
 10
985.2036
 20
1574.2636
 11
985.50919
 21
1573.5446
  0
LINE
  8
0-2
  6
CONTINUOUS
 62
    3
 10
985.50919
 20
1573.5446
 11
985.78063
 21
1572.8045
  0
LINE
  8
0-2
  6
CONTINUOUS
 62
    3
 10
985.78063
 20
1572.8045
 11
986.01767
 21
1572.0481
  0
LINE
  8
0-2
  6
CONTINUOUS
 62
    3
 10
986.01767
 20
1572.0481
 11
986.22206
 21
1571.2795
  0
LINE
  8
0-2
  6
CONTINUOUS
 62
    3
 10
920.08684
 20
1571.2795
 11
920.10985
 21
1572.1902
  0
LINE
  8
0-2
  6
CONTINUOUS
 62
    3
 10
920.10985
 20
1572.1902
 11
920.18043
 21
1573.0324
  0
LINE
  8
0-2
  6
CONTINUOUS
 62
    3
 10
920.18043
 20
1573.0324
 11
920.30013
 21
1573.8086
  0
LINE
  8
0-2
  6
CONTINUOUS
 62
    3
 10
920.30013
 20
1573.8086
 11
920.47235
 21
1574.5227
  0
LINE
  8
0-2
  6
CONTINUOUS
 62
    3
 10
920.47235
 20
1574.5227
 11
920.6995
 21
1575.1799
  0
LINE
  8
0-2
  6
CONTINUOUS
 62
    3
 10
920.6995
 20
1575.1799
 11
920.98455
 21
1575.7831
  0
LINE
  8
0-2
  6
CONTINUOUS
 62
    3
 10
920.98455
 20
1575.7831
 11
921.32948
 21
1576.335
  0
LINE
  8
0-2
  6
CONTINUOUS
 62
    3
 10
921.32948
 20
1576.335
 11
921.73726
 21
1576.8417
  0
LINE
  8
0-2
  6
CONTINUOUS
 62
    3
 10
921.73726
 20
1576.8417
 11
922.21012
 21
1577.3052
  0
LINE
  8
0-2
  6
CONTINUOUS
 62
    3
 10
922.21012
 20
1577.3052
 11
922.75176
 21
1577.7298
  0
LINE
  8
0-2
  6
CONTINUOUS
 62
    3
 10
922.75176
 20
1577.7298
 11
923.36343
 21
1578.1198
  0
LINE
  8
0-2
  6
CONTINUOUS
 62
    3
 10
923.36343
 20
1578.1198
 11
924.04878
 21
1578.4788
  0
LINE
  8
0-2
  6
CONTINUOUS
 62
    3
 10
924.04878
 20
1578.4788
 11
924.81046
 21
1578.8106
  0
LINE
  8
0-2
  6
CONTINUOUS
 62
    3
 10
924.81046
 20
1578.8106
 11
925.65027
 21
1579.1177
  0
LINE
  8
0-2
  6
CONTINUOUS
 62
    3
 10
831.34699
 20
1571.2795
 11
831.4618
 21
1572.0951
  0
LINE
  8
0-2
  6
CONTINUOUS
 62
    3
 10
831.4618
 20
1572.0951
 11
831.62462
 21
1572.854
  0
LINE
  8
0-2
  6
CONTINUOUS
 62
    3
 10
831.62462
 20
1572.854
 11
831.83204
 21
1573.5594
  0
LINE
  8
0-2
  6
CONTINUOUS
 62
    3
 10
831.83204
 20
1573.5594
 11
832.07966
 21
1574.2127
  0
LINE
  8
0-2
  6
CONTINUOUS
 62
    3
 10
832.07966
 20
1574.2127
 11
832.36403
 21
1574.8161
  0
LINE
  8
0-2
  6
CONTINUOUS
 62
    3
 10
832.36403
 20
1574.8161
 11
832.68218
 21
1575.3726
  0
LINE
  8
0-2
  6
CONTINUOUS
 62
    3
 10
832.68218
 20
1575.3726
 11
833.03057
 21
1575.8836
  0
LINE
  8
0-2
  6
CONTINUOUS
 62
    3
 10
833.03057
 20
1575.8836
 11
833.40674
 21
1576.3503
  0
LINE
  8
0-2
  6
CONTINUOUS
 62
    3
 10
833.40674
 20
1576.3503
 11
833.80704
 21
1576.7747
  0
LINE
  8
0-2
  6
CONTINUOUS
 62
    3
 10
833.80704
 20
1576.7747
 11
834.22942
 21
1577.1582
  0
LINE
  8
0-2
  6
CONTINUOUS
 62
    3
 10
834.22942
 20
1577.1582
 11
834.67116
 21
1577.5023
  0
LINE
  8
0-2
  6
CONTINUOUS
 62
    3
 10
834.67116
 20
1577.5023
 11
835.13035
 21
1577.8087
  0
LINE
  8
0-2
  6
CONTINUOUS
 62
    3
 10
835.13035
 20
1577.8087
 11
835.60419
 21
1578.0774
  0
LINE
  8
0-2
  6
CONTINUOUS
 62
    3
 10
835.60419
 20
1578.0774
 11
836.0919
 21
1578.3099
  0
LINE
  8
0-2
  6
CONTINUOUS
 62
    3
 10
836.0919
 20
1578.3099
 11
836.59074
 21
1578.5063
  0
LINE
  8
0-2
  6
CONTINUOUS
 62
    3
 10
836.59074
 20
1578.5063
 11
837.09997
 21
1578.6688
  0
LINE
  8
0-2
  6
CONTINUOUS
 62
    3
 10
837.09997
 20
1578.6688
 11
837.61817
 21
1578.7966
  0
LINE
  8
0-2
  6
CONTINUOUS
 62
    3
 10
837.61817
 20
1578.7966
 11
838.14367
 21
1578.8902
  0
LINE
  8
0-2
  6
CONTINUOUS
 62
    3
 10
838.14367
 20
1578.8902
 11
838.67616
 21
1578.9503
  0
LINE
  8
0-2
  6
CONTINUOUS
 62
    3
 10
881.92691
 20
1578.9503
 11
882.53042
 21
1578.8217
  0
LINE
  8
0-2
  6
CONTINUOUS
 62
    3
 10
882.53042
 20
1578.8217
 11
883.12873
 21
1578.6181
  0
LINE
  8
0-2
  6
CONTINUOUS
 62
    3
 10
883.12873
 20
1578.6181
 11
883.72209
 21
1578.3385
  0
LINE
  8
0-2
  6
CONTINUOUS
 62
    3
 10
883.72209
 20
1578.3385
 11
884.31106
 21
1577.9829
  0
LINE
  8
0-2
  6
CONTINUOUS
 62
    3
 10
884.31106
 20
1577.9829
 11
884.8947
 21
1577.5531
  0
LINE
  8
0-2
  6
CONTINUOUS
 62
    3
 10
884.8947
 20
1577.5531
 11
885.47347
 21
1577.0465
  0
LINE
  8
0-2
  6
CONTINUOUS
 62
    3
 10
885.47347
 20
1577.0465
 11
886.04728
 21
1576.4636
  0
LINE
  8
0-2
  6
CONTINUOUS
 62
    3
 10
886.04728
 20
1576.4636
 11
886.61664
 21
1575.8059
  0
LINE
  8
0-2
  6
CONTINUOUS
 62
    3
 10
886.61664
 20
1575.8059
 11
887.1808
 21
1575.073
  0
LINE
  8
0-2
  6
CONTINUOUS
 62
    3
 10
873.75546
 20
1571.2795
 11
874.15155
 21
1572.3495
  0
LINE
  8
0-2
  6
CONTINUOUS
 62
    3
 10
874.15155
 20
1572.3495
 11
874.56483
 21
1573.3199
  0
LINE
  8
0-2
  6
CONTINUOUS
 62
    3
 10
874.56483
 20
1573.3199
 11
874.9934
 21
1574.1951
  0
LINE
  8
0-2
  6
CONTINUOUS
 62
    3
 10
874.9934
 20
1574.1951
 11
875.4383
 21
1574.9812
  0
LINE
  8
0-2
  6
CONTINUOUS
 62
    3
 10
875.4383
 20
1574.9812
 11
875.89835
 21
1575.682
  0
LINE
  8
0-2
  6
CONTINUOUS
 62
    3
 10
875.89835
 20
1575.682
 11
876.37312
 21
1576.3029
  0
LINE
  8
0-2
  6
CONTINUOUS
 62
    3
 10
876.37312
 20
1576.3029
 11
876.86207
 21
1576.8477
  0
LINE
  8
0-2
  6
CONTINUOUS
 62
    3
 10
876.86207
 20
1576.8477
 11
877.36536
 21
1577.3223
  0
LINE
  8
0-2
  6
CONTINUOUS
 62
    3
 10
877.36536
 20
1577.3223
 11
877.88177
 21
1577.7308
  0
LINE
  8
0-2
  6
CONTINUOUS
 62
    3
 10
877.88177
 20
1577.7308
 11
878.41178
 21
1578.0779
  0
LINE
  8
0-2
  6
CONTINUOUS
 62
    3
 10
878.41178
 20
1578.0779
 11
878.95442
 21
1578.3679
  0
LINE
  8
0-2
  6
CONTINUOUS
 62
    3
 10
878.95442
 20
1578.3679
 11
879.50942
 21
1578.608
  0
LINE
  8
0-2
  6
CONTINUOUS
 62
    3
 10
879.50942
 20
1578.608
 11
880.07631
 21
1578.8
  0
LINE
  8
0-2
  6
CONTINUOUS
 62
    3
 10
880.07631
 20
1578.8
 11
880.65482
 21
1578.9503
  0
LINE
  8
0-2
  6
CENTER2
 62
    7
 10
1055.0001
 20
2429.5939
 11
1055.0001
 21
1399.5939
  0
LINE
  8
0-2
  6
CONTINUOUS
 62
    3
 10
1485.0998
 20
2174.9299
 11
1486.5642
 21
2175.0732
  0
LINE
  8
0-2
  6
CONTINUOUS
 62
    3
 10
1486.5642
 20
2175.0732
 11
1487.984
 21
2175.4987
  0
LINE
  8
0-2
  6
CONTINUOUS
 62
    3
 10
1487.984
 20
2175.4987
 11
1489.3162
 21
2176.1935
  0
LINE
  8
0-2
  6
CONTINUOUS
 62
    3
 10
1489.3162
 20
2176.1935
 11
1490.5203
 21
2177.1364
  0
LINE
  8
0-2
  6
CONTINUOUS
 62
    3
 10
1490.5203
 20
2177.1364
 11
1491.5597
 21
2178.299
  0
LINE
  8
0-2
  6
CONTINUOUS
 62
    3
 10
1491.5597
 20
2178.299
 11
1492.4028
 21
2179.6457
  0
LINE
  8
0-2
  6
CONTINUOUS
 62
    3
 10
1492.4028
 20
2179.6457
 11
1493.024
 21
2181.1357
  0
LINE
  8
0-2
  6
CONTINUOUS
 62
    3
 10
1493.024
 20
2181.1357
 11
1493.4045
 21
2182.7237
  0
LINE
  8
0-2
  6
CONTINUOUS
 62
    3
 10
1493.4045
 20
2182.7237
 11
1493.5326
 21
2184.3615
  0
LINE
  8
0-2
  6
CONTINUOUS
 62
    3
 10
1493.5326
 20
2184.3615
 11
1493.4045
 21
2185.9992
  0
LINE
  8
0-2
  6
CONTINUOUS
 62
    3
 10
1493.4045
 20
2185.9992
 11
1493.024
 21
2187.5872
  0
LINE
  8
0-2
  6
CONTINUOUS
 62
    3
 10
1493.024
 20
2187.5872
 11
1492.4028
 21
2189.0772
  0
LINE
  8
0-2
  6
CONTINUOUS
 62
    3
 10
1492.4028
 20
2189.0772
 11
1491.5597
 21
2190.424
  0
LINE
  8
0-2
  6
CONTINUOUS
 62
    3
 10
1491.5597
 20
2190.424
 11
1490.5203
 21
2191.5865
  0
LINE
  8
0-2
  6
CONTINUOUS
 62
    3
 10
1490.5203
 20
2191.5865
 11
1489.3162
 21
2192.5294
  0
LINE
  8
0-2
  6
CONTINUOUS
 62
    3
 10
1489.3162
 20
2192.5294
 11
1487.984
 21
2193.2242
  0
LINE
  8
0-2
  6
CONTINUOUS
 62
    3
 10
1487.984
 20
2193.2242
 11
1486.5642
 21
2193.6497
  0
LINE
  8
0-2
  6
CONTINUOUS
 62
    3
 10
1486.5642
 20
2193.6497
 11
1485.0998
 21
2193.793
  0
LINE
  8
0-2
  6
CONTINUOUS
 62
    3
 10
1485.0998
 20
2193.793
 11
1485.0998
 21
2193.793
  0
LINE
  8
0-2
  6
CONTINUOUS
 62
    3
 10
624.90002
 20
2080.6076
 11
623.43568
 21
2080.4643
  0
LINE
  8
0-2
  6
CONTINUOUS
 62
    3
 10
623.43568
 20
2080.4643
 11
622.01584
 21
2080.0388
  0
LINE
  8
0-2
  6
CONTINUOUS
 62
    3
 10
622.01584
 20
2080.0388
 11
620.68363
 21
2079.344
  0
LINE
  8
0-2
  6
CONTINUOUS
 62
    3
 10
620.68363
 20
2079.344
 11
619.47954
 21
2078.401
  0
LINE
  8
0-2
  6
CONTINUOUS
 62
    3
 10
619.47954
 20
2078.401
 11
618.44014
 21
2077.2385
  0
LINE
  8
0-2
  6
CONTINUOUS
 62
    3
 10
618.44014
 20
2077.2385
 11
617.59702
 21
2075.8918
  0
LINE
  8
0-2
  6
CONTINUOUS
 62
    3
 10
617.59702
 20
2075.8918
 11
616.9758
 21
2074.4018
  0
LINE
  8
0-2
  6
CONTINUOUS
 62
    3
 10
616.9758
 20
2074.4018
 11
616.59536
 21
2072.8138
  0
LINE
  8
0-2
  6
CONTINUOUS
 62
    3
 10
616.59536
 20
2072.8138
 11
616.46725
 21
2071.176
  0
LINE
  8
0-2
  6
CONTINUOUS
 62
    3
 10
616.46725
 20
2071.176
 11
616.59536
 21
2069.5383
  0
LINE
  8
0-2
  6
CONTINUOUS
 62
    3
 10
616.59536
 20
2069.5383
 11
616.9758
 21
2067.9502
  0
LINE
  8
0-2
  6
CONTINUOUS
 62
    3
 10
616.9758
 20
2067.9502
 11
617.59702
 21
2066.4602
  0
LINE
  8
0-2
  6
CONTINUOUS
 62
    3
 10
617.59702
 20
2066.4602
 11
618.44014
 21
2065.1135
  0
LINE
  8
0-2
  6
CONTINUOUS
 62
    3
 10
618.44014
 20
2065.1135
 11
619.47954
 21
2063.951
  0
LINE
  8
0-2
  6
CONTINUOUS
 62
    3
 10
619.47954
 20
2063.951
 11
620.68363
 21
2063.0081
  0
LINE
  8
0-2
  6
CONTINUOUS
 62
    3
 10
620.68363
 20
2063.0081
 11
622.01584
 21
2062.3133
  0
LINE
  8
0-2
  6
CONTINUOUS
 62
    3
 10
622.01584
 20
2062.3133
 11
623.43568
 21
2061.8877
  0
LINE
  8
0-2
  6
CONTINUOUS
 62
    3
 10
623.43568
 20
2061.8877
 11
624.90002
 21
2061.7445
  0
LINE
  8
0-2
  6
CONTINUOUS
 62
    3
 10
1485.0998
 20
2061.7445
 11
1486.5642
 21
2061.8877
  0
LINE
  8
0-2
  6
CONTINUOUS
 62
    3
 10
1486.5642
 20
2061.8877
 11
1487.984
 21
2062.3133
  0
LINE
  8
0-2
  6
CONTINUOUS
 62
    3
 10
1487.984
 20
2062.3133
 11
1489.3162
 21
2063.0081
  0
LINE
  8
0-2
  6
CONTINUOUS
 62
    3
 10
1489.3162
 20
2063.0081
 11
1490.5203
 21
2063.951
  0
LINE
  8
0-2
  6
CONTINUOUS
 62
    3
 10
1490.5203
 20
2063.951
 11
1491.5597
 21
2065.1135
  0
LINE
  8
0-2
  6
CONTINUOUS
 62
    3
 10
1491.5597
 20
2065.1135
 11
1492.4028
 21
2066.4602
  0
LINE
  8
0-2
  6
CONTINUOUS
 62
    3
 10
1492.4028
 20
2066.4602
 11
1493.024
 21
2067.9502
  0
LINE
  8
0-2
  6
CONTINUOUS
 62
    3
 10
1493.024
 20
2067.9502
 11
1493.4045
 21
2069.5383
  0
LINE
  8
0-2
  6
CONTINUOUS
 62
    3
 10
1493.4045
 20
2069.5383
 11
1493.5326
 21
2071.176
  0
LINE
  8
0-2
  6
CONTINUOUS
 62
    3
 10
1493.5326
 20
2071.176
 11
1493.4045
 21
2072.8138
  0
LINE
  8
0-2
  6
CONTINUOUS
 62
    3
 10
1493.4045
 20
2072.8138
 11
1493.024
 21
2074.4018
  0
LINE
  8
0-2
  6
CONTINUOUS
 62
    3
 10
1493.024
 20
2074.4018
 11
1492.4028
 21
2075.8918
  0
LINE
  8
0-2
  6
CONTINUOUS
 62
    3
 10
1492.4028
 20
2075.8918
 11
1491.5597
 21
2077.2385
  0
LINE
  8
0-2
  6
CONTINUOUS
 62
    3
 10
1491.5597
 20
2077.2385
 11
1490.5203
 21
2078.401
  0
LINE
  8
0-2
  6
CONTINUOUS
 62
    3
 10
1490.5203
 20
2078.401
 11
1489.3162
 21
2079.344
  0
LINE
  8
0-2
  6
CONTINUOUS
 62
    3
 10
1489.3162
 20
2079.344
 11
1487.984
 21
2080.0388
  0
LINE
  8
0-2
  6
CONTINUOUS
 62
    3
 10
1487.984
 20
2080.0388
 11
1486.5642
 21
2080.4643
  0
LINE
  8
0-2
  6
CONTINUOUS
 62
    3
 10
1486.5642
 20
2080.4643
 11
1485.0998
 21
2080.6076
  0
LINE
  8
0-2
  6
CONTINUOUS
 62
    3
 10
1485.0998
 20
2080.6076
 11
1485.0998
 21
2080.6076
  0
LINE
  8
0-2
  6
CONTINUOUS
 62
    3
 10
804.7203
 20
2089.2864
 11
804.64343
 21
2090.2691
  0
LINE
  8
0-2
  6
CONTINUOUS
 62
    3
 10
804.64343
 20
2090.2691
 11
804.41515
 21
2091.222
  0
LINE
  8
0-2
  6
CONTINUOUS
 62
    3
 10
804.41515
 20
2091.222
 11
804.0424
 21
2092.116
  0
LINE
  8
0-2
  6
CONTINUOUS
 62
    3
 10
804.0424
 20
2092.116
 11
803.53651
 21
2092.9241
  0
LINE
  8
0-2
  6
CONTINUOUS
 62
    3
 10
803.53651
 20
2092.9241
 11
802.91284
 21
2093.6216
  0
LINE
  8
0-2
  6
CONTINUOUS
 62
    3
 10
802.91284
 20
2093.6216
 11
802.19035
 21
2094.1874
  0
LINE
  8
0-2
  6
CONTINUOUS
 62
    3
 10
802.19035
 20
2094.1874
 11
801.39099
 21
2094.6043
  0
LINE
  8
0-2
  6
CONTINUOUS
 62
    3
 10
801.39099
 20
2094.6043
 11
800.53905
 21
2094.8596
  0
LINE
  8
0-2
  6
CONTINUOUS
 62
    3
 10
800.53905
 20
2094.8596
 11
799.6604
 21
2094.9456
  0
LINE
  8
0-2
  6
CONTINUOUS
 62
    3
 10
799.6604
 20
2094.9456
 11
798.78176
 21
2094.8596
  0
LINE
  8
0-2
  6
CONTINUOUS
 62
    3
 10
798.78176
 20
2094.8596
 11
797.92982
 21
2094.6043
  0
LINE
  8
0-2
  6
CONTINUOUS
 62
    3
 10
797.92982
 20
2094.6043
 11
797.13045
 21
2094.1874
  0
LINE
  8
0-2
  6
CONTINUOUS
 62
    3
 10
797.13045
 20
2094.1874
 11
796.40796
 21
2093.6216
  0
LINE
  8
0-2
  6
CONTINUOUS
 62
    3
 10
796.40796
 20
2093.6216
 11
795.7843
 21
2092.9241
  0
LINE
  8
0-2
  6
CONTINUOUS
 62
    3
 10
795.7843
 20
2092.9241
 11
795.2784
 21
2092.116
  0
LINE
  8
0-2
  6
CONTINUOUS
 62
    3
 10
795.2784
 20
2092.116
 11
794.90565
 21
2091.222
  0
LINE
  8
0-2
  6
CONTINUOUS
 62
    3
 10
794.90565
 20
2091.222
 11
794.67738
 21
2090.2691
  0
LINE
  8
0-2
  6
CONTINUOUS
 62
    3
 10
794.67738
 20
2090.2691
 11
794.60051
 21
2089.2864
  0
LINE
  8
0-2
  6
CONTINUOUS
 62
    3
 10
794.60051
 20
2089.2864
 11
794.67738
 21
2088.3037
  0
LINE
  8
0-2
  6
CONTINUOUS
 62
    3
 10
794.67738
 20
2088.3037
 11
794.90565
 21
2087.3508
  0
LINE
  8
0-2
  6
CONTINUOUS
 62
    3
 10
794.90565
 20
2087.3508
 11
795.2784
 21
2086.4568
  0
LINE
  8
0-2
  6
CONTINUOUS
 62
    3
 10
795.2784
 20
2086.4568
 11
795.7843
 21
2085.6487
  0
LINE
  8
0-2
  6
CONTINUOUS
 62
    3
 10
795.7843
 20
2085.6487
 11
796.40796
 21
2084.9512
  0
LINE
  8
0-2
  6
CONTINUOUS
 62
    3
 10
796.40796
 20
2084.9512
 11
797.13045
 21
2084.3854
  0
LINE
  8
0-2
  6
CONTINUOUS
 62
    3
 10
797.13045
 20
2084.3854
 11
797.92982
 21
2083.9685
  0
LINE
  8
0-2
  6
CONTINUOUS
 62
    3
 10
797.92982
 20
2083.9685
 11
798.78176
 21
2083.7132
  0
LINE
  8
0-2
  6
CONTINUOUS
 62
    3
 10
798.78176
 20
2083.7132
 11
799.6604
 21
2083.6272
  0
LINE
  8
0-2
  6
CONTINUOUS
 62
    3
 10
799.6604
 20
2083.6272
 11
800.53905
 21
2083.7132
  0
LINE
  8
0-2
  6
CONTINUOUS
 62
    3
 10
800.53905
 20
2083.7132
 11
801.39099
 21
2083.9685
  0
LINE
  8
0-2
  6
CONTINUOUS
 62
    3
 10
801.39099
 20
2083.9685
 11
802.19035
 21
2084.3854
  0
LINE
  8
0-2
  6
CONTINUOUS
 62
    3
 10
802.19035
 20
2084.3854
 11
802.91284
 21
2084.9512
  0
LINE
  8
0-2
  6
CONTINUOUS
 62
    3
 10
802.91284
 20
2084.9512
 11
803.53651
 21
2085.6487
  0
LINE
  8
0-2
  6
CONTINUOUS
 62
    3
 10
803.53651
 20
2085.6487
 11
804.0424
 21
2086.4568
  0
LINE
  8
0-2
  6
CONTINUOUS
 62
    3
 10
804.0424
 20
2086.4568
 11
804.41515
 21
2087.3508
  0
LINE
  8
0-2
  6
CONTINUOUS
 62
    3
 10
804.41515
 20
2087.3508
 11
804.64343
 21
2088.3037
  0
LINE
  8
0-2
  6
CONTINUOUS
 62
    3
 10
804.64343
 20
2088.3037
 11
804.7203
 21
2089.2864
  0
LINE
  8
0-2
  6
CONTINUOUS
 62
    3
 10
1020.4449
 20
2288.1132
 11
1020.8867
 21
2286.4678
  0
LINE
  8
0-2
  6
CONTINUOUS
 62
    3
 10
1020.8867
 20
2286.4678
 11
1021.5773
 21
2284.9333
  0
LINE
  8
0-2
  6
CONTINUOUS
 62
    3
 10
1021.5773
 20
2284.9333
 11
1022.4956
 21
2283.5562
  0
LINE
  8
0-2
  6
CONTINUOUS
 62
    3
 10
1022.4956
 20
2283.5562
 11
1023.6138
 21
2282.3783
  0
LINE
  8
0-2
  6
CONTINUOUS
 62
    3
 10
1023.6138
 20
2282.3783
 11
1024.8978
 21
2281.4356
  0
LINE
  8
0-2
  6
CONTINUOUS
 62
    3
 10
1024.8978
 20
2281.4356
 11
1026.3087
 21
2280.7565
  0
LINE
  8
0-2
  6
CONTINUOUS
 62
    3
 10
1026.3087
 20
2280.7565
 11
1027.8036
 21
2280.3618
  0
LINE
  8
0-2
  6
CONTINUOUS
 62
    3
 10
1027.8036
 20
2280.3618
 11
1029.3371
 21
2280.2633
  0
LINE
  8
0-2
  6
CONTINUOUS
 62
    3
 10
1029.3371
 20
2280.2633
 11
1030.8626
 21
2280.4643
  0
LINE
  8
0-2
  6
CONTINUOUS
 62
    3
 10
1030.8626
 20
2280.4643
 11
1032.3337
 21
2280.9584
  0
LINE
  8
0-2
  6
CONTINUOUS
 62
    3
 10
1032.3337
 20
2280.9584
 11
1033.7057
 21
2281.7307
  0
LINE
  8
0-2
  6
CONTINUOUS
 62
    3
 10
1033.7057
 20
2281.7307
 11
1034.937
 21
2282.7578
  0
LINE
  8
0-2
  6
CONTINUOUS
 62
    3
 10
1034.937
 20
2282.7578
 11
1035.9901
 21
2284.0084
  0
LINE
  8
0-2
  6
CONTINUOUS
 62
    3
 10
1035.9901
 20
2284.0084
 11
1036.8331
 21
2285.4446
  0
LINE
  8
0-2
  6
CONTINUOUS
 62
    3
 10
1036.8331
 20
2285.4446
 11
1037.4402
 21
2287.0226
  0
LINE
  8
0-2
  6
CONTINUOUS
 62
    3
 10
1037.4402
 20
2287.0226
 11
1037.7015
 21
2288.1132
  0
LINE
  8
0-2
  6
CONTINUOUS
 62
    3
 10
624.90027
 20
1684.463
 11
623.43593
 21
1684.3197
  0
LINE
  8
0-2
  6
CONTINUOUS
 62
    3
 10
623.43593
 20
1684.3197
 11
622.01609
 21
1683.8942
  0
LINE
  8
0-2
  6
CONTINUOUS
 62
    3
 10
622.01609
 20
1683.8942
 11
620.68388
 21
1683.1994
  0
LINE
  8
0-2
  6
CONTINUOUS
 62
    3
 10
620.68388
 20
1683.1994
 11
619.47978
 21
1682.2564
  0
LINE
  8
0-2
  6
CONTINUOUS
 62
    3
 10
619.47978
 20
1682.2564
 11
618.44039
 21
1681.0939
  0
LINE
  8
0-2
  6
CONTINUOUS
 62
    3
 10
618.44039
 20
1681.0939
 11
617.59727
 21
1679.7472
  0
LINE
  8
0-2
  6
CONTINUOUS
 62
    3
 10
617.59727
 20
1679.7472
 11
616.97605
 21
1678.2572
  0
LINE
  8
0-2
  6
CONTINUOUS
 62
    3
 10
616.97605
 20
1678.2572
 11
616.59561
 21
1676.6692
  0
LINE
  8
0-2
  6
CONTINUOUS
 62
    3
 10
616.59561
 20
1676.6692
 11
616.46749
 21
1675.0314
  0
LINE
  8
0-2
  6
CONTINUOUS
 62
    3
 10
616.46749
 20
1675.0314
 11
616.59561
 21
1673.3936
  0
LINE
  8
0-2
  6
CONTINUOUS
 62
    3
 10
616.59561
 20
1673.3936
 11
616.97605
 21
1671.8056
  0
LINE
  8
0-2
  6
CONTINUOUS
 62
    3
 10
616.97605
 20
1671.8056
 11
617.59727
 21
1670.3156
  0
LINE
  8
0-2
  6
CONTINUOUS
 62
    3
 10
617.59727
 20
1670.3156
 11
618.44039
 21
1668.9689
  0
LINE
  8
0-2
  6
CONTINUOUS
 62
    3
 10
618.44039
 20
1668.9689
 11
619.47978
 21
1667.8064
  0
LINE
  8
0-2
  6
CONTINUOUS
 62
    3
 10
619.47978
 20
1667.8064
 11
620.68388
 21
1666.8634
  0
LINE
  8
0-2
  6
CONTINUOUS
 62
    3
 10
620.68388
 20
1666.8634
 11
622.01609
 21
1666.1686
  0
LINE
  8
0-2
  6
CONTINUOUS
 62
    3
 10
622.01609
 20
1666.1686
 11
623.43593
 21
1665.7431
  0
LINE
  8
0-2
  6
CONTINUOUS
 62
    3
 10
623.43593
 20
1665.7431
 11
624.90027
 21
1665.5998
  0
LINE
  8
0-2
  6
CONTINUOUS
 62
    3
 10
624.90126
 20
1797.6483
 11
623.43692
 21
1797.505
  0
LINE
  8
0-2
  6
CONTINUOUS
 62
    3
 10
623.43692
 20
1797.505
 11
622.01708
 21
1797.0795
  0
LINE
  8
0-2
  6
CONTINUOUS
 62
    3
 10
622.01708
 20
1797.0795
 11
620.68487
 21
1796.3847
  0
LINE
  8
0-2
  6
CONTINUOUS
 62
    3
 10
620.68487
 20
1796.3847
 11
619.48077
 21
1795.4417
  0
LINE
  8
0-2
  6
CONTINUOUS
 62
    3
 10
619.48077
 20
1795.4417
 11
618.44138
 21
1794.2792
  0
LINE
  8
0-2
  6
CONTINUOUS
 62
    3
 10
618.44138
 20
1794.2792
 11
617.59826
 21
1792.9325
  0
LINE
  8
0-2
  6
CONTINUOUS
 62
    3
 10
617.59826
 20
1792.9325
 11
616.97704
 21
1791.4425
  0
LINE
  8
0-2
  6
CONTINUOUS
 62
    3
 10
616.97704
 20
1791.4425
 11
616.5966
 21
1789.8545
  0
LINE
  8
0-2
  6
CONTINUOUS
 62
    3
 10
616.5966
 20
1789.8545
 11
616.46848
 21
1788.2167
  0
LINE
  8
0-2
  6
CONTINUOUS
 62
    3
 10
616.46848
 20
1788.2167
 11
616.5966
 21
1786.5789
  0
LINE
  8
0-2
  6
CONTINUOUS
 62
    3
 10
616.5966
 20
1786.5789
 11
616.97704
 21
1784.9909
  0
LINE
  8
0-2
  6
CONTINUOUS
 62
    3
 10
616.97704
 20
1784.9909
 11
617.59826
 21
1783.5009
  0
LINE
  8
0-2
  6
CONTINUOUS
 62
    3
 10
617.59826
 20
1783.5009
 11
618.44138
 21
1782.1542
  0
LINE
  8
0-2
  6
CONTINUOUS
 62
    3
 10
618.44138
 20
1782.1542
 11
619.48077
 21
1780.9917
  0
LINE
  8
0-2
  6
CONTINUOUS
 62
    3
 10
619.48077
 20
1780.9917
 11
620.68487
 21
1780.0487
  0
LINE
  8
0-2
  6
CONTINUOUS
 62
    3
 10
620.68487
 20
1780.0487
 11
622.01708
 21
1779.3539
  0
LINE
  8
0-2
  6
CONTINUOUS
 62
    3
 10
622.01708
 20
1779.3539
 11
623.43692
 21
1778.9284
  0
LINE
  8
0-2
  6
CONTINUOUS
 62
    3
 10
623.43692
 20
1778.9284
 11
624.90126
 21
1778.7851
  0
LINE
  8
0-2
  6
CONTINUOUS
 62
    3
 10
1485.1011
 20
1778.7851
 11
1486.5654
 21
1778.9284
  0
LINE
  8
0-2
  6
CONTINUOUS
 62
    3
 10
1486.5654
 20
1778.9284
 11
1487.9852
 21
1779.3539
  0
LINE
  8
0-2
  6
CONTINUOUS
 62
    3
 10
1487.9852
 20
1779.3539
 11
1489.3174
 21
1780.0487
  0
LINE
  8
0-2
  6
CONTINUOUS
 62
    3
 10
1489.3174
 20
1780.0487
 11
1490.5215
 21
1780.9917
  0
LINE
  8
0-2
  6
CONTINUOUS
 62
    3
 10
1490.5215
 20
1780.9917
 11
1491.5609
 21
1782.1542
  0
LINE
  8
0-2
  6
CONTINUOUS
 62
    3
 10
1491.5609
 20
1782.1542
 11
1492.4041
 21
1783.5009
  0
LINE
  8
0-2
  6
CONTINUOUS
 62
    3
 10
1492.4041
 20
1783.5009
 11
1493.0253
 21
1784.9909
  0
LINE
  8
0-2
  6
CONTINUOUS
 62
    3
 10
1493.0253
 20
1784.9909
 11
1493.4057
 21
1786.5789
  0
LINE
  8
0-2
  6
CONTINUOUS
 62
    3
 10
1493.4057
 20
1786.5789
 11
1493.5338
 21
1788.2167
  0
LINE
  8
0-2
  6
CONTINUOUS
 62
    3
 10
1493.5338
 20
1788.2167
 11
1493.4057
 21
1789.8545
  0
LINE
  8
0-2
  6
CONTINUOUS
 62
    3
 10
1493.4057
 20
1789.8545
 11
1493.0253
 21
1791.4425
  0
LINE
  8
0-2
  6
CONTINUOUS
 62
    3
 10
1493.0253
 20
1791.4425
 11
1492.4041
 21
1792.9325
  0
LINE
  8
0-2
  6
CONTINUOUS
 62
    3
 10
1492.4041
 20
1792.9325
 11
1491.5609
 21
1794.2792
  0
LINE
  8
0-2
  6
CONTINUOUS
 62
    3
 10
1491.5609
 20
1794.2792
 11
1490.5215
 21
1795.4417
  0
LINE
  8
0-2
  6
CONTINUOUS
 62
    3
 10
1490.5215
 20
1795.4417
 11
1489.3174
 21
1796.3847
  0
LINE
  8
0-2
  6
CONTINUOUS
 62
    3
 10
1489.3174
 20
1796.3847
 11
1487.9852
 21
1797.0795
  0
LINE
  8
0-2
  6
CONTINUOUS
 62
    3
 10
1487.9852
 20
1797.0795
 11
1486.5654
 21
1797.505
  0
LINE
  8
0-2
  6
CONTINUOUS
 62
    3
 10
1486.5654
 20
1797.505
 11
1485.1011
 21
1797.6483
  0
LINE
  8
0-2
  6
CONTINUOUS
 62
    3
 10
1485.1011
 20
1797.6483
 11
1485.1011
 21
1797.6483
  0
LINE
  8
0-2
  6
CONTINUOUS
 62
    3
 10
624.90002
 20
2193.793
 11
623.43568
 21
2193.6497
  0
LINE
  8
0-2
  6
CONTINUOUS
 62
    3
 10
623.43568
 20
2193.6497
 11
622.01584
 21
2193.2242
  0
LINE
  8
0-2
  6
CONTINUOUS
 62
    3
 10
622.01584
 20
2193.2242
 11
620.68363
 21
2192.5294
  0
LINE
  8
0-2
  6
CONTINUOUS
 62
    3
 10
620.68363
 20
2192.5294
 11
619.47954
 21
2191.5865
  0
LINE
  8
0-2
  6
CONTINUOUS
 62
    3
 10
619.47954
 20
2191.5865
 11
618.44014
 21
2190.424
  0
LINE
  8
0-2
  6
CONTINUOUS
 62
    3
 10
618.44014
 20
2190.424
 11
617.59702
 21
2189.0772
  0
LINE
  8
0-2
  6
CONTINUOUS
 62
    3
 10
617.59702
 20
2189.0772
 11
616.9758
 21
2187.5872
  0
LINE
  8
0-2
  6
CONTINUOUS
 62
    3
 10
616.9758
 20
2187.5872
 11
616.59536
 21
2185.9992
  0
LINE
  8
0-2
  6
CONTINUOUS
 62
    3
 10
616.59536
 20
2185.9992
 11
616.46725
 21
2184.3615
  0
LINE
  8
0-2
  6
CONTINUOUS
 62
    3
 10
616.46725
 20
2184.3615
 11
616.59536
 21
2182.7237
  0
LINE
  8
0-2
  6
CONTINUOUS
 62
    3
 10
616.59536
 20
2182.7237
 11
616.9758
 21
2181.1357
  0
LINE
  8
0-2
  6
CONTINUOUS
 62
    3
 10
616.9758
 20
2181.1357
 11
617.59702
 21
2179.6457
  0
LINE
  8
0-2
  6
CONTINUOUS
 62
    3
 10
617.59702
 20
2179.6457
 11
618.44014
 21
2178.299
  0
LINE
  8
0-2
  6
CONTINUOUS
 62
    3
 10
618.44014
 20
2178.299
 11
619.47954
 21
2177.1364
  0
LINE
  8
0-2
  6
CONTINUOUS
 62
    3
 10
619.47954
 20
2177.1364
 11
620.68363
 21
2176.1935
  0
LINE
  8
0-2
  6
CONTINUOUS
 62
    3
 10
620.68363
 20
2176.1935
 11
622.01584
 21
2175.4987
  0
LINE
  8
0-2
  6
CONTINUOUS
 62
    3
 10
622.01584
 20
2175.4987
 11
623.43568
 21
2175.0732
  0
LINE
  8
0-2
  6
CONTINUOUS
 62
    3
 10
623.43568
 20
2175.0732
 11
624.90002
 21
2174.9299
  0
LINE
  8
0-2
  6
CONTINUOUS
 62
    3
 10
1485.1003
 20
1665.5998
 11
1486.5646
 21
1665.7431
  0
LINE
  8
0-2
  6
CONTINUOUS
 62
    3
 10
1486.5646
 20
1665.7431
 11
1487.9845
 21
1666.1686
  0
LINE
  8
0-2
  6
CONTINUOUS
 62
    3
 10
1487.9845
 20
1666.1686
 11
1489.3167
 21
1666.8634
  0
LINE
  8
0-2
  6
CONTINUOUS
 62
    3
 10
1489.3167
 20
1666.8634
 11
1490.5208
 21
1667.8064
  0
LINE
  8
0-2
  6
CONTINUOUS
 62
    3
 10
1490.5208
 20
1667.8064
 11
1491.5602
 21
1668.9689
  0
LINE
  8
0-2
  6
CONTINUOUS
 62
    3
 10
1491.5602
 20
1668.9689
 11
1492.4033
 21
1670.3156
  0
LINE
  8
0-2
  6
CONTINUOUS
 62
    3
 10
1492.4033
 20
1670.3156
 11
1493.0245
 21
1671.8056
  0
LINE
  8
0-2
  6
CONTINUOUS
 62
    3
 10
1493.0245
 20
1671.8056
 11
1493.405
 21
1673.3936
  0
LINE
  8
0-2
  6
CONTINUOUS
 62
    3
 10
1493.405
 20
1673.3936
 11
1493.5331
 21
1675.0314
  0
LINE
  8
0-2
  6
CONTINUOUS
 62
    3
 10
1493.5331
 20
1675.0314
 11
1493.405
 21
1676.6692
  0
LINE
  8
0-2
  6
CONTINUOUS
 62
    3
 10
1493.405
 20
1676.6692
 11
1493.0245
 21
1678.2572
  0
LINE
  8
0-2
  6
CONTINUOUS
 62
    3
 10
1493.0245
 20
1678.2572
 11
1492.4033
 21
1679.7472
  0
LINE
  8
0-2
  6
CONTINUOUS
 62
    3
 10
1492.4033
 20
1679.7472
 11
1491.5602
 21
1681.0939
  0
LINE
  8
0-2
  6
CONTINUOUS
 62
    3
 10
1491.5602
 20
1681.0939
 11
1490.5208
 21
1682.2564
  0
LINE
  8
0-2
  6
CONTINUOUS
 62
    3
 10
1490.5208
 20
1682.2564
 11
1489.3167
 21
1683.1994
  0
LINE
  8
0-2
  6
CONTINUOUS
 62
    3
 10
1489.3167
 20
1683.1994
 11
1487.9845
 21
1683.8942
  0
LINE
  8
0-2
  6
CONTINUOUS
 62
    3
 10
1487.9845
 20
1683.8942
 11
1486.5646
 21
1684.3197
  0
LINE
  8
0-2
  6
CONTINUOUS
 62
    3
 10
1486.5646
 20
1684.3197
 11
1485.1003
 21
1684.463
  0
LINE
  8
0-2
  6
CONTINUOUS
 62
    3
 10
1485.1003
 20
1684.463
 11
1485.1003
 21
1684.463
  0
LINE
  8
0-2
  6
CONTINUOUS
 62
    3
 10
804.7203
 20
2156.8919
 11
804.64343
 21
2157.8746
  0
LINE
  8
0-2
  6
CONTINUOUS
 62
    3
 10
804.64343
 20
2157.8746
 11
804.41515
 21
2158.8275
  0
LINE
  8
0-2
  6
CONTINUOUS
 62
    3
 10
804.41515
 20
2158.8275
 11
804.0424
 21
2159.7215
  0
LINE
  8
0-2
  6
CONTINUOUS
 62
    3
 10
804.0424
 20
2159.7215
 11
803.53651
 21
2160.5296
  0
LINE
  8
0-2
  6
CONTINUOUS
 62
    3
 10
803.53651
 20
2160.5296
 11
802.91284
 21
2161.2271
  0
LINE
  8
0-2
  6
CONTINUOUS
 62
    3
 10
802.91284
 20
2161.2271
 11
802.19035
 21
2161.7929
  0
LINE
  8
0-2
  6
CONTINUOUS
 62
    3
 10
802.19035
 20
2161.7929
 11
801.39099
 21
2162.2098
  0
LINE
  8
0-2
  6
CONTINUOUS
 62
    3
 10
801.39099
 20
2162.2098
 11
800.53905
 21
2162.4652
  0
LINE
  8
0-2
  6
CONTINUOUS
 62
    3
 10
800.53905
 20
2162.4652
 11
799.6604
 21
2162.5511
  0
LINE
  8
0-2
  6
CONTINUOUS
 62
    3
 10
799.6604
 20
2162.5511
 11
798.78176
 21
2162.4652
  0
LINE
  8
0-2
  6
CONTINUOUS
 62
    3
 10
798.78176
 20
2162.4652
 11
797.92982
 21
2162.2098
  0
LINE
  8
0-2
  6
CONTINUOUS
 62
    3
 10
797.92982
 20
2162.2098
 11
797.13045
 21
2161.7929
  0
LINE
  8
0-2
  6
CONTINUOUS
 62
    3
 10
797.13045
 20
2161.7929
 11
796.40796
 21
2161.2271
  0
LINE
  8
0-2
  6
CONTINUOUS
 62
    3
 10
796.40796
 20
2161.2271
 11
795.7843
 21
2160.5296
  0
LINE
  8
0-2
  6
CONTINUOUS
 62
    3
 10
795.7843
 20
2160.5296
 11
795.2784
 21
2159.7215
  0
LINE
  8
0-2
  6
CONTINUOUS
 62
    3
 10
795.2784
 20
2159.7215
 11
794.90565
 21
2158.8275
  0
LINE
  8
0-2
  6
CONTINUOUS
 62
    3
 10
794.90565
 20
2158.8275
 11
794.67738
 21
2157.8746
  0
LINE
  8
0-2
  6
CONTINUOUS
 62
    3
 10
794.67738
 20
2157.8746
 11
794.60051
 21
2156.8919
  0
LINE
  8
0-2
  6
CONTINUOUS
 62
    3
 10
794.60051
 20
2156.8919
 11
794.67738
 21
2155.9092
  0
LINE
  8
0-2
  6
CONTINUOUS
 62
    3
 10
794.67738
 20
2155.9092
 11
794.90565
 21
2154.9564
  0
LINE
  8
0-2
  6
CONTINUOUS
 62
    3
 10
794.90565
 20
2154.9564
 11
795.2784
 21
2154.0623
  0
LINE
  8
0-2
  6
CONTINUOUS
 62
    3
 10
795.2784
 20
2154.0623
 11
795.7843
 21
2153.2542
  0
LINE
  8
0-2
  6
CONTINUOUS
 62
    3
 10
795.7843
 20
2153.2542
 11
796.40796
 21
2152.5567
  0
LINE
  8
0-2
  6
CONTINUOUS
 62
    3
 10
796.40796
 20
2152.5567
 11
797.13045
 21
2151.9909
  0
LINE
  8
0-2
  6
CONTINUOUS
 62
    3
 10
797.13045
 20
2151.9909
 11
797.92982
 21
2151.574
  0
LINE
  8
0-2
  6
CONTINUOUS
 62
    3
 10
797.92982
 20
2151.574
 11
798.78176
 21
2151.3187
  0
LINE
  8
0-2
  6
CONTINUOUS
 62
    3
 10
798.78176
 20
2151.3187
 11
799.6604
 21
2151.2327
  0
LINE
  8
0-2
  6
CONTINUOUS
 62
    3
 10
799.6604
 20
2151.2327
 11
800.53905
 21
2151.3187
  0
LINE
  8
0-2
  6
CONTINUOUS
 62
    3
 10
800.53905
 20
2151.3187
 11
801.39099
 21
2151.574
  0
LINE
  8
0-2
  6
CONTINUOUS
 62
    3
 10
801.39099
 20
2151.574
 11
802.19035
 21
2151.9909
  0
LINE
  8
0-2
  6
CONTINUOUS
 62
    3
 10
802.19035
 20
2151.9909
 11
802.91284
 21
2152.5567
  0
LINE
  8
0-2
  6
CONTINUOUS
 62
    3
 10
802.91284
 20
2152.5567
 11
803.53651
 21
2153.2542
  0
LINE
  8
0-2
  6
CONTINUOUS
 62
    3
 10
803.53651
 20
2153.2542
 11
804.0424
 21
2154.0623
  0
LINE
  8
0-2
  6
CONTINUOUS
 62
    3
 10
804.0424
 20
2154.0623
 11
804.41515
 21
2154.9564
  0
LINE
  8
0-2
  6
CONTINUOUS
 62
    3
 10
804.41515
 20
2154.9564
 11
804.64343
 21
2155.9092
  0
LINE
  8
0-2
  6
CONTINUOUS
 62
    3
 10
804.64343
 20
2155.9092
 11
804.7203
 21
2156.8919
  0
ARC
  8
0-2
  6
CONTINUOUS
 62
    3
 10
1409.3356
 20
2139.6164
 40
6.3264764
 50
268.77102
 51
91.228973
  0
ARC
  8
0-2
  6
CONTINUOUS
 62
    3
 10
1409.3356
 20
1708.5436
 40
6.3264764
 50
268.77102
 51
91.228973
  0
ARC
  8
0-2
  6
CONTINUOUS
 62
    3
 10
1312.6371
 20
1708.5436
 40
6.3264764
 50
268.77102
 51
91.228973
  0
LINE
  8
0-2
  6
CONTINUOUS
 62
    3
 10
804.7203
 20
1702.5011
 11
804.64343
 21
1703.4838
  0
LINE
  8
0-2
  6
CONTINUOUS
 62
    3
 10
804.64343
 20
1703.4838
 11
804.41515
 21
1704.4366
  0
LINE
  8
0-2
  6
CONTINUOUS
 62
    3
 10
804.41515
 20
1704.4366
 11
804.0424
 21
1705.3307
  0
LINE
  8
0-2
  6
CONTINUOUS
 62
    3
 10
804.0424
 20
1705.3307
 11
803.53651
 21
1706.1387
  0
LINE
  8
0-2
  6
CONTINUOUS
 62
    3
 10
803.53651
 20
1706.1387
 11
802.91284
 21
1706.8363
  0
LINE
  8
0-2
  6
CONTINUOUS
 62
    3
 10
802.91284
 20
1706.8363
 11
802.19035
 21
1707.4021
  0
LINE
  8
0-2
  6
CONTINUOUS
 62
    3
 10
802.19035
 20
1707.4021
 11
801.39099
 21
1707.819
  0
LINE
  8
0-2
  6
CONTINUOUS
 62
    3
 10
801.39099
 20
1707.819
 11
800.53905
 21
1708.0743
  0
LINE
  8
0-2
  6
CONTINUOUS
 62
    3
 10
800.53905
 20
1708.0743
 11
799.6604
 21
1708.1603
  0
LINE
  8
0-2
  6
CONTINUOUS
 62
    3
 10
799.6604
 20
1708.1603
 11
798.78176
 21
1708.0743
  0
LINE
  8
0-2
  6
CONTINUOUS
 62
    3
 10
798.78176
 20
1708.0743
 11
797.92982
 21
1707.819
  0
LINE
  8
0-2
  6
CONTINUOUS
 62
    3
 10
797.92982
 20
1707.819
 11
797.13045
 21
1707.4021
  0
LINE
  8
0-2
  6
CONTINUOUS
 62
    3
 10
797.13045
 20
1707.4021
 11
796.40796
 21
1706.8363
  0
LINE
  8
0-2
  6
CONTINUOUS
 62
    3
 10
796.40796
 20
1706.8363
 11
795.7843
 21
1706.1387
  0
LINE
  8
0-2
  6
CONTINUOUS
 62
    3
 10
795.7843
 20
1706.1387
 11
795.2784
 21
1705.3307
  0
LINE
  8
0-2
  6
CONTINUOUS
 62
    3
 10
795.2784
 20
1705.3307
 11
794.90565
 21
1704.4366
  0
LINE
  8
0-2
  6
CONTINUOUS
 62
    3
 10
794.90565
 20
1704.4366
 11
794.67738
 21
1703.4838
  0
LINE
  8
0-2
  6
CONTINUOUS
 62
    3
 10
794.67738
 20
1703.4838
 11
794.60051
 21
1702.5011
  0
LINE
  8
0-2
  6
CONTINUOUS
 62
    3
 10
794.60051
 20
1702.5011
 11
794.67738
 21
1701.5184
  0
LINE
  8
0-2
  6
CONTINUOUS
 62
    3
 10
794.67738
 20
1701.5184
 11
794.90565
 21
1700.5655
  0
LINE
  8
0-2
  6
CONTINUOUS
 62
    3
 10
794.90565
 20
1700.5655
 11
795.2784
 21
1699.6715
  0
LINE
  8
0-2
  6
CONTINUOUS
 62
    3
 10
795.2784
 20
1699.6715
 11
795.7843
 21
1698.8634
  0
LINE
  8
0-2
  6
CONTINUOUS
 62
    3
 10
795.7843
 20
1698.8634
 11
796.40796
 21
1698.1659
  0
LINE
  8
0-2
  6
CONTINUOUS
 62
    3
 10
796.40796
 20
1698.1659
 11
797.13045
 21
1697.6001
  0
LINE
  8
0-2
  6
CONTINUOUS
 62
    3
 10
797.13045
 20
1697.6001
 11
797.92982
 21
1697.1832
  0
LINE
  8
0-2
  6
CONTINUOUS
 62
    3
 10
797.92982
 20
1697.1832
 11
798.78176
 21
1696.9278
  0
LINE
  8
0-2
  6
CONTINUOUS
 62
    3
 10
798.78176
 20
1696.9278
 11
799.6604
 21
1696.8419
  0
LINE
  8
0-2
  6
CONTINUOUS
 62
    3
 10
799.6604
 20
1696.8419
 11
800.53905
 21
1696.9278
  0
LINE
  8
0-2
  6
CONTINUOUS
 62
    3
 10
800.53905
 20
1696.9278
 11
801.39099
 21
1697.1832
  0
LINE
  8
0-2
  6
CONTINUOUS
 62
    3
 10
801.39099
 20
1697.1832
 11
802.19035
 21
1697.6001
  0
LINE
  8
0-2
  6
CONTINUOUS
 62
    3
 10
802.19035
 20
1697.6001
 11
802.91284
 21
1698.1659
  0
LINE
  8
0-2
  6
CONTINUOUS
 62
    3
 10
802.91284
 20
1698.1659
 11
803.53651
 21
1698.8634
  0
LINE
  8
0-2
  6
CONTINUOUS
 62
    3
 10
803.53651
 20
1698.8634
 11
804.0424
 21
1699.6715
  0
LINE
  8
0-2
  6
CONTINUOUS
 62
    3
 10
804.0424
 20
1699.6715
 11
804.41515
 21
1700.5655
  0
LINE
  8
0-2
  6
CONTINUOUS
 62
    3
 10
804.41515
 20
1700.5655
 11
804.64343
 21
1701.5184
  0
LINE
  8
0-2
  6
CONTINUOUS
 62
    3
 10
804.64343
 20
1701.5184
 11
804.7203
 21
1702.5011
  0
LINE
  8
0-2
  6
CONTINUOUS
 62
    3
 10
804.7203
 20
1770.1066
 11
804.64343
 21
1771.0893
  0
LINE
  8
0-2
  6
CONTINUOUS
 62
    3
 10
804.64343
 20
1771.0893
 11
804.41515
 21
1772.0422
  0
LINE
  8
0-2
  6
CONTINUOUS
 62
    3
 10
804.41515
 20
1772.0422
 11
804.0424
 21
1772.9362
  0
LINE
  8
0-2
  6
CONTINUOUS
 62
    3
 10
804.0424
 20
1772.9362
 11
803.53651
 21
1773.7443
  0
LINE
  8
0-2
  6
CONTINUOUS
 62
    3
 10
803.53651
 20
1773.7443
 11
802.91284
 21
1774.4418
  0
LINE
  8
0-2
  6
CONTINUOUS
 62
    3
 10
802.91284
 20
1774.4418
 11
802.19035
 21
1775.0076
  0
LINE
  8
0-2
  6
CONTINUOUS
 62
    3
 10
802.19035
 20
1775.0076
 11
801.39099
 21
1775.4245
  0
LINE
  8
0-2
  6
CONTINUOUS
 62
    3
 10
801.39099
 20
1775.4245
 11
800.53905
 21
1775.6798
  0
LINE
  8
0-2
  6
CONTINUOUS
 62
    3
 10
800.53905
 20
1775.6798
 11
799.6604
 21
1775.7658
  0
LINE
  8
0-2
  6
CONTINUOUS
 62
    3
 10
799.6604
 20
1775.7658
 11
798.78176
 21
1775.6798
  0
LINE
  8
0-2
  6
CONTINUOUS
 62
    3
 10
798.78176
 20
1775.6798
 11
797.92982
 21
1775.4245
  0
LINE
  8
0-2
  6
CONTINUOUS
 62
    3
 10
797.92982
 20
1775.4245
 11
797.13045
 21
1775.0076
  0
LINE
  8
0-2
  6
CONTINUOUS
 62
    3
 10
797.13045
 20
1775.0076
 11
796.40796
 21
1774.4418
  0
LINE
  8
0-2
  6
CONTINUOUS
 62
    3
 10
796.40796
 20
1774.4418
 11
795.7843
 21
1773.7443
  0
LINE
  8
0-2
  6
CONTINUOUS
 62
    3
 10
795.7843
 20
1773.7443
 11
795.2784
 21
1772.9362
  0
LINE
  8
0-2
  6
CONTINUOUS
 62
    3
 10
795.2784
 20
1772.9362
 11
794.90565
 21
1772.0422
  0
LINE
  8
0-2
  6
CONTINUOUS
 62
    3
 10
794.90565
 20
1772.0422
 11
794.67738
 21
1771.0893
  0
LINE
  8
0-2
  6
CONTINUOUS
 62
    3
 10
794.67738
 20
1771.0893
 11
794.60051
 21
1770.1066
  0
LINE
  8
0-2
  6
CONTINUOUS
 62
    3
 10
794.60051
 20
1770.1066
 11
794.67738
 21
1769.1239
  0
LINE
  8
0-2
  6
CONTINUOUS
 62
    3
 10
794.67738
 20
1769.1239
 11
794.90565
 21
1768.171
  0
LINE
  8
0-2
  6
CONTINUOUS
 62
    3
 10
794.90565
 20
1768.171
 11
795.2784
 21
1767.277
  0
LINE
  8
0-2
  6
CONTINUOUS
 62
    3
 10
795.2784
 20
1767.277
 11
795.7843
 21
1766.4689
  0
LINE
  8
0-2
  6
CONTINUOUS
 62
    3
 10
795.7843
 20
1766.4689
 11
796.40796
 21
1765.7714
  0
LINE
  8
0-2
  6
CONTINUOUS
 62
    3
 10
796.40796
 20
1765.7714
 11
797.13045
 21
1765.2056
  0
LINE
  8
0-2
  6
CONTINUOUS
 62
    3
 10
797.13045
 20
1765.2056
 11
797.92982
 21
1764.7887
  0
LINE
  8
0-2
  6
CONTINUOUS
 62
    3
 10
797.92982
 20
1764.7887
 11
798.78176
 21
1764.5334
  0
LINE
  8
0-2
  6
CONTINUOUS
 62
    3
 10
798.78176
 20
1764.5334
 11
799.6604
 21
1764.4474
  0
LINE
  8
0-2
  6
CONTINUOUS
 62
    3
 10
799.6604
 20
1764.4474
 11
800.53905
 21
1764.5334
  0
LINE
  8
0-2
  6
CONTINUOUS
 62
    3
 10
800.53905
 20
1764.5334
 11
801.39099
 21
1764.7887
  0
LINE
  8
0-2
  6
CONTINUOUS
 62
    3
 10
801.39099
 20
1764.7887
 11
802.19035
 21
1765.2056
  0
LINE
  8
0-2
  6
CONTINUOUS
 62
    3
 10
802.19035
 20
1765.2056
 11
802.91284
 21
1765.7714
  0
LINE
  8
0-2
  6
CONTINUOUS
 62
    3
 10
802.91284
 20
1765.7714
 11
803.53651
 21
1766.4689
  0
LINE
  8
0-2
  6
CONTINUOUS
 62
    3
 10
803.53651
 20
1766.4689
 11
804.0424
 21
1767.277
  0
LINE
  8
0-2
  6
CONTINUOUS
 62
    3
 10
804.0424
 20
1767.277
 11
804.41515
 21
1768.171
  0
LINE
  8
0-2
  6
CONTINUOUS
 62
    3
 10
804.41515
 20
1768.171
 11
804.64343
 21
1769.1239
  0
LINE
  8
0-2
  6
CONTINUOUS
 62
    3
 10
804.64343
 20
1769.1239
 11
804.7203
 21
1770.1066
  0
LINE
  8
0-2
  6
CONTINUOUS
 62
    3
 10
1037.7015
 20
1571.2798
 11
1037.2597
 21
1572.9251
  0
LINE
  8
0-2
  6
CONTINUOUS
 62
    3
 10
1037.2597
 20
1572.9251
 11
1036.5691
 21
1574.4597
  0
LINE
  8
0-2
  6
CONTINUOUS
 62
    3
 10
1036.5691
 20
1574.4597
 11
1035.6508
 21
1575.8368
  0
LINE
  8
0-2
  6
CONTINUOUS
 62
    3
 10
1035.6508
 20
1575.8368
 11
1034.5327
 21
1577.0146
  0
LINE
  8
0-2
  6
CONTINUOUS
 62
    3
 10
1034.5327
 20
1577.0146
 11
1033.2486
 21
1577.9574
  0
LINE
  8
0-2
  6
CONTINUOUS
 62
    3
 10
1033.2486
 20
1577.9574
 11
1031.8377
 21
1578.6365
  0
LINE
  8
0-2
  6
CONTINUOUS
 62
    3
 10
1031.8377
 20
1578.6365
 11
1030.3428
 21
1579.0312
  0
LINE
  8
0-2
  6
CONTINUOUS
 62
    3
 10
1030.3428
 20
1579.0312
 11
1028.8093
 21
1579.1296
  0
LINE
  8
0-2
  6
CONTINUOUS
 62
    3
 10
1028.8093
 20
1579.1296
 11
1027.2838
 21
1578.9287
  0
LINE
  8
0-2
  6
CONTINUOUS
 62
    3
 10
1027.2838
 20
1578.9287
 11
1025.8127
 21
1578.4346
  0
LINE
  8
0-2
  6
CONTINUOUS
 62
    3
 10
1025.8127
 20
1578.4346
 11
1024.4407
 21
1577.6623
  0
LINE
  8
0-2
  6
CONTINUOUS
 62
    3
 10
1024.4407
 20
1577.6623
 11
1023.2094
 21
1576.6352
  0
LINE
  8
0-2
  6
CONTINUOUS
 62
    3
 10
1023.2094
 20
1576.6352
 11
1022.1563
 21
1575.3846
  0
LINE
  8
0-2
  6
CONTINUOUS
 62
    3
 10
1022.1563
 20
1575.3846
 11
1021.3134
 21
1573.9484
  0
LINE
  8
0-2
  6
CONTINUOUS
 62
    3
 10
1021.3134
 20
1573.9484
 11
1020.7062
 21
1572.3704
  0
LINE
  8
0-2
  6
CONTINUOUS
 62
    3
 10
1020.7062
 20
1572.3704
 11
1020.4449
 21
1571.2798
  0
LINE
  8
0-2
  6
CONTINUOUS
 62
    3
 10
869.4119
 20
1490.9956
 11
869.33503
 21
1491.9783
  0
LINE
  8
0-2
  6
CONTINUOUS
 62
    3
 10
869.33503
 20
1491.9783
 11
869.10675
 21
1492.9311
  0
LINE
  8
0-2
  6
CONTINUOUS
 62
    3
 10
869.10675
 20
1492.9311
 11
868.734
 21
1493.8252
  0
LINE
  8
0-2
  6
CONTINUOUS
 62
    3
 10
868.734
 20
1493.8252
 11
868.22811
 21
1494.6332
  0
LINE
  8
0-2
  6
CONTINUOUS
 62
    3
 10
868.22811
 20
1494.6332
 11
867.60444
 21
1495.3308
  0
LINE
  8
0-2
  6
CONTINUOUS
 62
    3
 10
867.60444
 20
1495.3308
 11
866.88195
 21
1495.8966
  0
LINE
  8
0-2
  6
CONTINUOUS
 62
    3
 10
866.88195
 20
1495.8966
 11
866.08259
 21
1496.3135
  0
LINE
  8
0-2
  6
CONTINUOUS
 62
    3
 10
866.08259
 20
1496.3135
 11
865.23064
 21
1496.5688
  0
LINE
  8
0-2
  6
CONTINUOUS
 62
    3
 10
865.23064
 20
1496.5688
 11
864.352
 21
1496.6548
  0
LINE
  8
0-2
  6
CONTINUOUS
 62
    3
 10
864.352
 20
1496.6548
 11
863.47336
 21
1496.5688
  0
LINE
  8
0-2
  6
CONTINUOUS
 62
    3
 10
863.47336
 20
1496.5688
 11
862.62142
 21
1496.3135
  0
LINE
  8
0-2
  6
CONTINUOUS
 62
    3
 10
862.62142
 20
1496.3135
 11
861.82205
 21
1495.8966
  0
LINE
  8
0-2
  6
CONTINUOUS
 62
    3
 10
861.82205
 20
1495.8966
 11
861.09956
 21
1495.3308
  0
LINE
  8
0-2
  6
CONTINUOUS
 62
    3
 10
861.09956
 20
1495.3308
 11
860.4759
 21
1494.6332
  0
LINE
  8
0-2
  6
CONTINUOUS
 62
    3
 10
860.4759
 20
1494.6332
 11
859.97
 21
1493.8252
  0
LINE
  8
0-2
  6
CONTINUOUS
 62
    3
 10
859.97
 20
1493.8252
 11
859.59725
 21
1492.9311
  0
LINE
  8
0-2
  6
CONTINUOUS
 62
    3
 10
859.59725
 20
1492.9311
 11
859.36898
 21
1491.9783
  0
LINE
  8
0-2
  6
CONTINUOUS
 62
    3
 10
859.36898
 20
1491.9783
 11
859.2921
 21
1490.9956
  0
LINE
  8
0-2
  6
CONTINUOUS
 62
    3
 10
859.2921
 20
1490.9956
 11
859.36898
 21
1490.0129
  0
LINE
  8
0-2
  6
CONTINUOUS
 62
    3
 10
859.36898
 20
1490.0129
 11
859.59725
 21
1489.06
  0
LINE
  8
0-2
  6
CONTINUOUS
 62
    3
 10
859.59725
 20
1489.06
 11
859.97
 21
1488.166
  0
LINE
  8
0-2
  6
CONTINUOUS
 62
    3
 10
859.97
 20
1488.166
 11
860.4759
 21
1487.3579
  0
LINE
  8
0-2
  6
CONTINUOUS
 62
    3
 10
860.4759
 20
1487.3579
 11
861.09956
 21
1486.6604
  0
LINE
  8
0-2
  6
CONTINUOUS
 62
    3
 10
861.09956
 20
1486.6604
 11
861.82205
 21
1486.0945
  0
LINE
  8
0-2
  6
CONTINUOUS
 62
    3
 10
861.82205
 20
1486.0945
 11
862.62142
 21
1485.6777
  0
LINE
  8
0-2
  6
CONTINUOUS
 62
    3
 10
862.62142
 20
1485.6777
 11
863.47336
 21
1485.4223
  0
LINE
  8
0-2
  6
CONTINUOUS
 62
    3
 10
863.47336
 20
1485.4223
 11
864.352
 21
1485.3364
  0
LINE
  8
0-2
  6
CONTINUOUS
 62
    3
 10
864.352
 20
1485.3364
 11
865.23064
 21
1485.4223
  0
LINE
  8
0-2
  6
CONTINUOUS
 62
    3
 10
865.23064
 20
1485.4223
 11
866.08259
 21
1485.6777
  0
LINE
  8
0-2
  6
CONTINUOUS
 62
    3
 10
866.08259
 20
1485.6777
 11
866.88195
 21
1486.0945
  0
LINE
  8
0-2
  6
CONTINUOUS
 62
    3
 10
866.88195
 20
1486.0945
 11
867.60444
 21
1486.6604
  0
LINE
  8
0-2
  6
CONTINUOUS
 62
    3
 10
867.60444
 20
1486.6604
 11
868.22811
 21
1487.3579
  0
LINE
  8
0-2
  6
CONTINUOUS
 62
    3
 10
868.22811
 20
1487.3579
 11
868.734
 21
1488.166
  0
LINE
  8
0-2
  6
CONTINUOUS
 62
    3
 10
868.734
 20
1488.166
 11
869.10675
 21
1489.06
  0
LINE
  8
0-2
  6
CONTINUOUS
 62
    3
 10
869.10675
 20
1489.06
 11
869.33503
 21
1490.0129
  0
LINE
  8
0-2
  6
CONTINUOUS
 62
    3
 10
869.33503
 20
1490.0129
 11
869.4119
 21
1490.9956
  0
LINE
  8
0-2
  6
CONTINUOUS
 62
    3
 10
869.4119
 20
1554.6705
 11
869.33503
 21
1555.6532
  0
LINE
  8
0-2
  6
CONTINUOUS
 62
    3
 10
869.33503
 20
1555.6532
 11
869.10675
 21
1556.6061
  0
LINE
  8
0-2
  6
CONTINUOUS
 62
    3
 10
869.10675
 20
1556.6061
 11
868.734
 21
1557.5001
  0
LINE
  8
0-2
  6
CONTINUOUS
 62
    3
 10
868.734
 20
1557.5001
 11
868.22811
 21
1558.3082
  0
LINE
  8
0-2
  6
CONTINUOUS
 62
    3
 10
868.22811
 20
1558.3082
 11
867.60444
 21
1559.0057
  0
LINE
  8
0-2
  6
CONTINUOUS
 62
    3
 10
867.60444
 20
1559.0057
 11
866.88195
 21
1559.5715
  0
LINE
  8
0-2
  6
CONTINUOUS
 62
    3
 10
866.88195
 20
1559.5715
 11
866.08259
 21
1559.9884
  0
LINE
  8
0-2
  6
CONTINUOUS
 62
    3
 10
866.08259
 20
1559.9884
 11
865.23064
 21
1560.2437
  0
LINE
  8
0-2
  6
CONTINUOUS
 62
    3
 10
865.23064
 20
1560.2437
 11
864.352
 21
1560.3297
  0
LINE
  8
0-2
  6
CONTINUOUS
 62
    3
 10
864.352
 20
1560.3297
 11
863.47336
 21
1560.2437
  0
LINE
  8
0-2
  6
CONTINUOUS
 62
    3
 10
863.47336
 20
1560.2437
 11
862.62142
 21
1559.9884
  0
LINE
  8
0-2
  6
CONTINUOUS
 62
    3
 10
862.62142
 20
1559.9884
 11
861.82205
 21
1559.5715
  0
LINE
  8
0-2
  6
CONTINUOUS
 62
    3
 10
861.82205
 20
1559.5715
 11
861.09956
 21
1559.0057
  0
LINE
  8
0-2
  6
CONTINUOUS
 62
    3
 10
861.09956
 20
1559.0057
 11
860.4759
 21
1558.3082
  0
LINE
  8
0-2
  6
CONTINUOUS
 62
    3
 10
860.4759
 20
1558.3082
 11
859.97
 21
1557.5001
  0
LINE
  8
0-2
  6
CONTINUOUS
 62
    3
 10
859.97
 20
1557.5001
 11
859.59725
 21
1556.6061
  0
LINE
  8
0-2
  6
CONTINUOUS
 62
    3
 10
859.59725
 20
1556.6061
 11
859.36898
 21
1555.6532
  0
LINE
  8
0-2
  6
CONTINUOUS
 62
    3
 10
859.36898
 20
1555.6532
 11
859.2921
 21
1554.6705
  0
LINE
  8
0-2
  6
CONTINUOUS
 62
    3
 10
859.2921
 20
1554.6705
 11
859.36898
 21
1553.6878
  0
LINE
  8
0-2
  6
CONTINUOUS
 62
    3
 10
859.36898
 20
1553.6878
 11
859.59725
 21
1552.7349
  0
LINE
  8
0-2
  6
CONTINUOUS
 62
    3
 10
859.59725
 20
1552.7349
 11
859.97
 21
1551.8409
  0
LINE
  8
0-2
  6
CONTINUOUS
 62
    3
 10
859.97
 20
1551.8409
 11
860.4759
 21
1551.0328
  0
LINE
  8
0-2
  6
CONTINUOUS
 62
    3
 10
860.4759
 20
1551.0328
 11
861.09956
 21
1550.3353
  0
LINE
  8
0-2
  6
CONTINUOUS
 62
    3
 10
861.09956
 20
1550.3353
 11
861.82205
 21
1549.7695
  0
LINE
  8
0-2
  6
CONTINUOUS
 62
    3
 10
861.82205
 20
1549.7695
 11
862.62142
 21
1549.3526
  0
LINE
  8
0-2
  6
CONTINUOUS
 62
    3
 10
862.62142
 20
1549.3526
 11
863.47336
 21
1549.0973
  0
LINE
  8
0-2
  6
CONTINUOUS
 62
    3
 10
863.47336
 20
1549.0973
 11
864.352
 21
1549.0113
  0
LINE
  8
0-2
  6
CONTINUOUS
 62
    3
 10
864.352
 20
1549.0113
 11
865.23064
 21
1549.0973
  0
LINE
  8
0-2
  6
CONTINUOUS
 62
    3
 10
865.23064
 20
1549.0973
 11
866.08259
 21
1549.3526
  0
LINE
  8
0-2
  6
CONTINUOUS
 62
    3
 10
866.08259
 20
1549.3526
 11
866.88195
 21
1549.7695
  0
LINE
  8
0-2
  6
CONTINUOUS
 62
    3
 10
866.88195
 20
1549.7695
 11
867.60444
 21
1550.3353
  0
LINE
  8
0-2
  6
CONTINUOUS
 62
    3
 10
867.60444
 20
1550.3353
 11
868.22811
 21
1551.0328
  0
LINE
  8
0-2
  6
CONTINUOUS
 62
    3
 10
868.22811
 20
1551.0328
 11
868.734
 21
1551.8409
  0
LINE
  8
0-2
  6
CONTINUOUS
 62
    3
 10
868.734
 20
1551.8409
 11
869.10675
 21
1552.7349
  0
LINE
  8
0-2
  6
CONTINUOUS
 62
    3
 10
869.10675
 20
1552.7349
 11
869.33503
 21
1553.6878
  0
LINE
  8
0-2
  6
CONTINUOUS
 62
    3
 10
869.33503
 20
1553.6878
 11
869.4119
 21
1554.6705
  0
ARC
  8
0-2
  6
CONTINUOUS
 62
    3
 10
797.50019
 20
1404.5938
 40
5.0000167
 50
90
 51
270
  0
ARC
  8
0-2
  6
CONTINUOUS
 62
    3
 10
797.49896
 20
1470.0499
 40
5.0000167
 50
90
 51
270
  0
ARC
  8
0-2
  6
CONTINUOUS
 62
    3
 10
1312.5015
 20
1470.0499
 40
5.0000167
 50
270
 51
90.000015
  0
ARC
  8
0-2
  6
CONTINUOUS
 62
    3
 10
1312.5003
 20
1404.5938
 40
5.0000167
 50
270
 51
90.000015
  0
TEXT
  8
0-d
 10
1116.4263
 20
173.48254
 40
20
 41
1
 50
0
  1
株式
  0
TEXT
  8
0-d
 10
1560
 20
207.50006
 40
25
 41
1
 50
0.0001068
  1
付
  0
TEXT
  8
0-d
 10
1560
 20
247.50021
 40
25
 41
1
 50
0
  1
日
  0
TEXT
  8
0-d
 10
1116.4263
 20
151.85209
 40
20
 41
1
 50
0.0000152
  1
会社
  0
TEXT
  8
0-d
 10
1242.9183
 20
104.02445
 40
20
 41
1
 50
0
  1
TEL(054)296-7000  FAX(054)296-7001
  0
TEXT
  8
0-d
 10
860.00028
 20
107.50023
 40
25
 41
1
 50
0
  1
図
  0
TEXT
  8
0-d
 10
660.00054
 20
167.5002
 40
25
 41
1
 50
0
  1
承
  0
TEXT
  8
0-d
 10
259.99975
 20
107.50023
 40
25
 41
1
 50
0
  1
番
  0
TEXT
  8
0-d
 10
259.99975
 20
167.5002
 40
25
 41
1
 50
0
  1
図
  0
TEXT
  8
0-d
 10
660.00054
 20
107.50023
 40
25
 41
1
 50
0
  1
認
  0
TEXT
  8
0-d
 10
860.00028
 20
167.5002
 40
25
 41
1
 50
0
  1
製
  0
TEXT
  8
0-d
 10
1025.0003
 20
207.50006
 40
25
 41
1
 50
0.0001068
  1
度
  0
TEXT
  8
0-d
 10
1025.0003
 20
247.50021
 40
25
 41
1
 50
0
  1
尺
  0
TEXT
  8
0-d
 10
1089.349
 20
220.10095
 40
40
 41
1
 50
0
  1
１／１０
  0
TEXT
  8
0-d
 10
1435.189
 20
1485.6219
 40
30
 41
1
 50
0
  1
網、水平付け
  0
TEXT
  8
0-d
 10
313.45925
 20
150.30237
 40
30
 41
1
 50
0
  1
50-C09c
  0
TEXT
  8
0-2
 10
452.86055
 20
1827.8026
 40
30
 41
1
 50
90
  1
1,030
  0
TEXT
  8
0-2
 10
1014.663
 20
1229.5122
 40
30
 41
1
 50
0
  1
515φ
  0
TEXT
  8
0-2
 10
980.45572
 20
2582.6926
 40
30
 41
1
 50
0
  1
860φ
  0
TEXT
  8
0-d
 10
264.45945
 20
2794.1893
 40
50
 41
1
 50
0
  1
ＡＳ－５００　自然回転  直付型（網付）断面
  0
TEXT
  8
0-d
 10
258.98989
 20
224.09945
 40
30
 41
1
 50
0
  1
ＡＳ－５００　自然回転  直付型（網付）断面
  0
TEXT
  8
0-d
 10
1179.2248
 20
153.2474
 40
40
 41
1
 50
0
  1
スズキベンチレーター
  0
TEXT
  8
0-d
 10
1240.6792
 20
128.64619
 40
20
 41
1
 50
0
  1
〒421-2114　静岡市葵区安倍口新田１５２番地
  0
POINT
  8
0-2
 62
    2
 10
1312.5009
 20
1222.4395
  0
POINT
  8
0-2
 62
    2
 10
460.45055
 20
1399.5939
  0
POINT
  8
0-2
 62
    2
 10
1485.1003
 20
2567.7091
  0
POINT
  8
0-2
 62
    2
 10
624.90002
 20
2567.7091
  0
POINT
  8
0-2
 62
    2
 10
797.50019
 20
1222.4395
  0
POINT
  8
0-2
 62
    2
 10
460.45055
 20
1399.5946
  0
POINT
  8
0-2
 62
    2
 10
460.45055
 20
2429.5939
  0
ENDSEC
  0
EOF
