  0
SECTION
  2
HEADER
  9
$EXTMIN
 10
0
 20
0
  9
$EXTMAX
 10
4200
 20
2970
  0
ENDSEC
  0
SECTION
  2
TABLES
  0
TABLE
  2
LTYPE
 70
     9
  0
LTYPE
  2
CONTINUOUS
 70
    64
  3
実線
 72
    65
 73
     0
 40
0.0
  0
LTYPE
  2
DASHED1
 70
    64
  3
--  --  --  --  --  --  --  --  
 72
    65
 73
     2
 40
2.5
 49
1.25
 49
-1.25
  0
LTYPE
  2
DASHED2
 70
    64
  3
----    ----    ----    ----    
 72
    65
 73
     2
 40
5.0
 49
2.5
 49
-2.5
  0
LTYPE
  2
DASHED3
 70
    64
  3
------  ------  ------  ------  
 72
    65
 73
     2
 40
5.0
 49
3.75
 49
-1.25
  0
LTYPE
  2
CENTER1
 70
    64
  3
----- - ----- - ----- - ----- - 
 72
    65
 73
     4
 40
10.0
 49
6.25
 49
-1.25
 49
1.25
 49
-1.25
  0
LTYPE
  2
CENTER2
 70
    64
  3
----------  --  ----------  --  
 72
    65
 73
     4
 40
20.0
 49
12.5
 49
-2.5
 49
2.5
 49
-2.5
  0
LTYPE
  2
PHANTOM1
 70
    64
  3
--- - - --- - - --- - - --- - - 
 72
    65
 73
     6
 40
10.0
 49
3.25
 49
-1.25
 49
1.25
 49
-1.25
 49
1.25
 49
-1.25
  0
LTYPE
  2
PHANTOM2
 70
    64
  3
--------  -  -  --------  -  -  
 72
    65
 73
     6
 40
20.0
 49
10.0
 49
-2.5
 49
1.25
 49
-2.5
 49
1.25
 49
-2.5
  0
LTYPE
  2
DOT
 70
    64
  3
-   -   -   -   -   -   -   -   
 72
    65
 73
     2
 40
2.5
 49
0.625
 49
-1.875
  0
ENDTAB
  0
TABLE
  2
STYLE
 70
    1
  0
STYLE
  2
STANDARD
 70
    64
 40
0.0
 41
1.0
 42
0.0
 50
0.0
 71
     0
  3
TXT
  4
BIGFONT
  0
ENDTAB
  0
TABLE
  2
LAYER
 70
    5
  0
LAYER
  2
1-1
 70
   64
 62
    7
  6
CONTINUOUS
  0
LAYER
  2
1-2
 70
   64
 62
    7
  6
CONTINUOUS
  0
LAYER
  2
1-8
 70
   64
 62
    7
  6
CONTINUOUS
  0
LAYER
  2
1-d
 70
   64
 62
    7
  6
CONTINUOUS
  0
LAYER
  2
ADD_LINE
 70
   64
 62
    7
  6
CONTINUOUS
  0
ENDTAB
  0
ENDSEC
  0
SECTION
  2
ENTITIES
  0
LINE
  8
1-d
  6
CONTINUOUS
 62
    7
 10
250.00004
 20
2757.7013
 11
1850.0001
 21
2757.7013
  0
LINE
  8
1-d
  6
CONTINUOUS
 62
    7
 10
250.00004
 20
2767.7016
 11
1850.0001
 21
2767.7016
  0
LINE
  8
1-d
  6
CONTINUOUS
 62
    7
 10
254.99974
 20
200.00017
 11
1855.0003
 21
200.00017
  0
LINE
  8
1-d
  6
CONTINUOUS
 62
    7
 10
254.99974
 20
100.00008
 11
254.99974
 21
280.00019
  0
LINE
  8
1-d
  6
CONTINUOUS
 62
    7
 10
254.99974
 20
100.00008
 11
1855.0003
 21
100.00008
  0
LINE
  8
1-d
  6
CONTINUOUS
 62
    7
 10
254.99974
 20
280.00019
 11
1855.0003
 21
280.00019
  0
LINE
  8
1-d
  6
CONTINUOUS
 62
    7
 10
1055.0001
 20
280.00019
 11
1055.0001
 21
100.00008
  0
LINE
  8
1-d
  6
CONTINUOUS
 62
    7
 10
655.00033
 20
100.00008
 11
655.00033
 21
200.00017
  0
LINE
  8
1-d
  6
CONTINUOUS
 62
    7
 10
1055.0001
 20
200.00017
 11
1055.0001
 21
280.00019
  0
LINE
  8
1-d
  6
CONTINUOUS
 62
    7
 10
854.99977
 20
100.00008
 11
854.99977
 21
200.00017
  0
LINE
  8
1-d
  6
CONTINUOUS
 62
    7
 10
290.0001
 20
100.00008
 11
290.0001
 21
200.00017
  0
LINE
  8
1-d
  6
CONTINUOUS
 62
    7
 10
690.0002
 20
100.00008
 11
690.0002
 21
200.00017
  0
LINE
  8
1-d
  6
CONTINUOUS
 62
    7
 10
890.00013
 20
100.00008
 11
890.00013
 21
200.00017
  0
LINE
  8
1-d
  6
CONTINUOUS
 62
    7
 10
1020
 20
200.00017
 11
1020
 21
280.00019
  0
LINE
  8
1-d
  6
CONTINUOUS
 62
    7
 10
1555.0003
 20
200.00017
 11
1555.0003
 21
280.00019
  0
LINE
  8
1-d
  6
CONTINUOUS
 62
    7
 10
1590.0002
 20
200.00017
 11
1590.0002
 21
280.00019
  0
LINE
  8
1-d
  6
CONTINUOUS
 62
    7
 10
1855.0003
 20
280.00019
 11
1855.0003
 21
100.00008
  0
LINE
  8
1-2
  6
CONTINUOUS
 62
    7
 10
768.26672
 20
2645.86
 11
1341.7333
 21
2645.86
  0
LINE
  8
1-2
  6
CONTINUOUS
 62
    7
 10
1341.7333
 20
2496.6869
 11
1341.7333
 21
2645.86
  0
LINE
  8
1-2
  6
CONTINUOUS
 62
    7
 10
768.26672
 20
2645.86
 11
768.26672
 21
2496.6869
  0
LINE
  8
1-2
  6
CONTINUOUS
 62
    3
 10
768.26771
 20
2119.9108
 11
1341.735
 21
2119.9108
  0
LINE
  8
1-2
  6
CONTINUOUS
 62
    3
 10
768.26771
 20
2132.4862
 11
1341.735
 21
2132.4862
  0
LINE
  8
1-2
  6
CONTINUOUS
 62
    3
 10
768.26691
 20
2057.0292
 11
1341.7343
 21
2057.0292
  0
LINE
  8
1-2
  6
CONTINUOUS
 62
    3
 10
768.26771
 20
2119.9108
 11
768.26691
 21
2057.0289
  0
LINE
  8
1-2
  6
CONTINUOUS
 62
    3
 10
883.3341
 20
1981.5737
 11
883.33324
 21
1917.4213
  0
LINE
  8
1-2
  6
CONTINUOUS
 62
    3
 10
1226.6673
 20
1981.5737
 11
1226.6666
 21
1917.4213
  0
LINE
  8
1-2
  6
CONTINUOUS
 62
    3
 10
1341.734
 20
2119.9108
 11
1341.7333
 21
2057.0289
  0
LINE
  8
1-2
  6
CONTINUOUS
 62
    3
 10
768.26691
 20
2044.4538
 11
1341.7343
 21
2044.4538
  0
LINE
  8
1-2
  6
CONTINUOUS
 62
    3
 10
768.26672
 20
2384.007
 11
1341.734
 21
2384.007
  0
LINE
  8
1-2
  6
CONTINUOUS
 62
    3
 10
768.26672
 20
2396.5829
 11
1341.734
 21
2396.5829
  0
LINE
  8
1-2
  6
CONTINUOUS
 62
    3
 10
768.26672
 20
2321.1264
 11
1341.734
 21
2321.1264
  0
LINE
  8
1-2
  6
CONTINUOUS
 62
    3
 10
768.26672
 20
2384.007
 11
768.26672
 21
2321.1262
  0
LINE
  8
1-2
  6
CONTINUOUS
 62
    3
 10
1341.7333
 20
2384.007
 11
1341.7333
 21
2321.1262
  0
LINE
  8
1-2
  6
CONTINUOUS
 62
    3
 10
768.26672
 20
2308.5505
 11
1341.734
 21
2308.5505
  0
LINE
  8
1-2
  6
CONTINUOUS
 62
    7
 10
775.5464
 20
1867.1169
 11
658.63374
 21
1867.1169
  0
LINE
  8
1-2
  6
CONTINUOUS
 62
    3
 10
768.26691
 20
2044.4538
 11
824.48901
 21
1981.5737
  0
LINE
  8
1-2
  6
CONTINUOUS
 62
    3
 10
1055.0001
 20
2553.7834
 11
1201.0699
 21
2459.4631
  0
LINE
  8
1-2
  6
CONTINUOUS
 62
    3
 10
1341.7333
 20
2396.5829
 11
1285.5113
 21
2459.4631
  0
LINE
  8
1-2
  6
CONTINUOUS
 62
    3
 10
768.26672
 20
2396.5829
 11
824.48901
 21
2459.4631
  0
LINE
  8
1-2
  6
CONTINUOUS
 62
    3
 10
1005.0481
 20
2454.2659
 11
1005.511
 21
2454.4042
  0
LINE
  8
1-2
  6
CONTINUOUS
 62
    3
 10
1005.511
 20
2454.4042
 11
1005.9457
 21
2454.5927
  0
LINE
  8
1-2
  6
CONTINUOUS
 62
    3
 10
1005.9457
 20
2454.5927
 11
1006.3526
 21
2454.8273
  0
LINE
  8
1-2
  6
CONTINUOUS
 62
    3
 10
1006.3526
 20
2454.8273
 11
1006.7324
 21
2455.1049
  0
LINE
  8
1-2
  6
CONTINUOUS
 62
    3
 10
1006.7324
 20
2455.1049
 11
1007.0855
 21
2455.4226
  0
LINE
  8
1-2
  6
CONTINUOUS
 62
    3
 10
1007.0855
 20
2455.4226
 11
1007.4123
 21
2455.7755
  0
LINE
  8
1-2
  6
CONTINUOUS
 62
    3
 10
1007.4123
 20
2455.7755
 11
1007.7137
 21
2456.16
  0
LINE
  8
1-2
  6
CONTINUOUS
 62
    3
 10
1007.7137
 20
2456.16
 11
1007.99
 21
2456.5742
  0
LINE
  8
1-2
  6
CONTINUOUS
 62
    3
 10
1007.99
 20
2456.5742
 11
1008.2414
 21
2457.0132
  0
LINE
  8
1-2
  6
CONTINUOUS
 62
    3
 10
1008.2414
 20
2457.0132
 11
1008.4691
 21
2457.4739
  0
LINE
  8
1-2
  6
CONTINUOUS
 62
    3
 10
1008.4691
 20
2457.4739
 11
1008.673
 21
2457.953
  0
LINE
  8
1-2
  6
CONTINUOUS
 62
    3
 10
1008.673
 20
2457.953
 11
1008.8537
 21
2458.4464
  0
LINE
  8
1-2
  6
CONTINUOUS
 62
    3
 10
1008.8537
 20
2458.4464
 11
1009.0118
 21
2458.9511
  0
LINE
  8
1-2
  6
CONTINUOUS
 62
    3
 10
1009.0118
 20
2458.9511
 11
1009.1481
 21
2459.4631
  0
LINE
  8
1-2
  6
CONTINUOUS
 62
    3
 10
1002.5064
 20
2454.2381
 11
1001.9713
 21
2454.4304
  0
LINE
  8
1-2
  6
CONTINUOUS
 62
    3
 10
1001.9713
 20
2454.4304
 11
1001.4693
 21
2454.6576
  0
LINE
  8
1-2
  6
CONTINUOUS
 62
    3
 10
1001.4693
 20
2454.6576
 11
1000.9997
 21
2454.9179
  0
LINE
  8
1-2
  6
CONTINUOUS
 62
    3
 10
1000.9997
 20
2454.9179
 11
1000.5629
 21
2455.2096
  0
LINE
  8
1-2
  6
CONTINUOUS
 62
    3
 10
1000.5629
 20
2455.2096
 11
1000.1577
 21
2455.5305
  0
LINE
  8
1-2
  6
CONTINUOUS
 62
    3
 10
1000.1577
 20
2455.5305
 11
999.78411
 21
2455.8799
  0
LINE
  8
1-2
  6
CONTINUOUS
 62
    3
 10
999.78411
 20
2455.8799
 11
999.44203
 21
2456.255
  0
LINE
  8
1-2
  6
CONTINUOUS
 62
    3
 10
999.44203
 20
2456.255
 11
999.13075
 21
2456.6549
  0
LINE
  8
1-2
  6
CONTINUOUS
 62
    3
 10
999.13075
 20
2456.6549
 11
998.84997
 21
2457.0765
  0
LINE
  8
1-2
  6
CONTINUOUS
 62
    3
 10
998.84997
 20
2457.0765
 11
998.59937
 21
2457.5192
  0
LINE
  8
1-2
  6
CONTINUOUS
 62
    3
 10
998.59937
 20
2457.5192
 11
998.37884
 21
2457.9812
  0
LINE
  8
1-2
  6
CONTINUOUS
 62
    3
 10
998.37884
 20
2457.9812
 11
998.18751
 21
2458.4602
  0
LINE
  8
1-2
  6
CONTINUOUS
 62
    3
 10
998.18751
 20
2458.4602
 11
998.0255
 21
2458.9551
  0
LINE
  8
1-2
  6
CONTINUOUS
 62
    3
 10
998.0255
 20
2458.9551
 11
997.89219
 21
2459.4631
  0
LINE
  8
1-2
  6
CONTINUOUS
 62
    3
 10
975.82056
 20
2459.4631
 11
975.30229
 21
2458.6191
  0
LINE
  8
1-2
  6
CONTINUOUS
 62
    3
 10
975.30229
 20
2458.6191
 11
974.77803
 21
2457.8683
  0
LINE
  8
1-2
  6
CONTINUOUS
 62
    3
 10
974.77803
 20
2457.8683
 11
974.24968
 21
2457.2054
  0
LINE
  8
1-2
  6
CONTINUOUS
 62
    3
 10
974.24968
 20
2457.2054
 11
973.71948
 21
2456.6254
  0
LINE
  8
1-2
  6
CONTINUOUS
 62
    3
 10
973.71948
 20
2456.6254
 11
973.18947
 21
2456.1229
  0
LINE
  8
1-2
  6
CONTINUOUS
 62
    3
 10
973.18947
 20
2456.1229
 11
972.66161
 21
2455.6931
  0
LINE
  8
1-2
  6
CONTINUOUS
 62
    3
 10
972.66161
 20
2455.6931
 11
972.13834
 21
2455.3306
  0
LINE
  8
1-2
  6
CONTINUOUS
 62
    3
 10
972.13834
 20
2455.3306
 11
971.62101
 21
2455.0299
  0
LINE
  8
1-2
  6
CONTINUOUS
 62
    3
 10
971.62101
 20
2455.0299
 11
971.11227
 21
2454.786
  0
LINE
  8
1-2
  6
CONTINUOUS
 62
    3
 10
971.11227
 20
2454.786
 11
970.61393
 21
2454.5942
  0
LINE
  8
1-2
  6
CONTINUOUS
 62
    3
 10
970.61393
 20
2454.5942
 11
970.12814
 21
2454.4485
  0
LINE
  8
1-2
  6
CONTINUOUS
 62
    3
 10
970.12814
 20
2454.4485
 11
969.65701
 21
2454.3438
  0
LINE
  8
1-2
  6
CONTINUOUS
 62
    3
 10
969.65701
 20
2454.3438
 11
969.20253
 21
2454.2755
  0
LINE
  8
1-2
  6
CONTINUOUS
 62
    3
 10
969.20253
 20
2454.2755
 11
968.76673
 21
2454.2381
  0
LINE
  8
1-2
  6
CONTINUOUS
 62
    3
 10
965.05779
 20
2459.4631
 11
965.07325
 21
2458.8561
  0
LINE
  8
1-2
  6
CONTINUOUS
 62
    3
 10
965.07325
 20
2458.8561
 11
965.12027
 21
2458.2947
  0
LINE
  8
1-2
  6
CONTINUOUS
 62
    3
 10
965.12027
 20
2458.2947
 11
965.20013
 21
2457.7773
  0
LINE
  8
1-2
  6
CONTINUOUS
 62
    3
 10
965.20013
 20
2457.7773
 11
965.31494
 21
2457.3007
  0
LINE
  8
1-2
  6
CONTINUOUS
 62
    3
 10
965.31494
 20
2457.3007
 11
965.46656
 21
2456.8627
  0
LINE
  8
1-2
  6
CONTINUOUS
 62
    3
 10
965.46656
 20
2456.8627
 11
965.65641
 21
2456.4611
  0
LINE
  8
1-2
  6
CONTINUOUS
 62
    3
 10
965.65641
 20
2456.4611
 11
965.88634
 21
2456.0927
  0
LINE
  8
1-2
  6
CONTINUOUS
 62
    3
 10
965.88634
 20
2456.0927
 11
966.15803
 21
2455.7552
  0
LINE
  8
1-2
  6
CONTINUOUS
 62
    3
 10
966.15803
 20
2455.7552
 11
966.47364
 21
2455.4461
  0
LINE
  8
1-2
  6
CONTINUOUS
 62
    3
 10
966.47364
 20
2455.4461
 11
966.83441
 21
2455.1628
  0
LINE
  8
1-2
  6
CONTINUOUS
 62
    3
 10
966.83441
 20
2455.1628
 11
967.24231
 21
2454.903
  0
LINE
  8
1-2
  6
CONTINUOUS
 62
    3
 10
967.24231
 20
2454.903
 11
967.69927
 21
2454.6637
  0
LINE
  8
1-2
  6
CONTINUOUS
 62
    3
 10
967.69927
 20
2454.6637
 11
968.20702
 21
2454.4428
  0
LINE
  8
1-2
  6
CONTINUOUS
 62
    3
 10
968.20702
 20
2454.4428
 11
968.76673
 21
2454.2381
  0
LINE
  8
1-2
  6
CONTINUOUS
 62
    3
 10
934.17018
 20
2459.4631
 11
934.43445
 21
2458.7502
  0
LINE
  8
1-2
  6
CONTINUOUS
 62
    3
 10
934.43445
 20
2458.7502
 11
934.70979
 21
2458.1029
  0
LINE
  8
1-2
  6
CONTINUOUS
 62
    3
 10
934.70979
 20
2458.1029
 11
934.99583
 21
2457.5192
  0
LINE
  8
1-2
  6
CONTINUOUS
 62
    3
 10
934.99583
 20
2457.5192
 11
935.29226
 21
2456.9951
  0
LINE
  8
1-2
  6
CONTINUOUS
 62
    3
 10
935.29226
 20
2456.9951
 11
935.5989
 21
2456.5282
  0
LINE
  8
1-2
  6
CONTINUOUS
 62
    3
 10
935.5989
 20
2456.5282
 11
935.91544
 21
2456.1145
  0
LINE
  8
1-2
  6
CONTINUOUS
 62
    3
 10
935.91544
 20
2456.1145
 11
936.24144
 21
2455.751
  0
LINE
  8
1-2
  6
CONTINUOUS
 62
    3
 10
936.24144
 20
2455.751
 11
936.57697
 21
2455.4348
  0
LINE
  8
1-2
  6
CONTINUOUS
 62
    3
 10
936.57697
 20
2455.4348
 11
936.92122
 21
2455.1623
  0
LINE
  8
1-2
  6
CONTINUOUS
 62
    3
 10
936.92122
 20
2455.1623
 11
937.27456
 21
2454.9312
  0
LINE
  8
1-2
  6
CONTINUOUS
 62
    3
 10
937.27456
 20
2454.9312
 11
937.63632
 21
2454.7372
  0
LINE
  8
1-2
  6
CONTINUOUS
 62
    3
 10
937.63632
 20
2454.7372
 11
938.0063
 21
2454.5779
  0
LINE
  8
1-2
  6
CONTINUOUS
 62
    3
 10
938.0063
 20
2454.5779
 11
938.38427
 21
2454.4497
  0
LINE
  8
1-2
  6
CONTINUOUS
 62
    3
 10
938.38427
 20
2454.4497
 11
938.7699
 21
2454.3495
  0
LINE
  8
1-2
  6
CONTINUOUS
 62
    3
 10
939.61813
 20
2454.3495
 11
940.02034
 21
2454.4346
  0
LINE
  8
1-2
  6
CONTINUOUS
 62
    3
 10
940.02034
 20
2454.4346
 11
940.41921
 21
2454.5709
  0
LINE
  8
1-2
  6
CONTINUOUS
 62
    3
 10
940.41921
 20
2454.5709
 11
940.81475
 21
2454.757
  0
LINE
  8
1-2
  6
CONTINUOUS
 62
    3
 10
940.81475
 20
2454.757
 11
941.20737
 21
2454.9938
  0
LINE
  8
1-2
  6
CONTINUOUS
 62
    3
 10
941.20737
 20
2454.9938
 11
941.59653
 21
2455.2811
  0
LINE
  8
1-2
  6
CONTINUOUS
 62
    3
 10
941.59653
 20
2455.2811
 11
941.98235
 21
2455.6186
  0
LINE
  8
1-2
  6
CONTINUOUS
 62
    3
 10
941.98235
 20
2455.6186
 11
942.36508
 21
2456.0068
  0
LINE
  8
1-2
  6
CONTINUOUS
 62
    3
 10
942.36508
 20
2456.0068
 11
942.74447
 21
2456.4456
  0
LINE
  8
1-2
  6
CONTINUOUS
 62
    3
 10
942.74447
 20
2456.4456
 11
943.12058
 21
2456.934
  0
LINE
  8
1-2
  6
CONTINUOUS
 62
    3
 10
905.89802
 20
2459.4631
 11
905.9746
 21
2458.9195
  0
LINE
  8
1-2
  6
CONTINUOUS
 62
    3
 10
905.9746
 20
2458.9195
 11
906.0831
 21
2458.4134
  0
LINE
  8
1-2
  6
CONTINUOUS
 62
    3
 10
906.0831
 20
2458.4134
 11
906.22136
 21
2457.9433
  0
LINE
  8
1-2
  6
CONTINUOUS
 62
    3
 10
906.22136
 20
2457.9433
 11
906.38646
 21
2457.5081
  0
LINE
  8
1-2
  6
CONTINUOUS
 62
    3
 10
906.38646
 20
2457.5081
 11
906.576
 21
2457.1052
  0
LINE
  8
1-2
  6
CONTINUOUS
 62
    3
 10
906.576
 20
2457.1052
 11
906.78818
 21
2456.7346
  0
LINE
  8
1-2
  6
CONTINUOUS
 62
    3
 10
906.78818
 20
2456.7346
 11
907.02059
 21
2456.3938
  0
LINE
  8
1-2
  6
CONTINUOUS
 62
    3
 10
907.02059
 20
2456.3938
 11
907.27118
 21
2456.0828
  0
LINE
  8
1-2
  6
CONTINUOUS
 62
    3
 10
907.27118
 20
2456.0828
 11
907.53805
 21
2455.7997
  0
LINE
  8
1-2
  6
CONTINUOUS
 62
    3
 10
907.53805
 20
2455.7997
 11
907.81963
 21
2455.5439
  0
LINE
  8
1-2
  6
CONTINUOUS
 62
    3
 10
907.81963
 20
2455.5439
 11
908.11409
 21
2455.3143
  0
LINE
  8
1-2
  6
CONTINUOUS
 62
    3
 10
908.11409
 20
2455.3143
 11
908.42029
 21
2455.1109
  0
LINE
  8
1-2
  6
CONTINUOUS
 62
    3
 10
908.42029
 20
2455.1109
 11
908.73634
 21
2454.9312
  0
LINE
  8
1-2
  6
CONTINUOUS
 62
    3
 10
908.73634
 20
2454.9312
 11
909.06129
 21
2454.7763
  0
LINE
  8
1-2
  6
CONTINUOUS
 62
    3
 10
909.06129
 20
2454.7763
 11
909.39385
 21
2454.6449
  0
LINE
  8
1-2
  6
CONTINUOUS
 62
    3
 10
909.39385
 20
2454.6449
 11
909.73333
 21
2454.5368
  0
LINE
  8
1-2
  6
CONTINUOUS
 62
    3
 10
909.73333
 20
2454.5368
 11
910.07876
 21
2454.4517
  0
LINE
  8
1-2
  6
CONTINUOUS
 62
    3
 10
910.07876
 20
2454.4517
 11
910.42913
 21
2454.3896
  0
LINE
  8
1-2
  6
CONTINUOUS
 62
    3
 10
910.42913
 20
2454.3896
 11
910.78415
 21
2454.3495
  0
LINE
  8
1-2
  6
CONTINUOUS
 62
    3
 10
910.87391
 20
2454.3542
 11
911.07365
 21
2454.3762
  0
LINE
  8
1-2
  6
CONTINUOUS
 62
    3
 10
911.07365
 20
2454.3762
 11
911.27012
 21
2454.4079
  0
LINE
  8
1-2
  6
CONTINUOUS
 62
    3
 10
911.27012
 20
2454.4079
 11
911.46312
 21
2454.4497
  0
LINE
  8
1-2
  6
CONTINUOUS
 62
    3
 10
911.46312
 20
2454.4497
 11
911.65266
 21
2454.5007
  0
LINE
  8
1-2
  6
CONTINUOUS
 62
    3
 10
911.65266
 20
2454.5007
 11
911.83874
 21
2454.5611
  0
LINE
  8
1-2
  6
CONTINUOUS
 62
    3
 10
911.83874
 20
2454.5611
 11
912.02153
 21
2454.6313
  0
LINE
  8
1-2
  6
CONTINUOUS
 62
    3
 10
912.02153
 20
2454.6313
 11
912.20068
 21
2454.7115
  0
LINE
  8
1-2
  6
CONTINUOUS
 62
    3
 10
912.20068
 20
2454.7115
 11
912.37636
 21
2454.8011
  0
LINE
  8
1-2
  6
CONTINUOUS
 62
    3
 10
912.37636
 20
2454.8011
 11
912.5487
 21
2454.9
  0
LINE
  8
1-2
  6
CONTINUOUS
 62
    3
 10
830.08957
 20
2459.4631
 11
830.15804
 21
2458.8915
  0
LINE
  8
1-2
  6
CONTINUOUS
 62
    3
 10
830.15804
 20
2458.8915
 11
830.2303
 21
2458.3687
  0
LINE
  8
1-2
  6
CONTINUOUS
 62
    3
 10
830.2303
 20
2458.3687
 11
830.30682
 21
2457.8955
  0
LINE
  8
1-2
  6
CONTINUOUS
 62
    3
 10
830.30682
 20
2457.8955
 11
830.38717
 21
2457.4714
  0
LINE
  8
1-2
  6
CONTINUOUS
 62
    3
 10
830.38717
 20
2457.4714
 11
830.47143
 21
2457.0973
  0
LINE
  8
1-2
  6
CONTINUOUS
 62
    3
 10
830.47143
 20
2457.0973
 11
830.55989
 21
2456.7719
  0
LINE
  8
1-2
  6
CONTINUOUS
 62
    3
 10
830.55989
 20
2456.7719
 11
830.65206
 21
2456.496
  0
LINE
  8
1-2
  6
CONTINUOUS
 62
    3
 10
830.65206
 20
2456.496
 11
830.74825
 21
2456.2699
  0
LINE
  8
1-2
  6
CONTINUOUS
 62
    3
 10
830.74825
 20
2456.2699
 11
830.84852
 21
2456.0927
  0
LINE
  8
1-2
  6
CONTINUOUS
 62
    3
 10
842.53461
 20
2459.4631
 11
842.5726
 21
2459.0105
  0
LINE
  8
1-2
  6
CONTINUOUS
 62
    3
 10
842.5726
 20
2459.0105
 11
842.63526
 21
2458.5822
  0
LINE
  8
1-2
  6
CONTINUOUS
 62
    3
 10
842.63526
 20
2458.5822
 11
842.7197
 21
2458.1786
  0
LINE
  8
1-2
  6
CONTINUOUS
 62
    3
 10
842.7197
 20
2458.1786
 11
842.82381
 21
2457.7998
  0
LINE
  8
1-2
  6
CONTINUOUS
 62
    3
 10
842.82381
 20
2457.7998
 11
842.94536
 21
2457.446
  0
LINE
  8
1-2
  6
CONTINUOUS
 62
    3
 10
842.94536
 20
2457.446
 11
843.08164
 21
2457.1178
  0
LINE
  8
1-2
  6
CONTINUOUS
 62
    3
 10
843.08164
 20
2457.1178
 11
843.23041
 21
2456.814
  0
LINE
  8
1-2
  6
CONTINUOUS
 62
    3
 10
843.23041
 20
2456.814
 11
843.38896
 21
2456.5361
  0
LINE
  8
1-2
  6
CONTINUOUS
 62
    3
 10
843.38896
 20
2456.5361
 11
843.55506
 21
2456.2832
  0
LINE
  8
1-2
  6
CONTINUOUS
 62
    3
 10
843.55506
 20
2456.2832
 11
843.72628
 21
2456.0563
  0
LINE
  8
1-2
  6
CONTINUOUS
 62
    3
 10
843.72628
 20
2456.0563
 11
843.90017
 21
2455.8552
  0
LINE
  8
1-2
  6
CONTINUOUS
 62
    3
 10
843.90017
 20
2455.8552
 11
844.07437
 21
2455.6797
  0
LINE
  8
1-2
  6
CONTINUOUS
 62
    3
 10
844.07437
 20
2455.6797
 11
844.24628
 21
2455.5305
  0
LINE
  8
1-2
  6
CONTINUOUS
 62
    3
 10
844.24628
 20
2455.5305
 11
844.41355
 21
2455.407
  0
LINE
  8
1-2
  6
CONTINUOUS
 62
    3
 10
859.57914
 20
2459.4631
 11
859.69209
 21
2458.959
  0
LINE
  8
1-2
  6
CONTINUOUS
 62
    3
 10
859.69209
 20
2458.959
 11
859.82985
 21
2458.4874
  0
LINE
  8
1-2
  6
CONTINUOUS
 62
    3
 10
859.82985
 20
2458.4874
 11
859.991
 21
2458.047
  0
LINE
  8
1-2
  6
CONTINUOUS
 62
    3
 10
859.991
 20
2458.047
 11
860.17478
 21
2457.6387
  0
LINE
  8
1-2
  6
CONTINUOUS
 62
    3
 10
860.17478
 20
2457.6387
 11
860.37997
 21
2457.2611
  0
LINE
  8
1-2
  6
CONTINUOUS
 62
    3
 10
860.37997
 20
2457.2611
 11
860.60583
 21
2456.9149
  0
LINE
  8
1-2
  6
CONTINUOUS
 62
    3
 10
860.60583
 20
2456.9149
 11
860.85147
 21
2456.6
  0
LINE
  8
1-2
  6
CONTINUOUS
 62
    3
 10
860.85147
 20
2456.6
 11
861.11555
 21
2456.3149
  0
LINE
  8
1-2
  6
CONTINUOUS
 62
    3
 10
861.11555
 20
2456.3149
 11
861.39745
 21
2456.061
  0
LINE
  8
1-2
  6
CONTINUOUS
 62
    3
 10
861.39745
 20
2456.061
 11
861.69586
 21
2455.8364
  0
LINE
  8
1-2
  6
CONTINUOUS
 62
    3
 10
861.69586
 20
2455.8364
 11
862.01011
 21
2455.6419
  0
LINE
  8
1-2
  6
CONTINUOUS
 62
    3
 10
862.01011
 20
2455.6419
 11
862.33908
 21
2455.4771
  0
LINE
  8
1-2
  6
CONTINUOUS
 62
    3
 10
862.33908
 20
2455.4771
 11
862.68135
 21
2455.3422
  0
LINE
  8
1-2
  6
CONTINUOUS
 62
    3
 10
862.68135
 20
2455.3422
 11
863.03686
 21
2455.2358
  0
LINE
  8
1-2
  6
CONTINUOUS
 62
    3
 10
880.84424
 20
2459.4631
 11
881.01516
 21
2458.9348
  0
LINE
  8
1-2
  6
CONTINUOUS
 62
    3
 10
881.01516
 20
2458.9348
 11
881.2154
 21
2458.4454
  0
LINE
  8
1-2
  6
CONTINUOUS
 62
    3
 10
881.2154
 20
2458.4454
 11
881.44242
 21
2457.9943
  0
LINE
  8
1-2
  6
CONTINUOUS
 62
    3
 10
881.44242
 20
2457.9943
 11
881.69382
 21
2457.582
  0
LINE
  8
1-2
  6
CONTINUOUS
 62
    3
 10
881.69382
 20
2457.582
 11
881.96749
 21
2457.2089
  0
LINE
  8
1-2
  6
CONTINUOUS
 62
    3
 10
881.96749
 20
2457.2089
 11
882.26027
 21
2456.8746
  0
LINE
  8
1-2
  6
CONTINUOUS
 62
    3
 10
882.26027
 20
2456.8746
 11
882.57007
 21
2456.5782
  0
LINE
  8
1-2
  6
CONTINUOUS
 62
    3
 10
882.57007
 20
2456.5782
 11
882.89391
 21
2456.3203
  0
LINE
  8
1-2
  6
CONTINUOUS
 62
    3
 10
882.89391
 20
2456.3203
 11
883.22943
 21
2456.0994
  0
LINE
  8
1-2
  6
CONTINUOUS
 62
    3
 10
883.22943
 20
2456.0994
 11
883.57338
 21
2455.9163
  0
LINE
  8
1-2
  6
CONTINUOUS
 62
    3
 10
883.57338
 20
2455.9163
 11
883.92326
 21
2455.7691
  0
LINE
  8
1-2
  6
CONTINUOUS
 62
    3
 10
883.92326
 20
2455.7691
 11
884.27592
 21
2455.6565
  0
LINE
  8
1-2
  6
CONTINUOUS
 62
    3
 10
884.27592
 20
2455.6565
 11
884.62846
 21
2455.5785
  0
LINE
  8
1-2
  6
CONTINUOUS
 62
    3
 10
884.62846
 20
2455.5785
 11
884.97784
 21
2455.534
  0
LINE
  8
1-2
  6
CONTINUOUS
 62
    3
 10
884.97784
 20
2455.534
 11
885.3208
 21
2455.5201
  0
LINE
  8
1-2
  6
CONTINUOUS
 62
    3
 10
885.3208
 20
2455.5201
 11
885.65435
 21
2455.537
  0
LINE
  8
1-2
  6
CONTINUOUS
 62
    3
 10
885.65435
 20
2455.537
 11
885.97503
 21
2455.5817
  0
LINE
  8
1-2
  6
CONTINUOUS
 62
    3
 10
885.97503
 20
2455.5817
 11
886.27969
 21
2455.6533
  0
LINE
  8
1-2
  6
CONTINUOUS
 62
    3
 10
886.27969
 20
2455.6533
 11
886.56492
 21
2455.7498
  0
LINE
  8
1-2
  6
CONTINUOUS
 62
    3
 10
830.08957
 20
2459.4631
 11
824.48901
 21
2459.4631
  0
LINE
  8
1-2
  6
CONTINUOUS
 62
    3
 10
775.23333
 20
2396.5829
 11
830.08957
 21
2459.4631
  0
LINE
  8
1-2
  6
CONTINUOUS
 62
    3
 10
833.70831
 20
2459.4631
 11
779.73457
 21
2396.5829
  0
LINE
  8
1-2
  6
CONTINUOUS
 62
    3
 10
790.71397
 20
2396.5829
 11
842.53461
 21
2459.4631
  0
LINE
  8
1-2
  6
CONTINUOUS
 62
    3
 10
842.53461
 20
2459.4631
 11
833.70831
 21
2459.4631
  0
LINE
  8
1-2
  6
CONTINUOUS
 62
    3
 10
847.72145
 20
2459.4631
 11
797.16553
 21
2396.5829
  0
LINE
  8
1-2
  6
CONTINUOUS
 62
    3
 10
859.57914
 20
2459.4631
 11
847.72145
 21
2459.4631
  0
LINE
  8
1-2
  6
CONTINUOUS
 62
    3
 10
811.91542
 20
2396.5829
 11
859.57914
 21
2459.4631
  0
LINE
  8
1-2
  6
CONTINUOUS
 62
    3
 10
866.22153
 20
2459.4631
 11
820.17793
 21
2396.5829
  0
LINE
  8
1-2
  6
CONTINUOUS
 62
    3
 10
880.85364
 20
2459.4631
 11
866.22153
 21
2459.4631
  0
LINE
  8
1-2
  6
CONTINUOUS
 62
    3
 10
838.37899
 20
2396.5829
 11
880.85364
 21
2459.4631
  0
LINE
  8
1-2
  6
CONTINUOUS
 62
    3
 10
888.80821
 20
2459.4631
 11
848.27361
 21
2396.5829
  0
LINE
  8
1-2
  6
CONTINUOUS
 62
    3
 10
905.89802
 20
2459.4631
 11
888.80821
 21
2459.4631
  0
LINE
  8
1-2
  6
CONTINUOUS
 62
    3
 10
869.53178
 20
2396.5829
 11
905.89802
 21
2459.4631
  0
LINE
  8
1-2
  6
CONTINUOUS
 62
    3
 10
914.99242
 20
2459.4631
 11
880.84424
 21
2396.5829
  0
LINE
  8
1-2
  6
CONTINUOUS
 62
    3
 10
934.17018
 20
2459.4631
 11
914.99242
 21
2459.4631
  0
LINE
  8
1-2
  6
CONTINUOUS
 62
    3
 10
904.69942
 20
2396.5829
 11
934.17018
 21
2459.4631
  0
LINE
  8
1-2
  6
CONTINUOUS
 62
    3
 10
944.20733
 20
2459.4631
 11
917.18461
 21
2396.5829
  0
LINE
  8
1-2
  6
CONTINUOUS
 62
    3
 10
965.05779
 20
2459.4631
 11
944.20733
 21
2459.4631
  0
LINE
  8
1-2
  6
CONTINUOUS
 62
    3
 10
943.12058
 20
2396.5829
 11
965.05779
 21
2459.4631
  0
LINE
  8
1-2
  6
CONTINUOUS
 62
    3
 10
956.50837
 20
2396.5829
 11
975.82056
 21
2459.4631
  0
LINE
  8
1-2
  6
CONTINUOUS
 62
    3
 10
997.89219
 20
2459.4631
 11
975.82056
 21
2459.4631
  0
LINE
  8
1-2
  6
CONTINUOUS
 62
    3
 10
997.89219
 20
2459.4631
 11
983.96349
 21
2396.5829
  0
LINE
  8
1-2
  6
CONTINUOUS
 62
    3
 10
997.96444
 20
2396.5829
 11
1009.1481
 21
2459.4631
  0
LINE
  8
1-2
  6
CONTINUOUS
 62
    3
 10
1031.9631
 20
2459.4631
 11
1009.1481
 21
2459.4631
  0
LINE
  8
1-2
  6
CONTINUOUS
 62
    3
 10
1031.9631
 20
2459.4631
 11
1026.3444
 21
2396.5829
  0
LINE
  8
1-2
  6
CONTINUOUS
 62
    3
 10
1043.4676
 20
2459.4631
 11
1040.6551
 21
2396.5829
  0
LINE
  8
1-2
  6
CONTINUOUS
 62
    3
 10
1055.0001
 20
2459.4631
 11
1043.4676
 21
2459.4631
  0
LINE
  8
1-2
  6
CONTINUOUS
 62
    3
 10
1341.7333
 20
2396.5829
 11
1285.5113
 21
2459.4631
  0
LINE
  8
1-2
  6
CONTINUOUS
 62
    3
 10
1104.9522
 20
2454.2659
 11
1104.4892
 21
2454.4042
  0
LINE
  8
1-2
  6
CONTINUOUS
 62
    3
 10
1104.4892
 20
2454.4042
 11
1104.0546
 21
2454.5927
  0
LINE
  8
1-2
  6
CONTINUOUS
 62
    3
 10
1104.0546
 20
2454.5927
 11
1103.6477
 21
2454.8273
  0
LINE
  8
1-2
  6
CONTINUOUS
 62
    3
 10
1103.6477
 20
2454.8273
 11
1103.2677
 21
2455.1049
  0
LINE
  8
1-2
  6
CONTINUOUS
 62
    3
 10
1103.2677
 20
2455.1049
 11
1102.9149
 21
2455.4226
  0
LINE
  8
1-2
  6
CONTINUOUS
 62
    3
 10
1102.9149
 20
2455.4226
 11
1102.5878
 21
2455.7755
  0
LINE
  8
1-2
  6
CONTINUOUS
 62
    3
 10
1102.5878
 20
2455.7755
 11
1102.2868
 21
2456.16
  0
LINE
  8
1-2
  6
CONTINUOUS
 62
    3
 10
1102.2868
 20
2456.16
 11
1102.0102
 21
2456.5742
  0
LINE
  8
1-2
  6
CONTINUOUS
 62
    3
 10
1102.0102
 20
2456.5742
 11
1101.7585
 21
2457.0132
  0
LINE
  8
1-2
  6
CONTINUOUS
 62
    3
 10
1101.7585
 20
2457.0132
 11
1101.5312
 21
2457.4739
  0
LINE
  8
1-2
  6
CONTINUOUS
 62
    3
 10
1101.5312
 20
2457.4739
 11
1101.3277
 21
2457.953
  0
LINE
  8
1-2
  6
CONTINUOUS
 62
    3
 10
1101.3277
 20
2457.953
 11
1101.1467
 21
2458.4464
  0
LINE
  8
1-2
  6
CONTINUOUS
 62
    3
 10
1101.1467
 20
2458.4464
 11
1100.9883
 21
2458.9511
  0
LINE
  8
1-2
  6
CONTINUOUS
 62
    3
 10
1100.9883
 20
2458.9511
 11
1100.8522
 21
2459.4631
  0
LINE
  8
1-2
  6
CONTINUOUS
 62
    3
 10
1107.4939
 20
2454.2381
 11
1108.029
 21
2454.4304
  0
LINE
  8
1-2
  6
CONTINUOUS
 62
    3
 10
1108.029
 20
2454.4304
 11
1108.5312
 21
2454.6576
  0
LINE
  8
1-2
  6
CONTINUOUS
 62
    3
 10
1108.5312
 20
2454.6576
 11
1109.0005
 21
2454.9179
  0
LINE
  8
1-2
  6
CONTINUOUS
 62
    3
 10
1109.0005
 20
2454.9179
 11
1109.4374
 21
2455.2096
  0
LINE
  8
1-2
  6
CONTINUOUS
 62
    3
 10
1109.4374
 20
2455.2096
 11
1109.8426
 21
2455.5305
  0
LINE
  8
1-2
  6
CONTINUOUS
 62
    3
 10
1109.8426
 20
2455.5305
 11
1110.216
 21
2455.8799
  0
LINE
  8
1-2
  6
CONTINUOUS
 62
    3
 10
1110.216
 20
2455.8799
 11
1110.5583
 21
2456.255
  0
LINE
  8
1-2
  6
CONTINUOUS
 62
    3
 10
1110.5583
 20
2456.255
 11
1110.8692
 21
2456.6549
  0
LINE
  8
1-2
  6
CONTINUOUS
 62
    3
 10
1110.8692
 20
2456.6549
 11
1111.1503
 21
2457.0765
  0
LINE
  8
1-2
  6
CONTINUOUS
 62
    3
 10
1111.1503
 20
2457.0765
 11
1111.4007
 21
2457.5192
  0
LINE
  8
1-2
  6
CONTINUOUS
 62
    3
 10
1111.4007
 20
2457.5192
 11
1111.6214
 21
2457.9812
  0
LINE
  8
1-2
  6
CONTINUOUS
 62
    3
 10
1111.6214
 20
2457.9812
 11
1111.8125
 21
2458.4602
  0
LINE
  8
1-2
  6
CONTINUOUS
 62
    3
 10
1111.8125
 20
2458.4602
 11
1111.9747
 21
2458.9551
  0
LINE
  8
1-2
  6
CONTINUOUS
 62
    3
 10
1111.9747
 20
2458.9551
 11
1112.1078
 21
2459.4631
  0
LINE
  8
1-2
  6
CONTINUOUS
 62
    3
 10
1134.1798
 20
2459.4631
 11
1134.698
 21
2458.6191
  0
LINE
  8
1-2
  6
CONTINUOUS
 62
    3
 10
1134.698
 20
2458.6191
 11
1135.2222
 21
2457.8683
  0
LINE
  8
1-2
  6
CONTINUOUS
 62
    3
 10
1135.2222
 20
2457.8683
 11
1135.7506
 21
2457.2054
  0
LINE
  8
1-2
  6
CONTINUOUS
 62
    3
 10
1135.7506
 20
2457.2054
 11
1136.2807
 21
2456.6254
  0
LINE
  8
1-2
  6
CONTINUOUS
 62
    3
 10
1136.2807
 20
2456.6254
 11
1136.8107
 21
2456.1229
  0
LINE
  8
1-2
  6
CONTINUOUS
 62
    3
 10
1136.8107
 20
2456.1229
 11
1137.3383
 21
2455.6931
  0
LINE
  8
1-2
  6
CONTINUOUS
 62
    3
 10
1137.3383
 20
2455.6931
 11
1137.8623
 21
2455.3306
  0
LINE
  8
1-2
  6
CONTINUOUS
 62
    3
 10
1137.8623
 20
2455.3306
 11
1138.3793
 21
2455.0299
  0
LINE
  8
1-2
  6
CONTINUOUS
 62
    3
 10
1138.3793
 20
2455.0299
 11
1138.8881
 21
2454.786
  0
LINE
  8
1-2
  6
CONTINUOUS
 62
    3
 10
1138.8881
 20
2454.786
 11
1139.3862
 21
2454.5942
  0
LINE
  8
1-2
  6
CONTINUOUS
 62
    3
 10
1139.3862
 20
2454.5942
 11
1139.8721
 21
2454.4485
  0
LINE
  8
1-2
  6
CONTINUOUS
 62
    3
 10
1139.8721
 20
2454.4485
 11
1140.3431
 21
2454.3438
  0
LINE
  8
1-2
  6
CONTINUOUS
 62
    3
 10
1140.3431
 20
2454.3438
 11
1140.7979
 21
2454.2755
  0
LINE
  8
1-2
  6
CONTINUOUS
 62
    3
 10
1140.7979
 20
2454.2755
 11
1141.2334
 21
2454.2381
  0
LINE
  8
1-2
  6
CONTINUOUS
 62
    3
 10
1144.9425
 20
2459.4631
 11
1144.9268
 21
2458.8561
  0
LINE
  8
1-2
  6
CONTINUOUS
 62
    3
 10
1144.9268
 20
2458.8561
 11
1144.8801
 21
2458.2947
  0
LINE
  8
1-2
  6
CONTINUOUS
 62
    3
 10
1144.8801
 20
2458.2947
 11
1144.8001
 21
2457.7773
  0
LINE
  8
1-2
  6
CONTINUOUS
 62
    3
 10
1144.8001
 20
2457.7773
 11
1144.6852
 21
2457.3007
  0
LINE
  8
1-2
  6
CONTINUOUS
 62
    3
 10
1144.6852
 20
2457.3007
 11
1144.5339
 21
2456.8627
  0
LINE
  8
1-2
  6
CONTINUOUS
 62
    3
 10
1144.5339
 20
2456.8627
 11
1144.3439
 21
2456.4611
  0
LINE
  8
1-2
  6
CONTINUOUS
 62
    3
 10
1144.3439
 20
2456.4611
 11
1144.1141
 21
2456.0927
  0
LINE
  8
1-2
  6
CONTINUOUS
 62
    3
 10
1144.1141
 20
2456.0927
 11
1143.8421
 21
2455.7552
  0
LINE
  8
1-2
  6
CONTINUOUS
 62
    3
 10
1143.8421
 20
2455.7552
 11
1143.5267
 21
2455.4461
  0
LINE
  8
1-2
  6
CONTINUOUS
 62
    3
 10
1143.5267
 20
2455.4461
 11
1143.1659
 21
2455.1628
  0
LINE
  8
1-2
  6
CONTINUOUS
 62
    3
 10
1143.1659
 20
2455.1628
 11
1142.758
 21
2454.903
  0
LINE
  8
1-2
  6
CONTINUOUS
 62
    3
 10
1142.758
 20
2454.903
 11
1142.301
 21
2454.6637
  0
LINE
  8
1-2
  6
CONTINUOUS
 62
    3
 10
1142.301
 20
2454.6637
 11
1141.7933
 21
2454.4428
  0
LINE
  8
1-2
  6
CONTINUOUS
 62
    3
 10
1141.7933
 20
2454.4428
 11
1141.2334
 21
2454.2381
  0
LINE
  8
1-2
  6
CONTINUOUS
 62
    3
 10
1175.8301
 20
2459.4631
 11
1175.5657
 21
2458.7502
  0
LINE
  8
1-2
  6
CONTINUOUS
 62
    3
 10
1175.5657
 20
2458.7502
 11
1175.2905
 21
2458.1029
  0
LINE
  8
1-2
  6
CONTINUOUS
 62
    3
 10
1175.2905
 20
2458.1029
 11
1175.0045
 21
2457.5192
  0
LINE
  8
1-2
  6
CONTINUOUS
 62
    3
 10
1175.0045
 20
2457.5192
 11
1174.7077
 21
2456.9951
  0
LINE
  8
1-2
  6
CONTINUOUS
 62
    3
 10
1174.7077
 20
2456.9951
 11
1174.4016
 21
2456.5282
  0
LINE
  8
1-2
  6
CONTINUOUS
 62
    3
 10
1174.4016
 20
2456.5282
 11
1174.085
 21
2456.1145
  0
LINE
  8
1-2
  6
CONTINUOUS
 62
    3
 10
1174.085
 20
2456.1145
 11
1173.7589
 21
2455.751
  0
LINE
  8
1-2
  6
CONTINUOUS
 62
    3
 10
1173.7589
 20
2455.751
 11
1173.4234
 21
2455.4348
  0
LINE
  8
1-2
  6
CONTINUOUS
 62
    3
 10
1173.4234
 20
2455.4348
 11
1173.0789
 21
2455.1623
  0
LINE
  8
1-2
  6
CONTINUOUS
 62
    3
 10
1173.0789
 20
2455.1623
 11
1172.726
 21
2454.9312
  0
LINE
  8
1-2
  6
CONTINUOUS
 62
    3
 10
1172.726
 20
2454.9312
 11
1172.364
 21
2454.7372
  0
LINE
  8
1-2
  6
CONTINUOUS
 62
    3
 10
1172.364
 20
2454.7372
 11
1171.9938
 21
2454.5779
  0
LINE
  8
1-2
  6
CONTINUOUS
 62
    3
 10
1171.9938
 20
2454.5779
 11
1171.6157
 21
2454.4497
  0
LINE
  8
1-2
  6
CONTINUOUS
 62
    3
 10
1171.6157
 20
2454.4497
 11
1171.2304
 21
2454.3495
  0
LINE
  8
1-2
  6
CONTINUOUS
 62
    3
 10
1170.3822
 20
2454.3495
 11
1169.9804
 21
2454.4346
  0
LINE
  8
1-2
  6
CONTINUOUS
 62
    3
 10
1169.9804
 20
2454.4346
 11
1169.5811
 21
2454.5709
  0
LINE
  8
1-2
  6
CONTINUOUS
 62
    3
 10
1169.5811
 20
2454.5709
 11
1169.1856
 21
2454.757
  0
LINE
  8
1-2
  6
CONTINUOUS
 62
    3
 10
1169.1856
 20
2454.757
 11
1168.7929
 21
2454.9938
  0
LINE
  8
1-2
  6
CONTINUOUS
 62
    3
 10
1168.7929
 20
2454.9938
 11
1168.4037
 21
2455.2811
  0
LINE
  8
1-2
  6
CONTINUOUS
 62
    3
 10
1168.4037
 20
2455.2811
 11
1168.0178
 21
2455.6186
  0
LINE
  8
1-2
  6
CONTINUOUS
 62
    3
 10
1168.0178
 20
2455.6186
 11
1167.6353
 21
2456.0068
  0
LINE
  8
1-2
  6
CONTINUOUS
 62
    3
 10
1167.6353
 20
2456.0068
 11
1167.2557
 21
2456.4456
  0
LINE
  8
1-2
  6
CONTINUOUS
 62
    3
 10
1167.2557
 20
2456.4456
 11
1166.8797
 21
2456.934
  0
LINE
  8
1-2
  6
CONTINUOUS
 62
    3
 10
1204.1023
 20
2459.4631
 11
1204.0257
 21
2458.9195
  0
LINE
  8
1-2
  6
CONTINUOUS
 62
    3
 10
1204.0257
 20
2458.9195
 11
1203.9172
 21
2458.4134
  0
LINE
  8
1-2
  6
CONTINUOUS
 62
    3
 10
1203.9172
 20
2458.4134
 11
1203.7789
 21
2457.9433
  0
LINE
  8
1-2
  6
CONTINUOUS
 62
    3
 10
1203.7789
 20
2457.9433
 11
1203.614
 21
2457.5081
  0
LINE
  8
1-2
  6
CONTINUOUS
 62
    3
 10
1203.614
 20
2457.5081
 11
1203.4243
 21
2457.1052
  0
LINE
  8
1-2
  6
CONTINUOUS
 62
    3
 10
1203.4243
 20
2457.1052
 11
1203.2118
 21
2456.7346
  0
LINE
  8
1-2
  6
CONTINUOUS
 62
    3
 10
1203.2118
 20
2456.7346
 11
1202.9796
 21
2456.3938
  0
LINE
  8
1-2
  6
CONTINUOUS
 62
    3
 10
1202.9796
 20
2456.3938
 11
1202.7291
 21
2456.0828
  0
LINE
  8
1-2
  6
CONTINUOUS
 62
    3
 10
1202.7291
 20
2456.0828
 11
1202.4623
 21
2455.7997
  0
LINE
  8
1-2
  6
CONTINUOUS
 62
    3
 10
1202.4623
 20
2455.7997
 11
1202.1805
 21
2455.5439
  0
LINE
  8
1-2
  6
CONTINUOUS
 62
    3
 10
1202.1805
 20
2455.5439
 11
1201.8862
 21
2455.3143
  0
LINE
  8
1-2
  6
CONTINUOUS
 62
    3
 10
1201.8862
 20
2455.3143
 11
1201.58
 21
2455.1109
  0
LINE
  8
1-2
  6
CONTINUOUS
 62
    3
 10
1201.58
 20
2455.1109
 11
1201.2639
 21
2454.9312
  0
LINE
  8
1-2
  6
CONTINUOUS
 62
    3
 10
1201.2639
 20
2454.9312
 11
1200.9392
 21
2454.7763
  0
LINE
  8
1-2
  6
CONTINUOUS
 62
    3
 10
1200.9392
 20
2454.7763
 11
1200.6065
 21
2454.6449
  0
LINE
  8
1-2
  6
CONTINUOUS
 62
    3
 10
1200.6065
 20
2454.6449
 11
1200.267
 21
2454.5368
  0
LINE
  8
1-2
  6
CONTINUOUS
 62
    3
 10
1200.267
 20
2454.5368
 11
1199.9217
 21
2454.4517
  0
LINE
  8
1-2
  6
CONTINUOUS
 62
    3
 10
1199.9217
 20
2454.4517
 11
1199.5712
 21
2454.3896
  0
LINE
  8
1-2
  6
CONTINUOUS
 62
    3
 10
1199.5712
 20
2454.3896
 11
1199.2161
 21
2454.3495
  0
LINE
  8
1-2
  6
CONTINUOUS
 62
    3
 10
1199.1268
 20
2454.3542
 11
1198.9269
 21
2454.3762
  0
LINE
  8
1-2
  6
CONTINUOUS
 62
    3
 10
1198.9269
 20
2454.3762
 11
1198.7301
 21
2454.4079
  0
LINE
  8
1-2
  6
CONTINUOUS
 62
    3
 10
1198.7301
 20
2454.4079
 11
1198.5371
 21
2454.4497
  0
LINE
  8
1-2
  6
CONTINUOUS
 62
    3
 10
1198.5371
 20
2454.4497
 11
1198.3476
 21
2454.5007
  0
LINE
  8
1-2
  6
CONTINUOUS
 62
    3
 10
1198.3476
 20
2454.5007
 11
1198.1618
 21
2454.5611
  0
LINE
  8
1-2
  6
CONTINUOUS
 62
    3
 10
1198.1618
 20
2454.5611
 11
1197.9788
 21
2454.6313
  0
LINE
  8
1-2
  6
CONTINUOUS
 62
    3
 10
1197.9788
 20
2454.6313
 11
1197.7997
 21
2454.7115
  0
LINE
  8
1-2
  6
CONTINUOUS
 62
    3
 10
1197.7997
 20
2454.7115
 11
1197.624
 21
2454.8011
  0
LINE
  8
1-2
  6
CONTINUOUS
 62
    3
 10
1197.624
 20
2454.8011
 11
1197.4514
 21
2454.9
  0
LINE
  8
1-2
  6
CONTINUOUS
 62
    3
 10
1279.911
 20
2459.4631
 11
1279.8423
 21
2458.8915
  0
LINE
  8
1-2
  6
CONTINUOUS
 62
    3
 10
1279.8423
 20
2458.8915
 11
1279.7697
 21
2458.3687
  0
LINE
  8
1-2
  6
CONTINUOUS
 62
    3
 10
1279.7697
 20
2458.3687
 11
1279.6935
 21
2457.8955
  0
LINE
  8
1-2
  6
CONTINUOUS
 62
    3
 10
1279.6935
 20
2457.8955
 11
1279.6132
 21
2457.4714
  0
LINE
  8
1-2
  6
CONTINUOUS
 62
    3
 10
1279.6132
 20
2457.4714
 11
1279.5289
 21
2457.0973
  0
LINE
  8
1-2
  6
CONTINUOUS
 62
    3
 10
1279.5289
 20
2457.0973
 11
1279.4404
 21
2456.7719
  0
LINE
  8
1-2
  6
CONTINUOUS
 62
    3
 10
1279.4404
 20
2456.7719
 11
1279.348
 21
2456.496
  0
LINE
  8
1-2
  6
CONTINUOUS
 62
    3
 10
1279.348
 20
2456.496
 11
1279.252
 21
2456.2699
  0
LINE
  8
1-2
  6
CONTINUOUS
 62
    3
 10
1279.252
 20
2456.2699
 11
1279.1518
 21
2456.0927
  0
LINE
  8
1-2
  6
CONTINUOUS
 62
    3
 10
1267.4657
 20
2459.4631
 11
1267.4277
 21
2459.0105
  0
LINE
  8
1-2
  6
CONTINUOUS
 62
    3
 10
1267.4277
 20
2459.0105
 11
1267.365
 21
2458.5822
  0
LINE
  8
1-2
  6
CONTINUOUS
 62
    3
 10
1267.365
 20
2458.5822
 11
1267.2804
 21
2458.1786
  0
LINE
  8
1-2
  6
CONTINUOUS
 62
    3
 10
1267.2804
 20
2458.1786
 11
1267.1765
 21
2457.7998
  0
LINE
  8
1-2
  6
CONTINUOUS
 62
    3
 10
1267.1765
 20
2457.7998
 11
1267.0547
 21
2457.446
  0
LINE
  8
1-2
  6
CONTINUOUS
 62
    3
 10
1267.0547
 20
2457.446
 11
1266.9186
 21
2457.1178
  0
LINE
  8
1-2
  6
CONTINUOUS
 62
    3
 10
1266.9186
 20
2457.1178
 11
1266.77
 21
2456.814
  0
LINE
  8
1-2
  6
CONTINUOUS
 62
    3
 10
1266.77
 20
2456.814
 11
1266.6116
 21
2456.5361
  0
LINE
  8
1-2
  6
CONTINUOUS
 62
    3
 10
1266.6116
 20
2456.5361
 11
1266.4453
 21
2456.2832
  0
LINE
  8
1-2
  6
CONTINUOUS
 62
    3
 10
1266.4453
 20
2456.2832
 11
1266.2742
 21
2456.0563
  0
LINE
  8
1-2
  6
CONTINUOUS
 62
    3
 10
1266.2742
 20
2456.0563
 11
1266.1001
 21
2455.8552
  0
LINE
  8
1-2
  6
CONTINUOUS
 62
    3
 10
1266.1001
 20
2455.8552
 11
1265.9259
 21
2455.6797
  0
LINE
  8
1-2
  6
CONTINUOUS
 62
    3
 10
1265.9259
 20
2455.6797
 11
1265.7541
 21
2455.5305
  0
LINE
  8
1-2
  6
CONTINUOUS
 62
    3
 10
1265.7541
 20
2455.5305
 11
1265.5868
 21
2455.407
  0
LINE
  8
1-2
  6
CONTINUOUS
 62
    3
 10
1250.4212
 20
2459.4631
 11
1250.3082
 21
2458.959
  0
LINE
  8
1-2
  6
CONTINUOUS
 62
    3
 10
1250.3082
 20
2458.959
 11
1250.1707
 21
2458.4874
  0
LINE
  8
1-2
  6
CONTINUOUS
 62
    3
 10
1250.1707
 20
2458.4874
 11
1250.0095
 21
2458.047
  0
LINE
  8
1-2
  6
CONTINUOUS
 62
    3
 10
1250.0095
 20
2458.047
 11
1249.8255
 21
2457.6387
  0
LINE
  8
1-2
  6
CONTINUOUS
 62
    3
 10
1249.8255
 20
2457.6387
 11
1249.6204
 21
2457.2611
  0
LINE
  8
1-2
  6
CONTINUOUS
 62
    3
 10
1249.6204
 20
2457.2611
 11
1249.3943
 21
2456.9149
  0
LINE
  8
1-2
  6
CONTINUOUS
 62
    3
 10
1249.3943
 20
2456.9149
 11
1249.1489
 21
2456.6
  0
LINE
  8
1-2
  6
CONTINUOUS
 62
    3
 10
1249.1489
 20
2456.6
 11
1248.8846
 21
2456.3149
  0
LINE
  8
1-2
  6
CONTINUOUS
 62
    3
 10
1248.8846
 20
2456.3149
 11
1248.603
 21
2456.061
  0
LINE
  8
1-2
  6
CONTINUOUS
 62
    3
 10
1248.603
 20
2456.061
 11
1248.3042
 21
2455.8364
  0
LINE
  8
1-2
  6
CONTINUOUS
 62
    3
 10
1248.3042
 20
2455.8364
 11
1247.9903
 21
2455.6419
  0
LINE
  8
1-2
  6
CONTINUOUS
 62
    3
 10
1247.9903
 20
2455.6419
 11
1247.6613
 21
2455.4771
  0
LINE
  8
1-2
  6
CONTINUOUS
 62
    3
 10
1247.6613
 20
2455.4771
 11
1247.3188
 21
2455.3422
  0
LINE
  8
1-2
  6
CONTINUOUS
 62
    3
 10
1247.3188
 20
2455.3422
 11
1246.9635
 21
2455.2358
  0
LINE
  8
1-2
  6
CONTINUOUS
 62
    3
 10
1229.1562
 20
2459.4631
 11
1228.9851
 21
2458.9348
  0
LINE
  8
1-2
  6
CONTINUOUS
 62
    3
 10
1228.9851
 20
2458.9348
 11
1228.7851
 21
2458.4454
  0
LINE
  8
1-2
  6
CONTINUOUS
 62
    3
 10
1228.7851
 20
2458.4454
 11
1228.5579
 21
2457.9943
  0
LINE
  8
1-2
  6
CONTINUOUS
 62
    3
 10
1228.5579
 20
2457.9943
 11
1228.3065
 21
2457.582
  0
LINE
  8
1-2
  6
CONTINUOUS
 62
    3
 10
1228.3065
 20
2457.582
 11
1228.0328
 21
2457.2089
  0
LINE
  8
1-2
  6
CONTINUOUS
 62
    3
 10
1228.0328
 20
2457.2089
 11
1227.74
 21
2456.8746
  0
LINE
  8
1-2
  6
CONTINUOUS
 62
    3
 10
1227.74
 20
2456.8746
 11
1227.4302
 21
2456.5782
  0
LINE
  8
1-2
  6
CONTINUOUS
 62
    3
 10
1227.4302
 20
2456.5782
 11
1227.1064
 21
2456.3203
  0
LINE
  8
1-2
  6
CONTINUOUS
 62
    3
 10
1227.1064
 20
2456.3203
 11
1226.7709
 21
2456.0994
  0
LINE
  8
1-2
  6
CONTINUOUS
 62
    3
 10
1226.7709
 20
2456.0994
 11
1226.427
 21
2455.9163
  0
LINE
  8
1-2
  6
CONTINUOUS
 62
    3
 10
1226.427
 20
2455.9163
 11
1226.0771
 21
2455.7691
  0
LINE
  8
1-2
  6
CONTINUOUS
 62
    3
 10
1226.0771
 20
2455.7691
 11
1225.7242
 21
2455.6565
  0
LINE
  8
1-2
  6
CONTINUOUS
 62
    3
 10
1225.7242
 20
2455.6565
 11
1225.3719
 21
2455.5785
  0
LINE
  8
1-2
  6
CONTINUOUS
 62
    3
 10
1225.3719
 20
2455.5785
 11
1225.0229
 21
2455.534
  0
LINE
  8
1-2
  6
CONTINUOUS
 62
    3
 10
1225.0229
 20
2455.534
 11
1224.6795
 21
2455.5201
  0
LINE
  8
1-2
  6
CONTINUOUS
 62
    3
 10
1224.6795
 20
2455.5201
 11
1224.346
 21
2455.537
  0
LINE
  8
1-2
  6
CONTINUOUS
 62
    3
 10
1224.346
 20
2455.537
 11
1224.0252
 21
2455.5817
  0
LINE
  8
1-2
  6
CONTINUOUS
 62
    3
 10
1224.0252
 20
2455.5817
 11
1223.7206
 21
2455.6533
  0
LINE
  8
1-2
  6
CONTINUOUS
 62
    3
 10
1223.7206
 20
2455.6533
 11
1223.4354
 21
2455.7498
  0
LINE
  8
1-2
  6
CONTINUOUS
 62
    3
 10
1279.911
 20
2459.4631
 11
1285.5113
 21
2459.4631
  0
LINE
  8
1-2
  6
CONTINUOUS
 62
    3
 10
1334.767
 20
2396.5829
 11
1279.911
 21
2459.4631
  0
LINE
  8
1-2
  6
CONTINUOUS
 62
    3
 10
1276.292
 20
2459.4631
 11
1330.2656
 21
2396.5829
  0
LINE
  8
1-2
  6
CONTINUOUS
 62
    3
 10
1319.2863
 20
2396.5829
 11
1267.4657
 21
2459.4631
  0
LINE
  8
1-2
  6
CONTINUOUS
 62
    3
 10
1267.4657
 20
2459.4631
 11
1276.292
 21
2459.4631
  0
LINE
  8
1-2
  6
CONTINUOUS
 62
    3
 10
1262.2786
 20
2459.4631
 11
1312.8346
 21
2396.5829
  0
LINE
  8
1-2
  6
CONTINUOUS
 62
    3
 10
1250.4212
 20
2459.4631
 11
1262.2786
 21
2459.4631
  0
LINE
  8
1-2
  6
CONTINUOUS
 62
    3
 10
1298.0847
 20
2396.5829
 11
1250.4212
 21
2459.4631
  0
LINE
  8
1-2
  6
CONTINUOUS
 62
    3
 10
1243.7788
 20
2459.4631
 11
1289.822
 21
2396.5829
  0
LINE
  8
1-2
  6
CONTINUOUS
 62
    3
 10
1229.1464
 20
2459.4631
 11
1243.7788
 21
2459.4631
  0
LINE
  8
1-2
  6
CONTINUOUS
 62
    3
 10
1271.6213
 20
2396.5829
 11
1229.1464
 21
2459.4631
  0
LINE
  8
1-2
  6
CONTINUOUS
 62
    3
 10
1221.1921
 20
2459.4631
 11
1261.7267
 21
2396.5829
  0
LINE
  8
1-2
  6
CONTINUOUS
 62
    3
 10
1204.1023
 20
2459.4631
 11
1221.1921
 21
2459.4631
  0
LINE
  8
1-2
  6
CONTINUOUS
 62
    3
 10
1240.4683
 20
2396.5829
 11
1204.1023
 21
2459.4631
  0
LINE
  8
1-2
  6
CONTINUOUS
 62
    3
 10
1195.0077
 20
2459.4631
 11
1229.1562
 21
2396.5829
  0
LINE
  8
1-2
  6
CONTINUOUS
 62
    3
 10
1175.8301
 20
2459.4631
 11
1195.0077
 21
2459.4631
  0
LINE
  8
1-2
  6
CONTINUOUS
 62
    3
 10
1205.3009
 20
2396.5829
 11
1175.8301
 21
2459.4631
  0
LINE
  8
1-2
  6
CONTINUOUS
 62
    3
 10
1165.7928
 20
2459.4631
 11
1192.8153
 21
2396.5829
  0
LINE
  8
1-2
  6
CONTINUOUS
 62
    3
 10
1144.9425
 20
2459.4631
 11
1165.7928
 21
2459.4631
  0
LINE
  8
1-2
  6
CONTINUOUS
 62
    3
 10
1166.8797
 20
2396.5829
 11
1144.9425
 21
2459.4631
  0
LINE
  8
1-2
  6
CONTINUOUS
 62
    3
 10
1153.492
 20
2396.5829
 11
1134.1798
 21
2459.4631
  0
LINE
  8
1-2
  6
CONTINUOUS
 62
    3
 10
1112.1078
 20
2459.4631
 11
1134.1798
 21
2459.4631
  0
LINE
  8
1-2
  6
CONTINUOUS
 62
    3
 10
1112.1078
 20
2459.4631
 11
1126.0367
 21
2396.5829
  0
LINE
  8
1-2
  6
CONTINUOUS
 62
    3
 10
1112.0359
 20
2396.5829
 11
1100.8522
 21
2459.4631
  0
LINE
  8
1-2
  6
CONTINUOUS
 62
    3
 10
1078.0369
 20
2459.4631
 11
1100.8522
 21
2459.4631
  0
LINE
  8
1-2
  6
CONTINUOUS
 62
    3
 10
1078.0369
 20
2459.4631
 11
1083.6558
 21
2396.5829
  0
LINE
  8
1-2
  6
CONTINUOUS
 62
    3
 10
1066.5323
 20
2459.4631
 11
1069.3452
 21
2396.5829
  0
LINE
  8
1-2
  6
CONTINUOUS
 62
    3
 10
1055.0001
 20
2459.4631
 11
1066.5323
 21
2459.4631
  0
LINE
  8
1-2
  6
CONTINUOUS
 62
    3
 10
1026.3444
 20
2308.5505
 11
1026.3444
 21
2132.4862
  0
LINE
  8
1-2
  6
CONTINUOUS
 62
    3
 10
997.96444
 20
2308.5505
 11
997.96444
 21
2132.4862
  0
LINE
  8
1-2
  6
CONTINUOUS
 62
    3
 10
943.12058
 20
2308.5505
 11
943.12058
 21
2132.4862
  0
LINE
  8
1-2
  6
CONTINUOUS
 62
    3
 10
917.18461
 20
2308.5505
 11
917.18461
 21
2132.4862
  0
LINE
  8
1-2
  6
CONTINUOUS
 62
    3
 10
869.53178
 20
2308.5505
 11
869.53178
 21
2132.4862
  0
LINE
  8
1-2
  6
CONTINUOUS
 62
    3
 10
848.27361
 20
2308.5505
 11
848.27361
 21
2132.4862
  0
LINE
  8
1-2
  6
CONTINUOUS
 62
    3
 10
811.91542
 20
2308.5505
 11
811.91542
 21
2132.4862
  0
LINE
  8
1-2
  6
CONTINUOUS
 62
    3
 10
997.96444
 20
2132.4862
 11
943.12058
 21
2147.7295
  0
LINE
  8
1-2
  6
CONTINUOUS
 62
    3
 10
848.27361
 20
2132.4862
 11
811.91542
 21
2147.7295
  0
LINE
  8
1-2
  6
CONTINUOUS
 62
    3
 10
879.15126
 20
2308.5505
 11
879.15126
 21
2132.4862
  0
LINE
  8
1-2
  6
CONTINUOUS
 62
    3
 10
890.39579
 20
2308.5505
 11
890.39579
 21
2132.4862
  0
LINE
  8
1-2
  6
CONTINUOUS
 62
    3
 10
917.18461
 20
2132.4862
 11
890.39579
 21
2141.0553
  0
LINE
  8
1-2
  6
CONTINUOUS
 62
    3
 10
879.15126
 20
2144.6523
 11
869.53178
 21
2147.7295
  0
LINE
  8
1-2
  6
CONTINUOUS
 62
    3
 10
768.26672
 20
2057.0299
 11
768.26672
 21
2119.911
  0
LINE
  8
1-2
  6
CONTINUOUS
 62
    3
 10
1083.6558
 20
2308.5505
 11
1083.6558
 21
2132.4862
  0
LINE
  8
1-2
  6
CONTINUOUS
 62
    3
 10
1112.0359
 20
2308.5505
 11
1112.0359
 21
2132.4862
  0
LINE
  8
1-2
  6
CONTINUOUS
 62
    3
 10
1166.8797
 20
2308.5505
 11
1166.8797
 21
2132.4862
  0
LINE
  8
1-2
  6
CONTINUOUS
 62
    3
 10
1192.8153
 20
2308.5505
 11
1192.8153
 21
2132.4862
  0
LINE
  8
1-2
  6
CONTINUOUS
 62
    3
 10
1240.4683
 20
2308.5505
 11
1240.4683
 21
2132.4862
  0
LINE
  8
1-2
  6
CONTINUOUS
 62
    3
 10
1261.7267
 20
2308.5505
 11
1261.7267
 21
2132.4862
  0
LINE
  8
1-2
  6
CONTINUOUS
 62
    3
 10
1298.0847
 20
2308.5505
 11
1298.0847
 21
2132.4862
  0
LINE
  8
1-2
  6
CONTINUOUS
 62
    3
 10
1230.8492
 20
2308.5505
 11
1230.8492
 21
2132.4862
  0
LINE
  8
1-2
  6
CONTINUOUS
 62
    3
 10
1219.6045
 20
2308.5505
 11
1219.6045
 21
2132.4862
  0
LINE
  8
1-2
  6
CONTINUOUS
 62
    3
 10
1112.0359
 20
2147.7295
 11
1166.8797
 21
2132.4862
  0
LINE
  8
1-2
  6
CONTINUOUS
 62
    3
 10
1083.6558
 20
2132.4862
 11
1026.3444
 21
2147.7295
  0
LINE
  8
1-2
  6
CONTINUOUS
 62
    3
 10
768.26672
 20
2044.4538
 11
1341.734
 21
2044.4538
  0
LINE
  8
1-2
  6
CONTINUOUS
 62
    3
 10
1341.7333
 20
2044.4538
 11
1285.5113
 21
1981.5737
  0
LINE
  8
1-2
  6
CONTINUOUS
 62
    3
 10
768.26672
 20
2044.4538
 11
824.48901
 21
1981.5737
  0
LINE
  8
1-2
  6
CONTINUOUS
 62
    3
 10
1005.0481
 20
1986.7712
 11
1005.511
 21
1986.6327
  0
LINE
  8
1-2
  6
CONTINUOUS
 62
    3
 10
1005.511
 20
1986.6327
 11
1005.9457
 21
1986.4443
  0
LINE
  8
1-2
  6
CONTINUOUS
 62
    3
 10
1005.9457
 20
1986.4443
 11
1006.3526
 21
1986.2093
  0
LINE
  8
1-2
  6
CONTINUOUS
 62
    3
 10
1006.3526
 20
1986.2093
 11
1006.7324
 21
1985.9319
  0
LINE
  8
1-2
  6
CONTINUOUS
 62
    3
 10
1006.7324
 20
1985.9319
 11
1007.0855
 21
1985.6147
  0
LINE
  8
1-2
  6
CONTINUOUS
 62
    3
 10
1007.0855
 20
1985.6147
 11
1007.4123
 21
1985.2618
  0
LINE
  8
1-2
  6
CONTINUOUS
 62
    3
 10
1007.4123
 20
1985.2618
 11
1007.7137
 21
1984.8766
  0
LINE
  8
1-2
  6
CONTINUOUS
 62
    3
 10
1007.7137
 20
1984.8766
 11
1007.99
 21
1984.4626
  0
LINE
  8
1-2
  6
CONTINUOUS
 62
    3
 10
1007.99
 20
1984.4626
 11
1008.2414
 21
1984.0236
  0
LINE
  8
1-2
  6
CONTINUOUS
 62
    3
 10
1008.2414
 20
1984.0236
 11
1008.4691
 21
1983.5632
  0
LINE
  8
1-2
  6
CONTINUOUS
 62
    3
 10
1008.4691
 20
1983.5632
 11
1008.673
 21
1983.0839
  0
LINE
  8
1-2
  6
CONTINUOUS
 62
    3
 10
1008.673
 20
1983.0839
 11
1008.8537
 21
1982.5905
  0
LINE
  8
1-2
  6
CONTINUOUS
 62
    3
 10
1008.8537
 20
1982.5905
 11
1009.0118
 21
1982.0859
  0
LINE
  8
1-2
  6
CONTINUOUS
 62
    3
 10
1009.0118
 20
1982.0859
 11
1009.1481
 21
1981.5737
  0
LINE
  8
1-2
  6
CONTINUOUS
 62
    3
 10
1002.5064
 20
1986.7989
 11
1001.9713
 21
1986.6067
  0
LINE
  8
1-2
  6
CONTINUOUS
 62
    3
 10
1001.9713
 20
1986.6067
 11
1001.4693
 21
1986.3793
  0
LINE
  8
1-2
  6
CONTINUOUS
 62
    3
 10
1001.4693
 20
1986.3793
 11
1000.9997
 21
1986.1192
  0
LINE
  8
1-2
  6
CONTINUOUS
 62
    3
 10
1000.9997
 20
1986.1192
 11
1000.5629
 21
1985.8272
  0
LINE
  8
1-2
  6
CONTINUOUS
 62
    3
 10
1000.5629
 20
1985.8272
 11
1000.1577
 21
1985.5061
  0
LINE
  8
1-2
  6
CONTINUOUS
 62
    3
 10
1000.1577
 20
1985.5061
 11
999.78411
 21
1985.1569
  0
LINE
  8
1-2
  6
CONTINUOUS
 62
    3
 10
999.78411
 20
1985.1569
 11
999.44203
 21
1984.7816
  0
LINE
  8
1-2
  6
CONTINUOUS
 62
    3
 10
999.44203
 20
1984.7816
 11
999.13075
 21
1984.3824
  0
LINE
  8
1-2
  6
CONTINUOUS
 62
    3
 10
999.13075
 20
1984.3824
 11
998.84997
 21
1983.9603
  0
LINE
  8
1-2
  6
CONTINUOUS
 62
    3
 10
998.84997
 20
1983.9603
 11
998.59937
 21
1983.5176
  0
LINE
  8
1-2
  6
CONTINUOUS
 62
    3
 10
998.59937
 20
1983.5176
 11
998.37884
 21
1983.0557
  0
LINE
  8
1-2
  6
CONTINUOUS
 62
    3
 10
998.37884
 20
1983.0557
 11
998.18751
 21
1982.5769
  0
LINE
  8
1-2
  6
CONTINUOUS
 62
    3
 10
998.18751
 20
1982.5769
 11
998.0255
 21
1982.0822
  0
LINE
  8
1-2
  6
CONTINUOUS
 62
    3
 10
998.0255
 20
1982.0822
 11
997.89219
 21
1981.5737
  0
LINE
  8
1-2
  6
CONTINUOUS
 62
    3
 10
975.82056
 20
1981.5737
 11
975.30229
 21
1982.418
  0
LINE
  8
1-2
  6
CONTINUOUS
 62
    3
 10
975.30229
 20
1982.418
 11
974.77803
 21
1983.169
  0
LINE
  8
1-2
  6
CONTINUOUS
 62
    3
 10
974.77803
 20
1983.169
 11
974.24968
 21
1983.8316
  0
LINE
  8
1-2
  6
CONTINUOUS
 62
    3
 10
974.24968
 20
1983.8316
 11
973.71948
 21
1984.4116
  0
LINE
  8
1-2
  6
CONTINUOUS
 62
    3
 10
973.71948
 20
1984.4116
 11
973.18947
 21
1984.9139
  0
LINE
  8
1-2
  6
CONTINUOUS
 62
    3
 10
973.18947
 20
1984.9139
 11
972.66161
 21
1985.3437
  0
LINE
  8
1-2
  6
CONTINUOUS
 62
    3
 10
972.66161
 20
1985.3437
 11
972.13834
 21
1985.7065
  0
LINE
  8
1-2
  6
CONTINUOUS
 62
    3
 10
972.13834
 20
1985.7065
 11
971.62101
 21
1986.0071
  0
LINE
  8
1-2
  6
CONTINUOUS
 62
    3
 10
971.62101
 20
1986.0071
 11
971.11227
 21
1986.2509
  0
LINE
  8
1-2
  6
CONTINUOUS
 62
    3
 10
971.11227
 20
1986.2509
 11
970.61393
 21
1986.4429
  0
LINE
  8
1-2
  6
CONTINUOUS
 62
    3
 10
970.61393
 20
1986.4429
 11
970.12814
 21
1986.5886
  0
LINE
  8
1-2
  6
CONTINUOUS
 62
    3
 10
970.12814
 20
1986.5886
 11
969.65701
 21
1986.693
  0
LINE
  8
1-2
  6
CONTINUOUS
 62
    3
 10
969.65701
 20
1986.693
 11
969.20253
 21
1986.7618
  0
LINE
  8
1-2
  6
CONTINUOUS
 62
    3
 10
969.20253
 20
1986.7618
 11
968.76673
 21
1986.7989
  0
LINE
  8
1-2
  6
CONTINUOUS
 62
    3
 10
965.05779
 20
1981.5737
 11
965.07325
 21
1982.181
  0
LINE
  8
1-2
  6
CONTINUOUS
 62
    3
 10
965.07325
 20
1982.181
 11
965.12027
 21
1982.7424
  0
LINE
  8
1-2
  6
CONTINUOUS
 62
    3
 10
965.12027
 20
1982.7424
 11
965.20013
 21
1983.2598
  0
LINE
  8
1-2
  6
CONTINUOUS
 62
    3
 10
965.20013
 20
1983.2598
 11
965.31494
 21
1983.7361
  0
LINE
  8
1-2
  6
CONTINUOUS
 62
    3
 10
965.31494
 20
1983.7361
 11
965.46656
 21
1984.1738
  0
LINE
  8
1-2
  6
CONTINUOUS
 62
    3
 10
965.46656
 20
1984.1738
 11
965.65641
 21
1984.5759
  0
LINE
  8
1-2
  6
CONTINUOUS
 62
    3
 10
965.65641
 20
1984.5759
 11
965.88634
 21
1984.9441
  0
LINE
  8
1-2
  6
CONTINUOUS
 62
    3
 10
965.88634
 20
1984.9441
 11
966.15803
 21
1985.2816
  0
LINE
  8
1-2
  6
CONTINUOUS
 62
    3
 10
966.15803
 20
1985.2816
 11
966.47364
 21
1985.5909
  0
LINE
  8
1-2
  6
CONTINUOUS
 62
    3
 10
966.47364
 20
1985.5909
 11
966.83441
 21
1985.874
  0
LINE
  8
1-2
  6
CONTINUOUS
 62
    3
 10
966.83441
 20
1985.874
 11
967.24231
 21
1986.1341
  0
LINE
  8
1-2
  6
CONTINUOUS
 62
    3
 10
967.24231
 20
1986.1341
 11
967.69927
 21
1986.3731
  0
LINE
  8
1-2
  6
CONTINUOUS
 62
    3
 10
967.69927
 20
1986.3731
 11
968.20702
 21
1986.5943
  0
LINE
  8
1-2
  6
CONTINUOUS
 62
    3
 10
968.20702
 20
1986.5943
 11
968.76673
 21
1986.7989
  0
LINE
  8
1-2
  6
CONTINUOUS
 62
    3
 10
934.17018
 20
1981.5737
 11
934.43445
 21
1982.2871
  0
LINE
  8
1-2
  6
CONTINUOUS
 62
    3
 10
934.43445
 20
1982.2871
 11
934.70979
 21
1982.9339
  0
LINE
  8
1-2
  6
CONTINUOUS
 62
    3
 10
934.70979
 20
1982.9339
 11
934.99583
 21
1983.5176
  0
LINE
  8
1-2
  6
CONTINUOUS
 62
    3
 10
934.99583
 20
1983.5176
 11
935.29226
 21
1984.0415
  0
LINE
  8
1-2
  6
CONTINUOUS
 62
    3
 10
935.29226
 20
1984.0415
 11
935.5989
 21
1984.5089
  0
LINE
  8
1-2
  6
CONTINUOUS
 62
    3
 10
935.5989
 20
1984.5089
 11
935.91544
 21
1984.9226
  0
LINE
  8
1-2
  6
CONTINUOUS
 62
    3
 10
935.91544
 20
1984.9226
 11
936.24144
 21
1985.2861
  0
LINE
  8
1-2
  6
CONTINUOUS
 62
    3
 10
936.24144
 20
1985.2861
 11
936.57697
 21
1985.6023
  0
LINE
  8
1-2
  6
CONTINUOUS
 62
    3
 10
936.57697
 20
1985.6023
 11
936.92122
 21
1985.8745
  0
LINE
  8
1-2
  6
CONTINUOUS
 62
    3
 10
936.92122
 20
1985.8745
 11
937.27456
 21
1986.1061
  0
LINE
  8
1-2
  6
CONTINUOUS
 62
    3
 10
937.27456
 20
1986.1061
 11
937.63632
 21
1986.2996
  0
LINE
  8
1-2
  6
CONTINUOUS
 62
    3
 10
937.63632
 20
1986.2996
 11
938.0063
 21
1986.4594
  0
LINE
  8
1-2
  6
CONTINUOUS
 62
    3
 10
938.0063
 20
1986.4594
 11
938.38427
 21
1986.5871
  0
LINE
  8
1-2
  6
CONTINUOUS
 62
    3
 10
938.38427
 20
1986.5871
 11
938.7699
 21
1986.6873
  0
LINE
  8
1-2
  6
CONTINUOUS
 62
    3
 10
939.61813
 20
1986.6873
 11
940.02034
 21
1986.602
  0
LINE
  8
1-2
  6
CONTINUOUS
 62
    3
 10
940.02034
 20
1986.602
 11
940.41921
 21
1986.4659
  0
LINE
  8
1-2
  6
CONTINUOUS
 62
    3
 10
940.41921
 20
1986.4659
 11
940.81475
 21
1986.2798
  0
LINE
  8
1-2
  6
CONTINUOUS
 62
    3
 10
940.81475
 20
1986.2798
 11
941.20737
 21
1986.0428
  0
LINE
  8
1-2
  6
CONTINUOUS
 62
    3
 10
941.20737
 20
1986.0428
 11
941.59653
 21
1985.7562
  0
LINE
  8
1-2
  6
CONTINUOUS
 62
    3
 10
941.59653
 20
1985.7562
 11
941.98235
 21
1985.4185
  0
LINE
  8
1-2
  6
CONTINUOUS
 62
    3
 10
941.98235
 20
1985.4185
 11
942.36508
 21
1985.0297
  0
LINE
  8
1-2
  6
CONTINUOUS
 62
    3
 10
942.36508
 20
1985.0297
 11
942.74447
 21
1984.5915
  0
LINE
  8
1-2
  6
CONTINUOUS
 62
    3
 10
942.74447
 20
1984.5915
 11
943.12058
 21
1984.1028
  0
LINE
  8
1-2
  6
CONTINUOUS
 62
    3
 10
905.89802
 20
1981.5737
 11
905.9746
 21
1982.1174
  0
LINE
  8
1-2
  6
CONTINUOUS
 62
    3
 10
905.9746
 20
1982.1174
 11
906.0831
 21
1982.6234
  0
LINE
  8
1-2
  6
CONTINUOUS
 62
    3
 10
906.0831
 20
1982.6234
 11
906.22136
 21
1983.0938
  0
LINE
  8
1-2
  6
CONTINUOUS
 62
    3
 10
906.22136
 20
1983.0938
 11
906.38646
 21
1983.5293
  0
LINE
  8
1-2
  6
CONTINUOUS
 62
    3
 10
906.38646
 20
1983.5293
 11
906.576
 21
1983.9314
  0
LINE
  8
1-2
  6
CONTINUOUS
 62
    3
 10
906.576
 20
1983.9314
 11
906.78818
 21
1984.3025
  0
LINE
  8
1-2
  6
CONTINUOUS
 62
    3
 10
906.78818
 20
1984.3025
 11
907.02059
 21
1984.6432
  0
LINE
  8
1-2
  6
CONTINUOUS
 62
    3
 10
907.02059
 20
1984.6432
 11
907.27118
 21
1984.954
  0
LINE
  8
1-2
  6
CONTINUOUS
 62
    3
 10
907.27118
 20
1984.954
 11
907.53805
 21
1985.2373
  0
LINE
  8
1-2
  6
CONTINUOUS
 62
    3
 10
907.53805
 20
1985.2373
 11
907.81963
 21
1985.4929
  0
LINE
  8
1-2
  6
CONTINUOUS
 62
    3
 10
907.81963
 20
1985.4929
 11
908.11409
 21
1985.7223
  0
LINE
  8
1-2
  6
CONTINUOUS
 62
    3
 10
908.11409
 20
1985.7223
 11
908.42029
 21
1985.9265
  0
LINE
  8
1-2
  6
CONTINUOUS
 62
    3
 10
908.42029
 20
1985.9265
 11
908.73634
 21
1986.1059
  0
LINE
  8
1-2
  6
CONTINUOUS
 62
    3
 10
908.73634
 20
1986.1059
 11
909.06129
 21
1986.2605
  0
LINE
  8
1-2
  6
CONTINUOUS
 62
    3
 10
909.06129
 20
1986.2605
 11
909.39385
 21
1986.3916
  0
LINE
  8
1-2
  6
CONTINUOUS
 62
    3
 10
909.39385
 20
1986.3916
 11
909.73333
 21
1986.5
  0
LINE
  8
1-2
  6
CONTINUOUS
 62
    3
 10
909.73333
 20
1986.5
 11
910.07876
 21
1986.5849
  0
LINE
  8
1-2
  6
CONTINUOUS
 62
    3
 10
910.07876
 20
1986.5849
 11
910.42913
 21
1986.6475
  0
LINE
  8
1-2
  6
CONTINUOUS
 62
    3
 10
910.42913
 20
1986.6475
 11
910.78415
 21
1986.6873
  0
LINE
  8
1-2
  6
CONTINUOUS
 62
    3
 10
910.87391
 20
1986.6831
 11
911.07365
 21
1986.6604
  0
LINE
  8
1-2
  6
CONTINUOUS
 62
    3
 10
911.07365
 20
1986.6604
 11
911.27012
 21
1986.6287
  0
LINE
  8
1-2
  6
CONTINUOUS
 62
    3
 10
911.27012
 20
1986.6287
 11
911.46312
 21
1986.5874
  0
LINE
  8
1-2
  6
CONTINUOUS
 62
    3
 10
911.46312
 20
1986.5874
 11
911.65266
 21
1986.5366
  0
LINE
  8
1-2
  6
CONTINUOUS
 62
    3
 10
911.65266
 20
1986.5366
 11
911.83874
 21
1986.4758
  0
LINE
  8
1-2
  6
CONTINUOUS
 62
    3
 10
911.83874
 20
1986.4758
 11
912.02153
 21
1986.4055
  0
LINE
  8
1-2
  6
CONTINUOUS
 62
    3
 10
912.02153
 20
1986.4055
 11
912.20068
 21
1986.3253
  0
LINE
  8
1-2
  6
CONTINUOUS
 62
    3
 10
912.20068
 20
1986.3253
 11
912.37636
 21
1986.2358
  0
LINE
  8
1-2
  6
CONTINUOUS
 62
    3
 10
912.37636
 20
1986.2358
 11
912.5487
 21
1986.1365
  0
LINE
  8
1-2
  6
CONTINUOUS
 62
    3
 10
830.08957
 20
1981.5737
 11
830.15804
 21
1982.1456
  0
LINE
  8
1-2
  6
CONTINUOUS
 62
    3
 10
830.15804
 20
1982.1456
 11
830.2303
 21
1982.6682
  0
LINE
  8
1-2
  6
CONTINUOUS
 62
    3
 10
830.2303
 20
1982.6682
 11
830.30682
 21
1983.1415
  0
LINE
  8
1-2
  6
CONTINUOUS
 62
    3
 10
830.30682
 20
1983.1415
 11
830.38717
 21
1983.5651
  0
LINE
  8
1-2
  6
CONTINUOUS
 62
    3
 10
830.38717
 20
1983.5651
 11
830.47143
 21
1983.94
  0
LINE
  8
1-2
  6
CONTINUOUS
 62
    3
 10
830.47143
 20
1983.94
 11
830.55989
 21
1984.2651
  0
LINE
  8
1-2
  6
CONTINUOUS
 62
    3
 10
830.55989
 20
1984.2651
 11
830.65206
 21
1984.5408
  0
LINE
  8
1-2
  6
CONTINUOUS
 62
    3
 10
830.65206
 20
1984.5408
 11
830.74825
 21
1984.7674
  0
LINE
  8
1-2
  6
CONTINUOUS
 62
    3
 10
830.74825
 20
1984.7674
 11
830.84852
 21
1984.9441
  0
LINE
  8
1-2
  6
CONTINUOUS
 62
    3
 10
842.53461
 20
1981.5737
 11
842.5726
 21
1982.0268
  0
LINE
  8
1-2
  6
CONTINUOUS
 62
    3
 10
842.5726
 20
1982.0268
 11
842.63526
 21
1982.4551
  0
LINE
  8
1-2
  6
CONTINUOUS
 62
    3
 10
842.63526
 20
1982.4551
 11
842.7197
 21
1982.8582
  0
LINE
  8
1-2
  6
CONTINUOUS
 62
    3
 10
842.7197
 20
1982.8582
 11
842.82381
 21
1983.2375
  0
LINE
  8
1-2
  6
CONTINUOUS
 62
    3
 10
842.82381
 20
1983.2375
 11
842.94536
 21
1983.5911
  0
LINE
  8
1-2
  6
CONTINUOUS
 62
    3
 10
842.94536
 20
1983.5911
 11
843.08164
 21
1983.9192
  0
LINE
  8
1-2
  6
CONTINUOUS
 62
    3
 10
843.08164
 20
1983.9192
 11
843.23041
 21
1984.2226
  0
LINE
  8
1-2
  6
CONTINUOUS
 62
    3
 10
843.23041
 20
1984.2226
 11
843.38896
 21
1984.5007
  0
LINE
  8
1-2
  6
CONTINUOUS
 62
    3
 10
843.38896
 20
1984.5007
 11
843.55506
 21
1984.7536
  0
LINE
  8
1-2
  6
CONTINUOUS
 62
    3
 10
843.55506
 20
1984.7536
 11
843.72628
 21
1984.9805
  0
LINE
  8
1-2
  6
CONTINUOUS
 62
    3
 10
843.72628
 20
1984.9805
 11
843.90017
 21
1985.1817
  0
LINE
  8
1-2
  6
CONTINUOUS
 62
    3
 10
843.90017
 20
1985.1817
 11
844.07437
 21
1985.3573
  0
LINE
  8
1-2
  6
CONTINUOUS
 62
    3
 10
844.07437
 20
1985.3573
 11
844.24628
 21
1985.5068
  0
LINE
  8
1-2
  6
CONTINUOUS
 62
    3
 10
844.24628
 20
1985.5068
 11
844.41355
 21
1985.63
  0
LINE
  8
1-2
  6
CONTINUOUS
 62
    3
 10
859.57914
 20
1981.5737
 11
859.69209
 21
1982.0778
  0
LINE
  8
1-2
  6
CONTINUOUS
 62
    3
 10
859.69209
 20
1982.0778
 11
859.82985
 21
1982.5496
  0
LINE
  8
1-2
  6
CONTINUOUS
 62
    3
 10
859.82985
 20
1982.5496
 11
859.991
 21
1982.9898
  0
LINE
  8
1-2
  6
CONTINUOUS
 62
    3
 10
859.991
 20
1982.9898
 11
860.17478
 21
1983.3986
  0
LINE
  8
1-2
  6
CONTINUOUS
 62
    3
 10
860.17478
 20
1983.3986
 11
860.37997
 21
1983.776
  0
LINE
  8
1-2
  6
CONTINUOUS
 62
    3
 10
860.37997
 20
1983.776
 11
860.60583
 21
1984.1219
  0
LINE
  8
1-2
  6
CONTINUOUS
 62
    3
 10
860.60583
 20
1984.1219
 11
860.85147
 21
1984.4374
  0
LINE
  8
1-2
  6
CONTINUOUS
 62
    3
 10
860.85147
 20
1984.4374
 11
861.11555
 21
1984.7219
  0
LINE
  8
1-2
  6
CONTINUOUS
 62
    3
 10
861.11555
 20
1984.7219
 11
861.39745
 21
1984.976
  0
LINE
  8
1-2
  6
CONTINUOUS
 62
    3
 10
861.39745
 20
1984.976
 11
861.69586
 21
1985.2005
  0
LINE
  8
1-2
  6
CONTINUOUS
 62
    3
 10
861.69586
 20
1985.2005
 11
862.01011
 21
1985.3947
  0
LINE
  8
1-2
  6
CONTINUOUS
 62
    3
 10
862.01011
 20
1985.3947
 11
862.33908
 21
1985.5595
  0
LINE
  8
1-2
  6
CONTINUOUS
 62
    3
 10
862.33908
 20
1985.5595
 11
862.68135
 21
1985.6949
  0
LINE
  8
1-2
  6
CONTINUOUS
 62
    3
 10
862.68135
 20
1985.6949
 11
863.03686
 21
1985.8013
  0
LINE
  8
1-2
  6
CONTINUOUS
 62
    3
 10
880.84424
 20
1981.5737
 11
881.01516
 21
1982.1023
  0
LINE
  8
1-2
  6
CONTINUOUS
 62
    3
 10
881.01516
 20
1982.1023
 11
881.2154
 21
1982.5917
  0
LINE
  8
1-2
  6
CONTINUOUS
 62
    3
 10
881.2154
 20
1982.5917
 11
881.44242
 21
1983.0425
  0
LINE
  8
1-2
  6
CONTINUOUS
 62
    3
 10
881.44242
 20
1983.0425
 11
881.69382
 21
1983.4548
  0
LINE
  8
1-2
  6
CONTINUOUS
 62
    3
 10
881.69382
 20
1983.4548
 11
881.96749
 21
1983.8282
  0
LINE
  8
1-2
  6
CONTINUOUS
 62
    3
 10
881.96749
 20
1983.8282
 11
882.26027
 21
1984.1627
  0
LINE
  8
1-2
  6
CONTINUOUS
 62
    3
 10
882.26027
 20
1984.1627
 11
882.57007
 21
1984.4586
  0
LINE
  8
1-2
  6
CONTINUOUS
 62
    3
 10
882.57007
 20
1984.4586
 11
882.89391
 21
1984.717
  0
LINE
  8
1-2
  6
CONTINUOUS
 62
    3
 10
882.89391
 20
1984.717
 11
883.22943
 21
1984.9372
  0
LINE
  8
1-2
  6
CONTINUOUS
 62
    3
 10
883.22943
 20
1984.9372
 11
883.57338
 21
1985.1203
  0
LINE
  8
1-2
  6
CONTINUOUS
 62
    3
 10
883.57338
 20
1985.1203
 11
883.92326
 21
1985.268
  0
LINE
  8
1-2
  6
CONTINUOUS
 62
    3
 10
883.92326
 20
1985.268
 11
884.27592
 21
1985.3806
  0
LINE
  8
1-2
  6
CONTINUOUS
 62
    3
 10
884.27592
 20
1985.3806
 11
884.62846
 21
1985.4581
  0
LINE
  8
1-2
  6
CONTINUOUS
 62
    3
 10
884.62846
 20
1985.4581
 11
884.97784
 21
1985.5033
  0
LINE
  8
1-2
  6
CONTINUOUS
 62
    3
 10
884.97784
 20
1985.5033
 11
885.3208
 21
1985.5167
  0
LINE
  8
1-2
  6
CONTINUOUS
 62
    3
 10
885.3208
 20
1985.5167
 11
885.65435
 21
1985.5004
  0
LINE
  8
1-2
  6
CONTINUOUS
 62
    3
 10
885.65435
 20
1985.5004
 11
885.97503
 21
1985.4553
  0
LINE
  8
1-2
  6
CONTINUOUS
 62
    3
 10
885.97503
 20
1985.4553
 11
886.27969
 21
1985.3833
  0
LINE
  8
1-2
  6
CONTINUOUS
 62
    3
 10
886.27969
 20
1985.3833
 11
886.56492
 21
1985.2871
  0
LINE
  8
1-2
  6
CONTINUOUS
 62
    3
 10
830.08957
 20
1981.5737
 11
824.48901
 21
1981.5737
  0
LINE
  8
1-2
  6
CONTINUOUS
 62
    3
 10
775.23333
 20
2044.4538
 11
830.08957
 21
1981.5737
  0
LINE
  8
1-2
  6
CONTINUOUS
 62
    3
 10
833.70831
 20
1981.5737
 11
779.73457
 21
2044.4538
  0
LINE
  8
1-2
  6
CONTINUOUS
 62
    3
 10
790.71397
 20
2044.4538
 11
842.53461
 21
1981.5737
  0
LINE
  8
1-2
  6
CONTINUOUS
 62
    3
 10
842.53461
 20
1981.5737
 11
833.70831
 21
1981.5737
  0
LINE
  8
1-2
  6
CONTINUOUS
 62
    3
 10
847.72145
 20
1981.5737
 11
797.16553
 21
2044.4538
  0
LINE
  8
1-2
  6
CONTINUOUS
 62
    3
 10
859.57914
 20
1981.5737
 11
847.72145
 21
1981.5737
  0
LINE
  8
1-2
  6
CONTINUOUS
 62
    3
 10
811.91542
 20
2044.4538
 11
859.57914
 21
1981.5737
  0
LINE
  8
1-2
  6
CONTINUOUS
 62
    3
 10
866.22153
 20
1981.5737
 11
820.17793
 21
2044.4538
  0
LINE
  8
1-2
  6
CONTINUOUS
 62
    3
 10
880.85364
 20
1981.5737
 11
866.22153
 21
1981.5737
  0
LINE
  8
1-2
  6
CONTINUOUS
 62
    3
 10
838.37899
 20
2044.4538
 11
880.85364
 21
1981.5737
  0
LINE
  8
1-2
  6
CONTINUOUS
 62
    3
 10
888.80821
 20
1981.5737
 11
848.27361
 21
2044.4538
  0
LINE
  8
1-2
  6
CONTINUOUS
 62
    3
 10
905.89802
 20
1981.5737
 11
888.80821
 21
1981.5737
  0
LINE
  8
1-2
  6
CONTINUOUS
 62
    3
 10
869.53178
 20
2044.4538
 11
905.89802
 21
1981.5737
  0
LINE
  8
1-2
  6
CONTINUOUS
 62
    3
 10
914.99242
 20
1981.5737
 11
880.84424
 21
2044.4538
  0
LINE
  8
1-2
  6
CONTINUOUS
 62
    3
 10
934.17018
 20
1981.5737
 11
914.99242
 21
1981.5737
  0
LINE
  8
1-2
  6
CONTINUOUS
 62
    3
 10
944.20733
 20
1981.5737
 11
917.18461
 21
2044.4538
  0
LINE
  8
1-2
  6
CONTINUOUS
 62
    3
 10
965.05779
 20
1981.5737
 11
944.20733
 21
1981.5737
  0
LINE
  8
1-2
  6
CONTINUOUS
 62
    3
 10
943.12058
 20
2044.4538
 11
965.05779
 21
1981.5737
  0
LINE
  8
1-2
  6
CONTINUOUS
 62
    3
 10
956.50837
 20
2044.4538
 11
975.82056
 21
1981.5737
  0
LINE
  8
1-2
  6
CONTINUOUS
 62
    3
 10
997.89219
 20
1981.5737
 11
975.82056
 21
1981.5737
  0
LINE
  8
1-2
  6
CONTINUOUS
 62
    3
 10
997.89219
 20
1981.5737
 11
983.96349
 21
2044.4538
  0
LINE
  8
1-2
  6
CONTINUOUS
 62
    3
 10
997.96444
 20
2044.4538
 11
1009.1481
 21
1981.5737
  0
LINE
  8
1-2
  6
CONTINUOUS
 62
    3
 10
1031.9631
 20
1981.5737
 11
1009.1481
 21
1981.5737
  0
LINE
  8
1-2
  6
CONTINUOUS
 62
    3
 10
1031.9631
 20
1981.5737
 11
1026.3444
 21
2044.4538
  0
LINE
  8
1-2
  6
CONTINUOUS
 62
    3
 10
1043.4676
 20
1981.5737
 11
1040.6551
 21
2044.4538
  0
LINE
  8
1-2
  6
CONTINUOUS
 62
    3
 10
1055.0001
 20
1981.5737
 11
1043.4676
 21
1981.5737
  0
LINE
  8
1-2
  6
CONTINUOUS
 62
    3
 10
1341.7333
 20
2044.4538
 11
1285.5113
 21
1981.5737
  0
LINE
  8
1-2
  6
CONTINUOUS
 62
    3
 10
1104.9522
 20
1986.7712
 11
1104.4892
 21
1986.6327
  0
LINE
  8
1-2
  6
CONTINUOUS
 62
    3
 10
1104.4892
 20
1986.6327
 11
1104.0546
 21
1986.4443
  0
LINE
  8
1-2
  6
CONTINUOUS
 62
    3
 10
1104.0546
 20
1986.4443
 11
1103.6477
 21
1986.2093
  0
LINE
  8
1-2
  6
CONTINUOUS
 62
    3
 10
1103.6477
 20
1986.2093
 11
1103.2677
 21
1985.9319
  0
LINE
  8
1-2
  6
CONTINUOUS
 62
    3
 10
1103.2677
 20
1985.9319
 11
1102.9149
 21
1985.6147
  0
LINE
  8
1-2
  6
CONTINUOUS
 62
    3
 10
1102.9149
 20
1985.6147
 11
1102.5878
 21
1985.2618
  0
LINE
  8
1-2
  6
CONTINUOUS
 62
    3
 10
1102.5878
 20
1985.2618
 11
1102.2868
 21
1984.8766
  0
LINE
  8
1-2
  6
CONTINUOUS
 62
    3
 10
1102.2868
 20
1984.8766
 11
1102.0102
 21
1984.4626
  0
LINE
  8
1-2
  6
CONTINUOUS
 62
    3
 10
1102.0102
 20
1984.4626
 11
1101.7585
 21
1984.0236
  0
LINE
  8
1-2
  6
CONTINUOUS
 62
    3
 10
1101.7585
 20
1984.0236
 11
1101.5312
 21
1983.5632
  0
LINE
  8
1-2
  6
CONTINUOUS
 62
    3
 10
1101.5312
 20
1983.5632
 11
1101.3277
 21
1983.0839
  0
LINE
  8
1-2
  6
CONTINUOUS
 62
    3
 10
1101.3277
 20
1983.0839
 11
1101.1467
 21
1982.5905
  0
LINE
  8
1-2
  6
CONTINUOUS
 62
    3
 10
1101.1467
 20
1982.5905
 11
1100.9883
 21
1982.0859
  0
LINE
  8
1-2
  6
CONTINUOUS
 62
    3
 10
1100.9883
 20
1982.0859
 11
1100.8522
 21
1981.5737
  0
LINE
  8
1-2
  6
CONTINUOUS
 62
    3
 10
1107.4939
 20
1986.7989
 11
1108.029
 21
1986.6067
  0
LINE
  8
1-2
  6
CONTINUOUS
 62
    3
 10
1108.029
 20
1986.6067
 11
1108.5312
 21
1986.3793
  0
LINE
  8
1-2
  6
CONTINUOUS
 62
    3
 10
1108.5312
 20
1986.3793
 11
1109.0005
 21
1986.1192
  0
LINE
  8
1-2
  6
CONTINUOUS
 62
    3
 10
1109.0005
 20
1986.1192
 11
1109.4374
 21
1985.8272
  0
LINE
  8
1-2
  6
CONTINUOUS
 62
    3
 10
1109.4374
 20
1985.8272
 11
1109.8426
 21
1985.5061
  0
LINE
  8
1-2
  6
CONTINUOUS
 62
    3
 10
1109.8426
 20
1985.5061
 11
1110.216
 21
1985.1569
  0
LINE
  8
1-2
  6
CONTINUOUS
 62
    3
 10
1110.216
 20
1985.1569
 11
1110.5583
 21
1984.7816
  0
LINE
  8
1-2
  6
CONTINUOUS
 62
    3
 10
1110.5583
 20
1984.7816
 11
1110.8692
 21
1984.3824
  0
LINE
  8
1-2
  6
CONTINUOUS
 62
    3
 10
1110.8692
 20
1984.3824
 11
1111.1503
 21
1983.9603
  0
LINE
  8
1-2
  6
CONTINUOUS
 62
    3
 10
1111.1503
 20
1983.9603
 11
1111.4007
 21
1983.5176
  0
LINE
  8
1-2
  6
CONTINUOUS
 62
    3
 10
1111.4007
 20
1983.5176
 11
1111.6214
 21
1983.0557
  0
LINE
  8
1-2
  6
CONTINUOUS
 62
    3
 10
1111.6214
 20
1983.0557
 11
1111.8125
 21
1982.5769
  0
LINE
  8
1-2
  6
CONTINUOUS
 62
    3
 10
1111.8125
 20
1982.5769
 11
1111.9747
 21
1982.0822
  0
LINE
  8
1-2
  6
CONTINUOUS
 62
    3
 10
1111.9747
 20
1982.0822
 11
1112.1078
 21
1981.5737
  0
LINE
  8
1-2
  6
CONTINUOUS
 62
    3
 10
1134.1798
 20
1981.5737
 11
1134.698
 21
1982.418
  0
LINE
  8
1-2
  6
CONTINUOUS
 62
    3
 10
1134.698
 20
1982.418
 11
1135.2222
 21
1983.169
  0
LINE
  8
1-2
  6
CONTINUOUS
 62
    3
 10
1135.2222
 20
1983.169
 11
1135.7506
 21
1983.8316
  0
LINE
  8
1-2
  6
CONTINUOUS
 62
    3
 10
1135.7506
 20
1983.8316
 11
1136.2807
 21
1984.4116
  0
LINE
  8
1-2
  6
CONTINUOUS
 62
    3
 10
1136.2807
 20
1984.4116
 11
1136.8107
 21
1984.9139
  0
LINE
  8
1-2
  6
CONTINUOUS
 62
    3
 10
1136.8107
 20
1984.9139
 11
1137.3383
 21
1985.3437
  0
LINE
  8
1-2
  6
CONTINUOUS
 62
    3
 10
1137.3383
 20
1985.3437
 11
1137.8623
 21
1985.7065
  0
LINE
  8
1-2
  6
CONTINUOUS
 62
    3
 10
1137.8623
 20
1985.7065
 11
1138.3793
 21
1986.0071
  0
LINE
  8
1-2
  6
CONTINUOUS
 62
    3
 10
1138.3793
 20
1986.0071
 11
1138.8881
 21
1986.2509
  0
LINE
  8
1-2
  6
CONTINUOUS
 62
    3
 10
1138.8881
 20
1986.2509
 11
1139.3862
 21
1986.4429
  0
LINE
  8
1-2
  6
CONTINUOUS
 62
    3
 10
1139.3862
 20
1986.4429
 11
1139.8721
 21
1986.5886
  0
LINE
  8
1-2
  6
CONTINUOUS
 62
    3
 10
1139.8721
 20
1986.5886
 11
1140.3431
 21
1986.693
  0
LINE
  8
1-2
  6
CONTINUOUS
 62
    3
 10
1140.3431
 20
1986.693
 11
1140.7979
 21
1986.7618
  0
LINE
  8
1-2
  6
CONTINUOUS
 62
    3
 10
1140.7979
 20
1986.7618
 11
1141.2334
 21
1986.7989
  0
LINE
  8
1-2
  6
CONTINUOUS
 62
    3
 10
1144.9425
 20
1981.5737
 11
1144.9268
 21
1982.181
  0
LINE
  8
1-2
  6
CONTINUOUS
 62
    3
 10
1144.9268
 20
1982.181
 11
1144.8801
 21
1982.7424
  0
LINE
  8
1-2
  6
CONTINUOUS
 62
    3
 10
1144.8801
 20
1982.7424
 11
1144.8001
 21
1983.2598
  0
LINE
  8
1-2
  6
CONTINUOUS
 62
    3
 10
1144.8001
 20
1983.2598
 11
1144.6852
 21
1983.7361
  0
LINE
  8
1-2
  6
CONTINUOUS
 62
    3
 10
1144.6852
 20
1983.7361
 11
1144.5339
 21
1984.1738
  0
LINE
  8
1-2
  6
CONTINUOUS
 62
    3
 10
1144.5339
 20
1984.1738
 11
1144.3439
 21
1984.5759
  0
LINE
  8
1-2
  6
CONTINUOUS
 62
    3
 10
1144.3439
 20
1984.5759
 11
1144.1141
 21
1984.9441
  0
LINE
  8
1-2
  6
CONTINUOUS
 62
    3
 10
1144.1141
 20
1984.9441
 11
1143.8421
 21
1985.2816
  0
LINE
  8
1-2
  6
CONTINUOUS
 62
    3
 10
1143.8421
 20
1985.2816
 11
1143.5267
 21
1985.5909
  0
LINE
  8
1-2
  6
CONTINUOUS
 62
    3
 10
1143.5267
 20
1985.5909
 11
1143.1659
 21
1985.874
  0
LINE
  8
1-2
  6
CONTINUOUS
 62
    3
 10
1143.1659
 20
1985.874
 11
1142.758
 21
1986.1341
  0
LINE
  8
1-2
  6
CONTINUOUS
 62
    3
 10
1142.758
 20
1986.1341
 11
1142.301
 21
1986.3731
  0
LINE
  8
1-2
  6
CONTINUOUS
 62
    3
 10
1142.301
 20
1986.3731
 11
1141.7933
 21
1986.5943
  0
LINE
  8
1-2
  6
CONTINUOUS
 62
    3
 10
1141.7933
 20
1986.5943
 11
1141.2334
 21
1986.7989
  0
LINE
  8
1-2
  6
CONTINUOUS
 62
    3
 10
1175.8301
 20
1981.5737
 11
1175.5657
 21
1982.2871
  0
LINE
  8
1-2
  6
CONTINUOUS
 62
    3
 10
1175.5657
 20
1982.2871
 11
1175.2905
 21
1982.9339
  0
LINE
  8
1-2
  6
CONTINUOUS
 62
    3
 10
1175.2905
 20
1982.9339
 11
1175.0045
 21
1983.5176
  0
LINE
  8
1-2
  6
CONTINUOUS
 62
    3
 10
1175.0045
 20
1983.5176
 11
1174.7077
 21
1984.0415
  0
LINE
  8
1-2
  6
CONTINUOUS
 62
    3
 10
1174.7077
 20
1984.0415
 11
1174.4016
 21
1984.5089
  0
LINE
  8
1-2
  6
CONTINUOUS
 62
    3
 10
1174.4016
 20
1984.5089
 11
1174.085
 21
1984.9226
  0
LINE
  8
1-2
  6
CONTINUOUS
 62
    3
 10
1174.085
 20
1984.9226
 11
1173.7589
 21
1985.2861
  0
LINE
  8
1-2
  6
CONTINUOUS
 62
    3
 10
1173.7589
 20
1985.2861
 11
1173.4234
 21
1985.6023
  0
LINE
  8
1-2
  6
CONTINUOUS
 62
    3
 10
1173.4234
 20
1985.6023
 11
1173.0789
 21
1985.8745
  0
LINE
  8
1-2
  6
CONTINUOUS
 62
    3
 10
1173.0789
 20
1985.8745
 11
1172.726
 21
1986.1061
  0
LINE
  8
1-2
  6
CONTINUOUS
 62
    3
 10
1172.726
 20
1986.1061
 11
1172.364
 21
1986.2996
  0
LINE
  8
1-2
  6
CONTINUOUS
 62
    3
 10
1172.364
 20
1986.2996
 11
1171.9938
 21
1986.4594
  0
LINE
  8
1-2
  6
CONTINUOUS
 62
    3
 10
1171.9938
 20
1986.4594
 11
1171.6157
 21
1986.5871
  0
LINE
  8
1-2
  6
CONTINUOUS
 62
    3
 10
1171.6157
 20
1986.5871
 11
1171.2304
 21
1986.6873
  0
LINE
  8
1-2
  6
CONTINUOUS
 62
    3
 10
1170.3822
 20
1986.6873
 11
1169.9804
 21
1986.602
  0
LINE
  8
1-2
  6
CONTINUOUS
 62
    3
 10
1169.9804
 20
1986.602
 11
1169.5811
 21
1986.4659
  0
LINE
  8
1-2
  6
CONTINUOUS
 62
    3
 10
1169.5811
 20
1986.4659
 11
1169.1856
 21
1986.2798
  0
LINE
  8
1-2
  6
CONTINUOUS
 62
    3
 10
1169.1856
 20
1986.2798
 11
1168.7929
 21
1986.0428
  0
LINE
  8
1-2
  6
CONTINUOUS
 62
    3
 10
1168.7929
 20
1986.0428
 11
1168.4037
 21
1985.7562
  0
LINE
  8
1-2
  6
CONTINUOUS
 62
    3
 10
1168.4037
 20
1985.7562
 11
1168.0178
 21
1985.4185
  0
LINE
  8
1-2
  6
CONTINUOUS
 62
    3
 10
1168.0178
 20
1985.4185
 11
1167.6353
 21
1985.0297
  0
LINE
  8
1-2
  6
CONTINUOUS
 62
    3
 10
1167.6353
 20
1985.0297
 11
1167.2557
 21
1984.5915
  0
LINE
  8
1-2
  6
CONTINUOUS
 62
    3
 10
1167.2557
 20
1984.5915
 11
1166.8797
 21
1984.1028
  0
LINE
  8
1-2
  6
CONTINUOUS
 62
    3
 10
1204.1023
 20
1981.5737
 11
1204.0257
 21
1982.1174
  0
LINE
  8
1-2
  6
CONTINUOUS
 62
    3
 10
1204.0257
 20
1982.1174
 11
1203.9172
 21
1982.6234
  0
LINE
  8
1-2
  6
CONTINUOUS
 62
    3
 10
1203.9172
 20
1982.6234
 11
1203.7789
 21
1983.0938
  0
LINE
  8
1-2
  6
CONTINUOUS
 62
    3
 10
1203.7789
 20
1983.0938
 11
1203.614
 21
1983.5293
  0
LINE
  8
1-2
  6
CONTINUOUS
 62
    3
 10
1203.614
 20
1983.5293
 11
1203.4243
 21
1983.9314
  0
LINE
  8
1-2
  6
CONTINUOUS
 62
    3
 10
1203.4243
 20
1983.9314
 11
1203.2118
 21
1984.3025
  0
LINE
  8
1-2
  6
CONTINUOUS
 62
    3
 10
1203.2118
 20
1984.3025
 11
1202.9796
 21
1984.6432
  0
LINE
  8
1-2
  6
CONTINUOUS
 62
    3
 10
1202.9796
 20
1984.6432
 11
1202.7291
 21
1984.954
  0
LINE
  8
1-2
  6
CONTINUOUS
 62
    3
 10
1202.7291
 20
1984.954
 11
1202.4623
 21
1985.2373
  0
LINE
  8
1-2
  6
CONTINUOUS
 62
    3
 10
1202.4623
 20
1985.2373
 11
1202.1805
 21
1985.4929
  0
LINE
  8
1-2
  6
CONTINUOUS
 62
    3
 10
1202.1805
 20
1985.4929
 11
1201.8862
 21
1985.7223
  0
LINE
  8
1-2
  6
CONTINUOUS
 62
    3
 10
1201.8862
 20
1985.7223
 11
1201.58
 21
1985.9265
  0
LINE
  8
1-2
  6
CONTINUOUS
 62
    3
 10
1201.58
 20
1985.9265
 11
1201.2639
 21
1986.1059
  0
LINE
  8
1-2
  6
CONTINUOUS
 62
    3
 10
1201.2639
 20
1986.1059
 11
1200.9392
 21
1986.2605
  0
LINE
  8
1-2
  6
CONTINUOUS
 62
    3
 10
1200.9392
 20
1986.2605
 11
1200.6065
 21
1986.3916
  0
LINE
  8
1-2
  6
CONTINUOUS
 62
    3
 10
1200.6065
 20
1986.3916
 11
1200.267
 21
1986.5
  0
LINE
  8
1-2
  6
CONTINUOUS
 62
    3
 10
1200.267
 20
1986.5
 11
1199.9217
 21
1986.5849
  0
LINE
  8
1-2
  6
CONTINUOUS
 62
    3
 10
1199.9217
 20
1986.5849
 11
1199.5712
 21
1986.6475
  0
LINE
  8
1-2
  6
CONTINUOUS
 62
    3
 10
1199.5712
 20
1986.6475
 11
1199.2161
 21
1986.6873
  0
LINE
  8
1-2
  6
CONTINUOUS
 62
    3
 10
1199.1268
 20
1986.6831
 11
1198.9269
 21
1986.6604
  0
LINE
  8
1-2
  6
CONTINUOUS
 62
    3
 10
1198.9269
 20
1986.6604
 11
1198.7301
 21
1986.6287
  0
LINE
  8
1-2
  6
CONTINUOUS
 62
    3
 10
1198.7301
 20
1986.6287
 11
1198.5371
 21
1986.5874
  0
LINE
  8
1-2
  6
CONTINUOUS
 62
    3
 10
1198.5371
 20
1986.5874
 11
1198.3476
 21
1986.5366
  0
LINE
  8
1-2
  6
CONTINUOUS
 62
    3
 10
1198.3476
 20
1986.5366
 11
1198.1618
 21
1986.4758
  0
LINE
  8
1-2
  6
CONTINUOUS
 62
    3
 10
1198.1618
 20
1986.4758
 11
1197.9788
 21
1986.4055
  0
LINE
  8
1-2
  6
CONTINUOUS
 62
    3
 10
1197.9788
 20
1986.4055
 11
1197.7997
 21
1986.3253
  0
LINE
  8
1-2
  6
CONTINUOUS
 62
    3
 10
1197.7997
 20
1986.3253
 11
1197.624
 21
1986.2358
  0
LINE
  8
1-2
  6
CONTINUOUS
 62
    3
 10
1197.624
 20
1986.2358
 11
1197.4514
 21
1986.1365
  0
LINE
  8
1-2
  6
CONTINUOUS
 62
    3
 10
1279.911
 20
1981.5737
 11
1279.8423
 21
1982.1456
  0
LINE
  8
1-2
  6
CONTINUOUS
 62
    3
 10
1279.8423
 20
1982.1456
 11
1279.7697
 21
1982.6682
  0
LINE
  8
1-2
  6
CONTINUOUS
 62
    3
 10
1279.7697
 20
1982.6682
 11
1279.6935
 21
1983.1415
  0
LINE
  8
1-2
  6
CONTINUOUS
 62
    3
 10
1279.6935
 20
1983.1415
 11
1279.6132
 21
1983.5651
  0
LINE
  8
1-2
  6
CONTINUOUS
 62
    3
 10
1279.6132
 20
1983.5651
 11
1279.5289
 21
1983.94
  0
LINE
  8
1-2
  6
CONTINUOUS
 62
    3
 10
1279.5289
 20
1983.94
 11
1279.4404
 21
1984.2651
  0
LINE
  8
1-2
  6
CONTINUOUS
 62
    3
 10
1279.4404
 20
1984.2651
 11
1279.348
 21
1984.5408
  0
LINE
  8
1-2
  6
CONTINUOUS
 62
    3
 10
1279.348
 20
1984.5408
 11
1279.252
 21
1984.7674
  0
LINE
  8
1-2
  6
CONTINUOUS
 62
    3
 10
1279.252
 20
1984.7674
 11
1279.1518
 21
1984.9441
  0
LINE
  8
1-2
  6
CONTINUOUS
 62
    3
 10
1267.4657
 20
1981.5737
 11
1267.4277
 21
1982.0268
  0
LINE
  8
1-2
  6
CONTINUOUS
 62
    3
 10
1267.4277
 20
1982.0268
 11
1267.365
 21
1982.4551
  0
LINE
  8
1-2
  6
CONTINUOUS
 62
    3
 10
1267.365
 20
1982.4551
 11
1267.2804
 21
1982.8582
  0
LINE
  8
1-2
  6
CONTINUOUS
 62
    3
 10
1267.2804
 20
1982.8582
 11
1267.1765
 21
1983.2375
  0
LINE
  8
1-2
  6
CONTINUOUS
 62
    3
 10
1267.1765
 20
1983.2375
 11
1267.0547
 21
1983.5911
  0
LINE
  8
1-2
  6
CONTINUOUS
 62
    3
 10
1267.0547
 20
1983.5911
 11
1266.9186
 21
1983.9192
  0
LINE
  8
1-2
  6
CONTINUOUS
 62
    3
 10
1266.9186
 20
1983.9192
 11
1266.77
 21
1984.2226
  0
LINE
  8
1-2
  6
CONTINUOUS
 62
    3
 10
1266.77
 20
1984.2226
 11
1266.6116
 21
1984.5007
  0
LINE
  8
1-2
  6
CONTINUOUS
 62
    3
 10
1266.6116
 20
1984.5007
 11
1266.4453
 21
1984.7536
  0
LINE
  8
1-2
  6
CONTINUOUS
 62
    3
 10
1266.4453
 20
1984.7536
 11
1266.2742
 21
1984.9805
  0
LINE
  8
1-2
  6
CONTINUOUS
 62
    3
 10
1266.2742
 20
1984.9805
 11
1266.1001
 21
1985.1817
  0
LINE
  8
1-2
  6
CONTINUOUS
 62
    3
 10
1266.1001
 20
1985.1817
 11
1265.9259
 21
1985.3573
  0
LINE
  8
1-2
  6
CONTINUOUS
 62
    3
 10
1265.9259
 20
1985.3573
 11
1265.7541
 21
1985.5068
  0
LINE
  8
1-2
  6
CONTINUOUS
 62
    3
 10
1265.7541
 20
1985.5068
 11
1265.5868
 21
1985.63
  0
LINE
  8
1-2
  6
CONTINUOUS
 62
    3
 10
1250.4212
 20
1981.5737
 11
1250.3082
 21
1982.0778
  0
LINE
  8
1-2
  6
CONTINUOUS
 62
    3
 10
1250.3082
 20
1982.0778
 11
1250.1707
 21
1982.5496
  0
LINE
  8
1-2
  6
CONTINUOUS
 62
    3
 10
1250.1707
 20
1982.5496
 11
1250.0095
 21
1982.9898
  0
LINE
  8
1-2
  6
CONTINUOUS
 62
    3
 10
1250.0095
 20
1982.9898
 11
1249.8255
 21
1983.3986
  0
LINE
  8
1-2
  6
CONTINUOUS
 62
    3
 10
1249.8255
 20
1983.3986
 11
1249.6204
 21
1983.776
  0
LINE
  8
1-2
  6
CONTINUOUS
 62
    3
 10
1249.6204
 20
1983.776
 11
1249.3943
 21
1984.1219
  0
LINE
  8
1-2
  6
CONTINUOUS
 62
    3
 10
1249.3943
 20
1984.1219
 11
1249.1489
 21
1984.4374
  0
LINE
  8
1-2
  6
CONTINUOUS
 62
    3
 10
1249.1489
 20
1984.4374
 11
1248.8846
 21
1984.7219
  0
LINE
  8
1-2
  6
CONTINUOUS
 62
    3
 10
1248.8846
 20
1984.7219
 11
1248.603
 21
1984.976
  0
LINE
  8
1-2
  6
CONTINUOUS
 62
    3
 10
1248.603
 20
1984.976
 11
1248.3042
 21
1985.2005
  0
LINE
  8
1-2
  6
CONTINUOUS
 62
    3
 10
1248.3042
 20
1985.2005
 11
1247.9903
 21
1985.3947
  0
LINE
  8
1-2
  6
CONTINUOUS
 62
    3
 10
1247.9903
 20
1985.3947
 11
1247.6613
 21
1985.5595
  0
LINE
  8
1-2
  6
CONTINUOUS
 62
    3
 10
1247.6613
 20
1985.5595
 11
1247.3188
 21
1985.6949
  0
LINE
  8
1-2
  6
CONTINUOUS
 62
    3
 10
1247.3188
 20
1985.6949
 11
1246.9635
 21
1985.8013
  0
LINE
  8
1-2
  6
CONTINUOUS
 62
    3
 10
1229.1562
 20
1981.5737
 11
1228.9851
 21
1982.1023
  0
LINE
  8
1-2
  6
CONTINUOUS
 62
    3
 10
1228.9851
 20
1982.1023
 11
1228.7851
 21
1982.5917
  0
LINE
  8
1-2
  6
CONTINUOUS
 62
    3
 10
1228.7851
 20
1982.5917
 11
1228.5579
 21
1983.0425
  0
LINE
  8
1-2
  6
CONTINUOUS
 62
    3
 10
1228.5579
 20
1983.0425
 11
1228.3065
 21
1983.4548
  0
LINE
  8
1-2
  6
CONTINUOUS
 62
    3
 10
1228.3065
 20
1983.4548
 11
1228.0328
 21
1983.8282
  0
LINE
  8
1-2
  6
CONTINUOUS
 62
    3
 10
1228.0328
 20
1983.8282
 11
1227.74
 21
1984.1627
  0
LINE
  8
1-2
  6
CONTINUOUS
 62
    3
 10
1227.74
 20
1984.1627
 11
1227.4302
 21
1984.4586
  0
LINE
  8
1-2
  6
CONTINUOUS
 62
    3
 10
1227.4302
 20
1984.4586
 11
1227.1064
 21
1984.717
  0
LINE
  8
1-2
  6
CONTINUOUS
 62
    3
 10
1227.1064
 20
1984.717
 11
1226.7709
 21
1984.9372
  0
LINE
  8
1-2
  6
CONTINUOUS
 62
    3
 10
1226.7709
 20
1984.9372
 11
1226.427
 21
1985.1203
  0
LINE
  8
1-2
  6
CONTINUOUS
 62
    3
 10
1226.427
 20
1985.1203
 11
1226.0771
 21
1985.268
  0
LINE
  8
1-2
  6
CONTINUOUS
 62
    3
 10
1226.0771
 20
1985.268
 11
1225.7242
 21
1985.3806
  0
LINE
  8
1-2
  6
CONTINUOUS
 62
    3
 10
1225.7242
 20
1985.3806
 11
1225.3719
 21
1985.4581
  0
LINE
  8
1-2
  6
CONTINUOUS
 62
    3
 10
1225.3719
 20
1985.4581
 11
1225.0229
 21
1985.5033
  0
LINE
  8
1-2
  6
CONTINUOUS
 62
    3
 10
1225.0229
 20
1985.5033
 11
1224.6795
 21
1985.5167
  0
LINE
  8
1-2
  6
CONTINUOUS
 62
    3
 10
1224.6795
 20
1985.5167
 11
1224.346
 21
1985.5004
  0
LINE
  8
1-2
  6
CONTINUOUS
 62
    3
 10
1224.346
 20
1985.5004
 11
1224.0252
 21
1985.4553
  0
LINE
  8
1-2
  6
CONTINUOUS
 62
    3
 10
1224.0252
 20
1985.4553
 11
1223.7206
 21
1985.3833
  0
LINE
  8
1-2
  6
CONTINUOUS
 62
    3
 10
1223.7206
 20
1985.3833
 11
1223.4354
 21
1985.2871
  0
LINE
  8
1-2
  6
CONTINUOUS
 62
    3
 10
1279.911
 20
1981.5737
 11
1285.5113
 21
1981.5737
  0
LINE
  8
1-2
  6
CONTINUOUS
 62
    3
 10
1334.767
 20
2044.4538
 11
1279.911
 21
1981.5737
  0
LINE
  8
1-2
  6
CONTINUOUS
 62
    3
 10
1276.292
 20
1981.5737
 11
1330.2656
 21
2044.4538
  0
LINE
  8
1-2
  6
CONTINUOUS
 62
    3
 10
1298.0847
 20
2044.4538
 11
1250.4212
 21
1981.5737
  0
LINE
  8
1-2
  6
CONTINUOUS
 62
    3
 10
1204.1023
 20
1981.5737
 11
1221.1921
 21
1981.5737
  0
LINE
  8
1-2
  6
CONTINUOUS
 62
    3
 10
1240.4683
 20
2044.4538
 11
1204.1023
 21
1981.5737
  0
LINE
  8
1-2
  6
CONTINUOUS
 62
    3
 10
1195.0077
 20
1981.5737
 11
1229.1562
 21
2044.4538
  0
LINE
  8
1-2
  6
CONTINUOUS
 62
    3
 10
1175.8301
 20
1981.5737
 11
1195.0077
 21
1981.5737
  0
LINE
  8
1-2
  6
CONTINUOUS
 62
    3
 10
1165.7928
 20
1981.5737
 11
1192.8153
 21
2044.4538
  0
LINE
  8
1-2
  6
CONTINUOUS
 62
    3
 10
1144.9425
 20
1981.5737
 11
1165.7928
 21
1981.5737
  0
LINE
  8
1-2
  6
CONTINUOUS
 62
    3
 10
1166.8797
 20
2044.4538
 11
1144.9425
 21
1981.5737
  0
LINE
  8
1-2
  6
CONTINUOUS
 62
    3
 10
1153.492
 20
2044.4538
 11
1134.1798
 21
1981.5737
  0
LINE
  8
1-2
  6
CONTINUOUS
 62
    3
 10
1112.1078
 20
1981.5737
 11
1134.1798
 21
1981.5737
  0
LINE
  8
1-2
  6
CONTINUOUS
 62
    3
 10
1112.1078
 20
1981.5737
 11
1126.0367
 21
2044.4538
  0
LINE
  8
1-2
  6
CONTINUOUS
 62
    3
 10
1112.0359
 20
2044.4538
 11
1100.8522
 21
1981.5737
  0
LINE
  8
1-2
  6
CONTINUOUS
 62
    3
 10
1078.0369
 20
1981.5737
 11
1100.8522
 21
1981.5737
  0
LINE
  8
1-2
  6
CONTINUOUS
 62
    3
 10
1078.0369
 20
1981.5737
 11
1083.6558
 21
2044.4538
  0
LINE
  8
1-2
  6
CONTINUOUS
 62
    3
 10
1066.5323
 20
1981.5737
 11
1069.3452
 21
2044.4538
  0
LINE
  8
1-2
  6
CONTINUOUS
 62
    3
 10
1055.0001
 20
1981.5737
 11
1066.5323
 21
1981.5737
  0
LINE
  8
1-2
  6
CONTINUOUS
 62
    3
 10
904.69942
 20
2044.4538
 11
934.17037
 21
1981.5737
  0
LINE
  8
1-2
  6
CONTINUOUS
 62
    3
 10
1205.3009
 20
2044.4538
 11
1175.83
 21
1981.5737
  0
LINE
  8
1-2
  6
CONTINUOUS
 62
    3
 10
939.14589
 20
1981.5737
 11
939.14589
 21
1917.4213
  0
LINE
  8
1-2
  6
CONTINUOUS
 62
    3
 10
916.65707
 20
1981.5737
 11
916.65707
 21
1917.4213
  0
LINE
  8
1-2
  6
CONTINUOUS
 62
    3
 10
1170.8544
 20
1981.5737
 11
1170.8544
 21
1917.4213
  0
LINE
  8
1-2
  6
CONTINUOUS
 62
    3
 10
1193.3433
 20
1981.5737
 11
1193.3433
 21
1917.4213
  0
LINE
  8
1-2
  6
CONTINUOUS
 62
    7
 10
658.63374
 20
1867.1169
 11
658.63374
 21
2553.7834
  0
LINE
  8
1-2
  6
CONTINUOUS
 62
    7
 10
775.5464
 20
1867.1174
 11
658.63374
 21
1867.1174
  0
LINE
  8
1-2
  6
CONTINUOUS
 62
    3
 10
938.7699
 20
2454.3495
 11
938.87284
 21
2454.3413
  0
LINE
  8
1-2
  6
CONTINUOUS
 62
    3
 10
938.87284
 20
2454.3413
 11
938.97349
 21
2454.3354
  0
LINE
  8
1-2
  6
CONTINUOUS
 62
    3
 10
938.97349
 20
2454.3354
 11
939.07197
 21
2454.3314
  0
LINE
  8
1-2
  6
CONTINUOUS
 62
    3
 10
939.07197
 20
2454.3314
 11
939.16828
 21
2454.3292
  0
LINE
  8
1-2
  6
CONTINUOUS
 62
    3
 10
939.16828
 20
2454.3292
 11
939.26249
 21
2454.3292
  0
LINE
  8
1-2
  6
CONTINUOUS
 62
    3
 10
939.26249
 20
2454.3292
 11
939.35454
 21
2454.3314
  0
LINE
  8
1-2
  6
CONTINUOUS
 62
    3
 10
939.35454
 20
2454.3314
 11
939.44461
 21
2454.3354
  0
LINE
  8
1-2
  6
CONTINUOUS
 62
    3
 10
939.44461
 20
2454.3354
 11
939.53239
 21
2454.3413
  0
LINE
  8
1-2
  6
CONTINUOUS
 62
    3
 10
939.53239
 20
2454.3413
 11
939.61813
 21
2454.3495
  0
LINE
  8
1-2
  6
CONTINUOUS
 62
    3
 10
1002.5064
 20
2454.2381
 11
1002.7819
 21
2454.2191
  0
LINE
  8
1-2
  6
CONTINUOUS
 62
    3
 10
1002.7819
 20
2454.2191
 11
1003.0591
 21
2454.2057
  0
LINE
  8
1-2
  6
CONTINUOUS
 62
    3
 10
1003.0591
 20
2454.2057
 11
1003.3378
 21
2454.1981
  0
LINE
  8
1-2
  6
CONTINUOUS
 62
    3
 10
1003.3378
 20
2454.1981
 11
1003.6184
 21
2454.1958
  0
LINE
  8
1-2
  6
CONTINUOUS
 62
    3
 10
1003.6184
 20
2454.1958
 11
1003.901
 21
2454.1988
  0
LINE
  8
1-2
  6
CONTINUOUS
 62
    3
 10
1003.901
 20
2454.1988
 11
1004.185
 21
2454.207
  0
LINE
  8
1-2
  6
CONTINUOUS
 62
    3
 10
1004.185
 20
2454.207
 11
1004.4711
 21
2454.2213
  0
LINE
  8
1-2
  6
CONTINUOUS
 62
    3
 10
1004.4711
 20
2454.2213
 11
1004.7586
 21
2454.2406
  0
LINE
  8
1-2
  6
CONTINUOUS
 62
    3
 10
1004.7586
 20
2454.2406
 11
1005.0481
 21
2454.2659
  0
LINE
  8
1-2
  6
CONTINUOUS
 62
    3
 10
1107.4939
 20
2454.2381
 11
1107.2184
 21
2454.2191
  0
LINE
  8
1-2
  6
CONTINUOUS
 62
    3
 10
1107.2184
 20
2454.2191
 11
1106.9416
 21
2454.2057
  0
LINE
  8
1-2
  6
CONTINUOUS
 62
    3
 10
1106.9416
 20
2454.2057
 11
1106.6625
 21
2454.1981
  0
LINE
  8
1-2
  6
CONTINUOUS
 62
    3
 10
1106.6625
 20
2454.1981
 11
1106.3816
 21
2454.1958
  0
LINE
  8
1-2
  6
CONTINUOUS
 62
    3
 10
1106.3816
 20
2454.1958
 11
1106.0993
 21
2454.1988
  0
LINE
  8
1-2
  6
CONTINUOUS
 62
    3
 10
1106.0993
 20
2454.1988
 11
1105.8153
 21
2454.207
  0
LINE
  8
1-2
  6
CONTINUOUS
 62
    3
 10
1105.8153
 20
2454.207
 11
1105.5293
 21
2454.2213
  0
LINE
  8
1-2
  6
CONTINUOUS
 62
    3
 10
1105.5293
 20
2454.2213
 11
1105.2414
 21
2454.2406
  0
LINE
  8
1-2
  6
CONTINUOUS
 62
    3
 10
1105.2414
 20
2454.2406
 11
1104.9522
 21
2454.2659
  0
LINE
  8
1-2
  6
CONTINUOUS
 62
    3
 10
1199.1268
 20
2454.3542
 11
1198.9269
 21
2454.3762
  0
LINE
  8
1-2
  6
CONTINUOUS
 62
    3
 10
1198.9269
 20
2454.3762
 11
1198.7301
 21
2454.4079
  0
LINE
  8
1-2
  6
CONTINUOUS
 62
    3
 10
1198.7301
 20
2454.4079
 11
1198.5371
 21
2454.4497
  0
LINE
  8
1-2
  6
CONTINUOUS
 62
    3
 10
1198.5371
 20
2454.4497
 11
1198.3476
 21
2454.5007
  0
LINE
  8
1-2
  6
CONTINUOUS
 62
    3
 10
1198.3476
 20
2454.5007
 11
1198.1618
 21
2454.5611
  0
LINE
  8
1-2
  6
CONTINUOUS
 62
    3
 10
1198.1618
 20
2454.5611
 11
1197.9788
 21
2454.6313
  0
LINE
  8
1-2
  6
CONTINUOUS
 62
    3
 10
1197.9788
 20
2454.6313
 11
1197.7997
 21
2454.7115
  0
LINE
  8
1-2
  6
CONTINUOUS
 62
    3
 10
1197.7997
 20
2454.7115
 11
1197.624
 21
2454.8011
  0
LINE
  8
1-2
  6
CONTINUOUS
 62
    3
 10
1197.624
 20
2454.8011
 11
1197.4514
 21
2454.9
  0
LINE
  8
1-2
  6
CONTINUOUS
 62
    3
 10
1171.2304
 20
2454.3495
 11
1171.1275
 21
2454.3413
  0
LINE
  8
1-2
  6
CONTINUOUS
 62
    3
 10
1171.1275
 20
2454.3413
 11
1171.0268
 21
2454.3354
  0
LINE
  8
1-2
  6
CONTINUOUS
 62
    3
 10
1171.0268
 20
2454.3354
 11
1170.9286
 21
2454.3314
  0
LINE
  8
1-2
  6
CONTINUOUS
 62
    3
 10
1170.9286
 20
2454.3314
 11
1170.8318
 21
2454.3292
  0
LINE
  8
1-2
  6
CONTINUOUS
 62
    3
 10
1170.8318
 20
2454.3292
 11
1170.7377
 21
2454.3292
  0
LINE
  8
1-2
  6
CONTINUOUS
 62
    3
 10
1170.7377
 20
2454.3292
 11
1170.6457
 21
2454.3314
  0
LINE
  8
1-2
  6
CONTINUOUS
 62
    3
 10
1170.6457
 20
2454.3314
 11
1170.5557
 21
2454.3354
  0
LINE
  8
1-2
  6
CONTINUOUS
 62
    3
 10
1170.5557
 20
2454.3354
 11
1170.4679
 21
2454.3413
  0
LINE
  8
1-2
  6
CONTINUOUS
 62
    3
 10
1170.4679
 20
2454.3413
 11
1170.3822
 21
2454.3495
  0
LINE
  8
1-2
  6
CONTINUOUS
 62
    3
 10
1002.5064
 20
1986.7989
 11
1002.7819
 21
1986.818
  0
LINE
  8
1-2
  6
CONTINUOUS
 62
    3
 10
1002.7819
 20
1986.818
 11
1003.0591
 21
1986.8311
  0
LINE
  8
1-2
  6
CONTINUOUS
 62
    3
 10
1003.0591
 20
1986.8311
 11
1003.3378
 21
1986.839
  0
LINE
  8
1-2
  6
CONTINUOUS
 62
    3
 10
1003.3378
 20
1986.839
 11
1003.6184
 21
1986.8415
  0
LINE
  8
1-2
  6
CONTINUOUS
 62
    3
 10
1003.6184
 20
1986.8415
 11
1003.901
 21
1986.8383
  0
LINE
  8
1-2
  6
CONTINUOUS
 62
    3
 10
1003.901
 20
1986.8383
 11
1004.185
 21
1986.8299
  0
LINE
  8
1-2
  6
CONTINUOUS
 62
    3
 10
1004.185
 20
1986.8299
 11
1004.4711
 21
1986.816
  0
LINE
  8
1-2
  6
CONTINUOUS
 62
    3
 10
1004.4711
 20
1986.816
 11
1004.7586
 21
1986.7965
  0
LINE
  8
1-2
  6
CONTINUOUS
 62
    3
 10
1004.7586
 20
1986.7965
 11
1005.0481
 21
1986.7712
  0
LINE
  8
1-2
  6
CONTINUOUS
 62
    3
 10
1107.4939
 20
1986.7989
 11
1107.2184
 21
1986.818
  0
LINE
  8
1-2
  6
CONTINUOUS
 62
    3
 10
1107.2184
 20
1986.818
 11
1106.9416
 21
1986.8311
  0
LINE
  8
1-2
  6
CONTINUOUS
 62
    3
 10
1106.9416
 20
1986.8311
 11
1106.6625
 21
1986.839
  0
LINE
  8
1-2
  6
CONTINUOUS
 62
    3
 10
1106.6625
 20
1986.839
 11
1106.3816
 21
1986.8415
  0
LINE
  8
1-2
  6
CONTINUOUS
 62
    3
 10
1106.3816
 20
1986.8415
 11
1106.0993
 21
1986.8383
  0
LINE
  8
1-2
  6
CONTINUOUS
 62
    3
 10
1106.0993
 20
1986.8383
 11
1105.8153
 21
1986.8299
  0
LINE
  8
1-2
  6
CONTINUOUS
 62
    3
 10
1105.8153
 20
1986.8299
 11
1105.5293
 21
1986.816
  0
LINE
  8
1-2
  6
CONTINUOUS
 62
    3
 10
1105.5293
 20
1986.816
 11
1105.2414
 21
1986.7965
  0
LINE
  8
1-2
  6
CONTINUOUS
 62
    3
 10
1105.2414
 20
1986.7965
 11
1104.9522
 21
1986.7712
  0
LINE
  8
1-2
  6
CONTINUOUS
 62
    3
 10
938.7699
 20
1986.6873
 11
938.87284
 21
1986.6955
  0
LINE
  8
1-2
  6
CONTINUOUS
 62
    3
 10
938.87284
 20
1986.6955
 11
938.97349
 21
1986.7014
  0
LINE
  8
1-2
  6
CONTINUOUS
 62
    3
 10
938.97349
 20
1986.7014
 11
939.07197
 21
1986.7059
  0
LINE
  8
1-2
  6
CONTINUOUS
 62
    3
 10
939.07197
 20
1986.7059
 11
939.16828
 21
1986.7079
  0
LINE
  8
1-2
  6
CONTINUOUS
 62
    3
 10
939.16828
 20
1986.7079
 11
939.26249
 21
1986.7079
  0
LINE
  8
1-2
  6
CONTINUOUS
 62
    3
 10
939.26249
 20
1986.7079
 11
939.35454
 21
1986.7059
  0
LINE
  8
1-2
  6
CONTINUOUS
 62
    3
 10
939.35454
 20
1986.7059
 11
939.44461
 21
1986.7014
  0
LINE
  8
1-2
  6
CONTINUOUS
 62
    3
 10
939.44461
 20
1986.7014
 11
939.53239
 21
1986.6955
  0
LINE
  8
1-2
  6
CONTINUOUS
 62
    3
 10
939.53239
 20
1986.6955
 11
939.61813
 21
1986.6873
  0
LINE
  8
1-2
  6
CONTINUOUS
 62
    3
 10
1171.2304
 20
1986.6873
 11
1171.1275
 21
1986.6955
  0
LINE
  8
1-2
  6
CONTINUOUS
 62
    3
 10
1171.1275
 20
1986.6955
 11
1171.0268
 21
1986.7014
  0
LINE
  8
1-2
  6
CONTINUOUS
 62
    3
 10
1171.0268
 20
1986.7014
 11
1170.9286
 21
1986.7059
  0
LINE
  8
1-2
  6
CONTINUOUS
 62
    3
 10
1170.9286
 20
1986.7059
 11
1170.8318
 21
1986.7079
  0
LINE
  8
1-2
  6
CONTINUOUS
 62
    3
 10
1170.8318
 20
1986.7079
 11
1170.7377
 21
1986.7079
  0
LINE
  8
1-2
  6
CONTINUOUS
 62
    3
 10
1170.7377
 20
1986.7079
 11
1170.6457
 21
1986.7059
  0
LINE
  8
1-2
  6
CONTINUOUS
 62
    3
 10
1170.6457
 20
1986.7059
 11
1170.5557
 21
1986.7014
  0
LINE
  8
1-2
  6
CONTINUOUS
 62
    3
 10
1170.5557
 20
1986.7014
 11
1170.4679
 21
1986.6955
  0
LINE
  8
1-2
  6
CONTINUOUS
 62
    3
 10
1170.4679
 20
1986.6955
 11
1170.3822
 21
1986.6873
  0
LINE
  8
1-2
  6
CONTINUOUS
 62
    7
 10
883.3341
 20
1791.1807
 11
1226.6673
 21
1791.1805
  0
LINE
  8
1-2
  6
CONTINUOUS
 62
    7
 10
883.3341
 20
1791.1807
 11
883.3341
 21
1853.5841
  0
LINE
  8
1-2
  6
CONTINUOUS
 62
    7
 10
1226.6673
 20
1853.5841
 11
1226.6673
 21
1791.1805
  0
LINE
  8
1-2
  6
CONTINUOUS
 62
    7
 10
969.93594
 20
2553.7834
 11
658.63374
 21
2553.7834
  0
LINE
  8
1-2
  6
CONTINUOUS
 62
    3
 10
1055.0001
 20
2553.7834
 11
906.79028
 21
2458.0814
  0
LINE
  8
1-2
  6
CONTINUOUS
 62
    3
 10
1226.6667
 20
1904.8454
 11
1226.6673
 21
1879.6922
  0
LINE
  8
1-2
  6
CONTINUOUS
 62
    3
 10
883.33355
 20
1867.1169
 11
1226.6668
 21
1867.1169
  0
LINE
  8
1-2
  6
CONTINUOUS
 62
    3
 10
883.33274
 20
1917.4209
 11
1226.6668
 21
1917.4209
  0
LINE
  8
1-2
  6
CONTINUOUS
 62
    3
 10
883.33355
 20
1873.7835
 11
1226.6668
 21
1873.7835
  0
LINE
  8
1-2
  6
CONTINUOUS
 62
    3
 10
883.33249
 20
1910.7542
 11
883.33373
 21
1873.7835
  0
LINE
  8
1-2
  6
CONTINUOUS
 62
    3
 10
883.33274
 20
1910.7542
 11
1226.6668
 21
1910.7542
  0
LINE
  8
1-2
  6
CONTINUOUS
 62
    3
 10
1226.6681
 20
1910.7542
 11
1226.6667
 21
1873.7835
  0
LINE
  8
1-8
  6
CONTINUOUS
 62
    7
 10
1348.7992
 20
1412.6064
 11
1598.9997
 21
1412.6064
  0
LINE
  8
1-8
  6
CONTINUOUS
 62
    7
 10
1348.7992
 20
1572.6064
 11
1598.9997
 21
1572.6064
  0
LINE
  8
1-8
  6
CONTINUOUS
 62
    7
 10
1348.7992
 20
1619.2726
 11
1598.9997
 21
1619.2726
  0
LINE
  8
1-2
  6
CONTINUOUS
 62
    3
 10
855.00001
 20
585.30853
 11
855.00001
 21
985.30839
  0
LINE
  8
1-2
  6
CONTINUOUS
 62
    3
 10
855.00001
 20
985.30839
 11
1255.0003
 21
985.30839
  0
LINE
  8
1-2
  6
CONTINUOUS
 62
    3
 10
1255.0003
 20
985.30839
 11
1255.0003
 21
585.30853
  0
LINE
  8
1-2
  6
CONTINUOUS
 62
    3
 10
1255.0003
 20
585.30853
 11
855.00001
 21
585.30853
  0
LINE
  8
1-8
  6
CONTINUOUS
 62
    7
 10
855.00001
 20
1330.5175
 11
1255.0003
 21
1330.5175
  0
LINE
  8
1-2
  6
CONTINUOUS
 62
    3
 10
855.00001
 20
985.30839
 11
910.15448
 21
930.15405
  0
LINE
  8
1-2
  6
CONTINUOUS
 62
    3
 10
1255.0003
 20
985.30839
 11
1199.8459
 21
930.15405
  0
LINE
  8
1-2
  6
CONTINUOUS
 62
    3
 10
855.00001
 20
585.30853
 11
910.15448
 21
640.46262
  0
LINE
  8
1-2
  6
CONTINUOUS
 62
    3
 10
1255.0003
 20
585.30853
 11
1199.8459
 21
640.46262
  0
LINE
  8
1-2
  6
CONTINUOUS
 62
    3
 10
886.66687
 20
1572.6064
 11
1223.3333
 21
1572.6064
  0
LINE
  8
1-2
  6
CONTINUOUS
 62
    3
 10
886.66687
 20
1608.8726
 11
1223.3333
 21
1608.8726
  0
LINE
  8
1-2
  6
CONTINUOUS
 62
    3
 10
886.66687
 20
1598.4727
 11
886.66687
 21
1572.6064
  0
LINE
  8
1-2
  6
CONTINUOUS
 62
    3
 10
886.66687
 20
1598.4727
 11
1223.3333
 21
1598.4727
  0
LINE
  8
1-2
  6
CONTINUOUS
 62
    3
 10
1223.3333
 20
1598.4727
 11
1223.3333
 21
1572.6064
  0
LINE
  8
1-2
  6
CONTINUOUS
 62
    3
 10
1223.3335
 20
1619.2726
 11
1223.3335
 21
1608.8726
  0
LINE
  8
1-d
  6
CONTINUOUS
 62
    7
 10
638.96957
 20
1448.6386
 11
711.56186
 21
1448.6386
  0
LINE
  8
1-d
  6
CONTINUOUS
 62
    7
 10
638.96957
 20
1448.6386
 11
711.56186
 21
1470.4155
  0
LINE
  8
1-d
  6
CONTINUOUS
 62
    7
 10
711.56186
 20
1448.6386
 11
711.56186
 21
1470.4155
  0
LINE
  8
1-8
  6
CONTINUOUS
 62
    7
 10
886.66687
 20
1635.6415
 11
886.66687
 21
1670.1893
  0
LINE
  8
1-8
  6
CONTINUOUS
 62
    7
 10
1223.3335
 20
1635.6415
 11
1223.3335
 21
1670.1893
  0
LINE
  8
1-2
  6
CONTINUOUS
 62
    3
 10
1421.6669
 20
418.64147
 11
1421.6669
 21
1151.9749
  0
LINE
  8
1-2
  6
CONTINUOUS
 62
    3
 10
1421.6669
 20
1151.9749
 11
688.33345
 21
1151.9749
  0
LINE
  8
1-2
  6
CONTINUOUS
 62
    3
 10
688.33345
 20
1151.9749
 11
688.33345
 21
418.64147
  0
LINE
  8
1-2
  6
CONTINUOUS
 62
    3
 10
688.33345
 20
418.64147
 11
1421.6669
 21
418.64147
  0
LINE
  8
1-8
  6
CONTINUOUS
 62
    7
 10
896.13058
 20
729.66122
 11
1213.8698
 21
840.95533
  0
LINE
  8
1-2
  6
CONTINUOUS
 62
    3
 10
886.66687
 20
1619.2726
 11
886.66687
 21
1608.8726
  0
LINE
  8
1-2
  6
CONTINUOUS
 62
    3
 10
886.66687
 20
1619.2726
 11
1223.3335
 21
1619.2726
  0
LINE
  8
1-8
  6
CONTINUOUS
 62
    7
 10
511.00062
 20
418.64147
 11
511.00062
 21
1151.9749
  0
LINE
  8
1-8
  6
CONTINUOUS
 62
    7
 10
648.42239
 20
418.64147
 11
511.00062
 21
418.64147
  0
LINE
  8
1-8
  6
CONTINUOUS
 62
    7
 10
648.42239
 20
1151.9749
 11
511.00062
 21
1151.9749
  0
LINE
  8
1-8
  6
CONTINUOUS
 62
    7
 10
1567.3414
 20
585.30853
 11
1567.3414
 21
985.30839
  0
LINE
  8
1-8
  6
CONTINUOUS
 62
    7
 10
1480.8549
 20
585.30853
 11
1567.3414
 21
585.30853
  0
LINE
  8
1-8
  6
CONTINUOUS
 62
    7
 10
1480.8549
 20
985.30839
 11
1567.3414
 21
985.30839
  0
LINE
  8
1-1
  6
CENTER2
 62
    7
 10
1421.6669
 20
785.30846
 11
688.33345
 21
785.30846
  0
LINE
  8
1-8
  6
CONTINUOUS
 62
    7
 10
886.66687
 20
1670.1893
 11
1223.3335
 21
1670.1893
  0
LINE
  8
1-8
  6
CONTINUOUS
 62
    7
 10
1567.3414
 20
418.64147
 11
1567.3414
 21
585.30853
  0
LINE
  8
1-8
  6
CONTINUOUS
 62
    7
 10
1480.8549
 20
418.64147
 11
1567.3414
 21
418.64147
  0
LINE
  8
1-8
  6
CONTINUOUS
 62
    7
 10
1567.3414
 20
985.30839
 11
1567.3414
 21
1151.9749
  0
LINE
  8
1-8
  6
CONTINUOUS
 62
    7
 10
1480.8549
 20
1151.9749
 11
1567.3414
 21
1151.9749
  0
LINE
  8
1-2
  6
CONTINUOUS
 62
    3
 10
1271.6213
 20
2044.4538
 11
1289.822
 21
2044.4538
  0
LINE
  8
1-2
  6
CONTINUOUS
 62
    3
 10
1243.7784
 20
1981.5737
 11
1289.822
 21
2044.4538
  0
LINE
  8
1-2
  6
CONTINUOUS
 62
    3
 10
1221.1921
 20
1981.5737
 11
1261.7267
 21
2044.4538
  0
LINE
  8
1-2
  6
CONTINUOUS
 62
    3
 10
1250.4212
 20
1981.5737
 11
1262.2786
 21
1981.5737
  0
LINE
  8
1-2
  6
CONTINUOUS
 62
    3
 10
1262.2786
 20
1981.5737
 11
1312.8341
 21
2044.4538
  0
LINE
  8
1-2
  6
CONTINUOUS
 62
    3
 10
1267.4657
 20
1981.5737
 11
1276.292
 21
1981.5737
  0
LINE
  8
1-2
  6
CONTINUOUS
 62
    3
 10
1319.2863
 20
2044.4538
 11
1267.4657
 21
1981.5737
  0
LINE
  8
1-2
  6
CONTINUOUS
 62
    3
 10
1229.1464
 20
1981.5737
 11
1243.7784
 21
1981.5737
  0
LINE
  8
1-2
  6
CONTINUOUS
 62
    3
 10
1271.6213
 20
2044.4538
 11
1229.1464
 21
1981.5737
  0
LINE
  8
1-2
  6
CONTINUOUS
 62
    3
 10
1192.8153
 20
2147.7295
 11
1219.6045
 21
2139.1601
  0
LINE
  8
1-2
  6
CONTINUOUS
 62
    3
 10
1230.8492
 20
2135.5631
 11
1240.4683
 21
2132.4862
  0
LINE
  8
1-2
  6
CONTINUOUS
 62
    3
 10
1261.7267
 20
2147.7295
 11
1298.0847
 21
2132.4862
  0
LINE
  8
1-8
  6
CONTINUOUS
 62
    7
 10
1598.9997
 20
1412.6064
 11
1598.9997
 21
1619.2726
  0
LINE
  8
1-2
  6
CONTINUOUS
 62
    3
 10
886.66687
 20
1572.6064
 11
855.00001
 21
1412.6064
  0
LINE
  8
1-2
  6
CONTINUOUS
 62
    3
 10
1255.0003
 20
1412.6064
 11
1223.3333
 21
1572.6064
  0
LINE
  8
1-8
  6
CONTINUOUS
 62
    7
 10
855.00001
 20
1383.3138
 11
855.00001
 21
1330.5175
  0
LINE
  8
1-8
  6
CONTINUOUS
 62
    7
 10
1255.0003
 20
1383.3138
 11
1255.0003
 21
1330.5175
  0
LINE
  8
1-2
  6
CONTINUOUS
 62
    3
 10
1055.0001
 20
1472.604
 11
688.33345
 21
1362.6084
  0
LINE
  8
1-2
  6
CONTINUOUS
 62
    3
 10
1421.6669
 20
1362.3798
 11
1055.0001
 21
1472.604
  0
LINE
  8
1-2
  6
CENTER2
 62
    7
 10
1055.0001
 20
2553.7834
 11
1055.0001
 21
418.64147
  0
LINE
  8
1-2
  6
CONTINUOUS
 62
    3
 10
768.26771
 20
2132.4865
 11
767.29149
 21
2132.3909
  0
LINE
  8
1-2
  6
CONTINUOUS
 62
    3
 10
767.29149
 20
2132.3909
 11
766.34493
 21
2132.1073
  0
LINE
  8
1-2
  6
CONTINUOUS
 62
    3
 10
766.34493
 20
2132.1073
 11
765.45679
 21
2131.6441
  0
LINE
  8
1-2
  6
CONTINUOUS
 62
    3
 10
765.45679
 20
2131.6441
 11
764.65406
 21
2131.0154
  0
LINE
  8
1-2
  6
CONTINUOUS
 62
    3
 10
764.65406
 20
2131.0154
 11
763.96113
 21
2130.2404
  0
LINE
  8
1-2
  6
CONTINUOUS
 62
    3
 10
763.96113
 20
2130.2404
 11
763.39905
 21
2129.3426
  0
LINE
  8
1-2
  6
CONTINUOUS
 62
    3
 10
763.39905
 20
2129.3426
 11
762.9849
 21
2128.3493
  0
LINE
  8
1-2
  6
CONTINUOUS
 62
    3
 10
762.9849
 20
2128.3493
 11
762.73127
 21
2127.2906
  0
LINE
  8
1-2
  6
CONTINUOUS
 62
    3
 10
762.73127
 20
2127.2906
 11
762.64586
 21
2126.1987
  0
LINE
  8
1-2
  6
CONTINUOUS
 62
    3
 10
762.64586
 20
2126.1987
 11
762.73127
 21
2125.1069
  0
LINE
  8
1-2
  6
CONTINUOUS
 62
    3
 10
762.73127
 20
2125.1069
 11
762.9849
 21
2124.0482
  0
LINE
  8
1-2
  6
CONTINUOUS
 62
    3
 10
762.9849
 20
2124.0482
 11
763.39905
 21
2123.0549
  0
LINE
  8
1-2
  6
CONTINUOUS
 62
    3
 10
763.39905
 20
2123.0549
 11
763.96113
 21
2122.1571
  0
LINE
  8
1-2
  6
CONTINUOUS
 62
    3
 10
763.96113
 20
2122.1571
 11
764.65406
 21
2121.3821
  0
LINE
  8
1-2
  6
CONTINUOUS
 62
    3
 10
764.65406
 20
2121.3821
 11
765.45679
 21
2120.7534
  0
LINE
  8
1-2
  6
CONTINUOUS
 62
    3
 10
765.45679
 20
2120.7534
 11
766.34493
 21
2120.2902
  0
LINE
  8
1-2
  6
CONTINUOUS
 62
    3
 10
766.34493
 20
2120.2902
 11
767.29149
 21
2120.0065
  0
LINE
  8
1-2
  6
CONTINUOUS
 62
    3
 10
767.29149
 20
2120.0065
 11
768.26771
 21
2119.911
  0
LINE
  8
1-2
  6
CONTINUOUS
 62
    3
 10
768.26691
 20
2057.0289
 11
767.29068
 21
2056.9334
  0
LINE
  8
1-2
  6
CONTINUOUS
 62
    3
 10
767.29068
 20
2056.9334
 11
766.34412
 21
2056.6497
  0
LINE
  8
1-2
  6
CONTINUOUS
 62
    3
 10
766.34412
 20
2056.6497
 11
765.45598
 21
2056.1865
  0
LINE
  8
1-2
  6
CONTINUOUS
 62
    3
 10
765.45598
 20
2056.1865
 11
764.65325
 21
2055.5579
  0
LINE
  8
1-2
  6
CONTINUOUS
 62
    3
 10
764.65325
 20
2055.5579
 11
763.96032
 21
2054.7829
  0
LINE
  8
1-2
  6
CONTINUOUS
 62
    3
 10
763.96032
 20
2054.7829
 11
763.39824
 21
2053.8851
  0
LINE
  8
1-2
  6
CONTINUOUS
 62
    3
 10
763.39824
 20
2053.8851
 11
762.9841
 21
2052.8917
  0
LINE
  8
1-2
  6
CONTINUOUS
 62
    3
 10
762.9841
 20
2052.8917
 11
762.73047
 21
2051.8331
  0
LINE
  8
1-2
  6
CONTINUOUS
 62
    3
 10
762.73047
 20
2051.8331
 11
762.64506
 21
2050.7412
  0
LINE
  8
1-2
  6
CONTINUOUS
 62
    3
 10
762.64506
 20
2050.7412
 11
762.73047
 21
2049.6494
  0
LINE
  8
1-2
  6
CONTINUOUS
 62
    3
 10
762.73047
 20
2049.6494
 11
762.9841
 21
2048.5907
  0
LINE
  8
1-2
  6
CONTINUOUS
 62
    3
 10
762.9841
 20
2048.5907
 11
763.39824
 21
2047.5974
  0
LINE
  8
1-2
  6
CONTINUOUS
 62
    3
 10
763.39824
 20
2047.5974
 11
763.96032
 21
2046.6996
  0
LINE
  8
1-2
  6
CONTINUOUS
 62
    3
 10
763.96032
 20
2046.6996
 11
764.65325
 21
2045.9245
  0
LINE
  8
1-2
  6
CONTINUOUS
 62
    3
 10
764.65325
 20
2045.9245
 11
765.45598
 21
2045.2959
  0
LINE
  8
1-2
  6
CONTINUOUS
 62
    3
 10
765.45598
 20
2045.2959
 11
766.34412
 21
2044.8327
  0
LINE
  8
1-2
  6
CONTINUOUS
 62
    3
 10
766.34412
 20
2044.8327
 11
767.29068
 21
2044.549
  0
LINE
  8
1-2
  6
CONTINUOUS
 62
    3
 10
767.29068
 20
2044.549
 11
768.26691
 21
2044.4535
  0
LINE
  8
1-2
  6
CONTINUOUS
 62
    3
 10
1341.734
 20
2119.911
 11
1342.7103
 21
2120.0065
  0
LINE
  8
1-2
  6
CONTINUOUS
 62
    3
 10
1342.7103
 20
2120.0065
 11
1343.6568
 21
2120.2902
  0
LINE
  8
1-2
  6
CONTINUOUS
 62
    3
 10
1343.6568
 20
2120.2902
 11
1344.545
 21
2120.7534
  0
LINE
  8
1-2
  6
CONTINUOUS
 62
    3
 10
1344.545
 20
2120.7534
 11
1345.3477
 21
2121.3821
  0
LINE
  8
1-2
  6
CONTINUOUS
 62
    3
 10
1345.3477
 20
2121.3821
 11
1346.0406
 21
2122.1571
  0
LINE
  8
1-2
  6
CONTINUOUS
 62
    3
 10
1346.0406
 20
2122.1571
 11
1346.6027
 21
2123.0549
  0
LINE
  8
1-2
  6
CONTINUOUS
 62
    3
 10
1346.6027
 20
2123.0549
 11
1347.0169
 21
2124.0482
  0
LINE
  8
1-2
  6
CONTINUOUS
 62
    3
 10
1347.0169
 20
2124.0482
 11
1347.2705
 21
2125.1069
  0
LINE
  8
1-2
  6
CONTINUOUS
 62
    3
 10
1347.2705
 20
2125.1069
 11
1347.3559
 21
2126.1987
  0
LINE
  8
1-2
  6
CONTINUOUS
 62
    3
 10
1347.3559
 20
2126.1987
 11
1347.2705
 21
2127.2906
  0
LINE
  8
1-2
  6
CONTINUOUS
 62
    3
 10
1347.2705
 20
2127.2906
 11
1347.0169
 21
2128.3493
  0
LINE
  8
1-2
  6
CONTINUOUS
 62
    3
 10
1347.0169
 20
2128.3493
 11
1346.6027
 21
2129.3426
  0
LINE
  8
1-2
  6
CONTINUOUS
 62
    3
 10
1346.6027
 20
2129.3426
 11
1346.0406
 21
2130.2404
  0
LINE
  8
1-2
  6
CONTINUOUS
 62
    3
 10
1346.0406
 20
2130.2404
 11
1345.3477
 21
2131.0154
  0
LINE
  8
1-2
  6
CONTINUOUS
 62
    3
 10
1345.3477
 20
2131.0154
 11
1344.545
 21
2131.6441
  0
LINE
  8
1-2
  6
CONTINUOUS
 62
    3
 10
1344.545
 20
2131.6441
 11
1343.6568
 21
2132.1073
  0
LINE
  8
1-2
  6
CONTINUOUS
 62
    3
 10
1343.6568
 20
2132.1073
 11
1342.7103
 21
2132.3909
  0
LINE
  8
1-2
  6
CONTINUOUS
 62
    3
 10
1342.7103
 20
2132.3909
 11
1341.734
 21
2132.4865
  0
LINE
  8
1-2
  6
CONTINUOUS
 62
    3
 10
1341.7333
 20
2044.4535
 11
1342.7095
 21
2044.549
  0
LINE
  8
1-2
  6
CONTINUOUS
 62
    3
 10
1342.7095
 20
2044.549
 11
1343.6561
 21
2044.8327
  0
LINE
  8
1-2
  6
CONTINUOUS
 62
    3
 10
1343.6561
 20
2044.8327
 11
1344.5442
 21
2045.2959
  0
LINE
  8
1-2
  6
CONTINUOUS
 62
    3
 10
1344.5442
 20
2045.2959
 11
1345.347
 21
2045.9245
  0
LINE
  8
1-2
  6
CONTINUOUS
 62
    3
 10
1345.347
 20
2045.9245
 11
1346.0399
 21
2046.6996
  0
LINE
  8
1-2
  6
CONTINUOUS
 62
    3
 10
1346.0399
 20
2046.6996
 11
1346.602
 21
2047.5974
  0
LINE
  8
1-2
  6
CONTINUOUS
 62
    3
 10
1346.602
 20
2047.5974
 11
1347.0161
 21
2048.5907
  0
LINE
  8
1-2
  6
CONTINUOUS
 62
    3
 10
1347.0161
 20
2048.5907
 11
1347.2697
 21
2049.6494
  0
LINE
  8
1-2
  6
CONTINUOUS
 62
    3
 10
1347.2697
 20
2049.6494
 11
1347.3552
 21
2050.7412
  0
LINE
  8
1-2
  6
CONTINUOUS
 62
    3
 10
1347.3552
 20
2050.7412
 11
1347.2697
 21
2051.8331
  0
LINE
  8
1-2
  6
CONTINUOUS
 62
    3
 10
1347.2697
 20
2051.8331
 11
1347.0161
 21
2052.8917
  0
LINE
  8
1-2
  6
CONTINUOUS
 62
    3
 10
1347.0161
 20
2052.8917
 11
1346.602
 21
2053.8851
  0
LINE
  8
1-2
  6
CONTINUOUS
 62
    3
 10
1346.602
 20
2053.8851
 11
1346.0399
 21
2054.7829
  0
LINE
  8
1-2
  6
CONTINUOUS
 62
    3
 10
1346.0399
 20
2054.7829
 11
1345.347
 21
2055.5579
  0
LINE
  8
1-2
  6
CONTINUOUS
 62
    3
 10
1345.347
 20
2055.5579
 11
1344.5442
 21
2056.1865
  0
LINE
  8
1-2
  6
CONTINUOUS
 62
    3
 10
1344.5442
 20
2056.1865
 11
1343.6561
 21
2056.6497
  0
LINE
  8
1-2
  6
CONTINUOUS
 62
    3
 10
1343.6561
 20
2056.6497
 11
1342.7095
 21
2056.9334
  0
LINE
  8
1-2
  6
CONTINUOUS
 62
    3
 10
1342.7095
 20
2056.9334
 11
1341.7333
 21
2057.0289
  0
LINE
  8
1-2
  6
CONTINUOUS
 62
    3
 10
768.26672
 20
2396.583
 11
767.2905
 21
2396.4874
  0
LINE
  8
1-2
  6
CONTINUOUS
 62
    3
 10
767.2905
 20
2396.4874
 11
766.34394
 21
2396.2038
  0
LINE
  8
1-2
  6
CONTINUOUS
 62
    3
 10
766.34394
 20
2396.2038
 11
765.4558
 21
2395.7406
  0
LINE
  8
1-2
  6
CONTINUOUS
 62
    3
 10
765.4558
 20
2395.7406
 11
764.65307
 21
2395.1119
  0
LINE
  8
1-2
  6
CONTINUOUS
 62
    3
 10
764.65307
 20
2395.1119
 11
763.96014
 21
2394.3369
  0
LINE
  8
1-2
  6
CONTINUOUS
 62
    3
 10
763.96014
 20
2394.3369
 11
763.39806
 21
2393.4391
  0
LINE
  8
1-2
  6
CONTINUOUS
 62
    3
 10
763.39806
 20
2393.4391
 11
762.98391
 21
2392.4458
  0
LINE
  8
1-2
  6
CONTINUOUS
 62
    3
 10
762.98391
 20
2392.4458
 11
762.73028
 21
2391.3871
  0
LINE
  8
1-2
  6
CONTINUOUS
 62
    3
 10
762.73028
 20
2391.3871
 11
762.64487
 21
2390.2952
  0
LINE
  8
1-2
  6
CONTINUOUS
 62
    3
 10
762.64487
 20
2390.2952
 11
762.73028
 21
2389.2034
  0
LINE
  8
1-2
  6
CONTINUOUS
 62
    3
 10
762.73028
 20
2389.2034
 11
762.98391
 21
2388.1447
  0
LINE
  8
1-2
  6
CONTINUOUS
 62
    3
 10
762.98391
 20
2388.1447
 11
763.39806
 21
2387.1514
  0
LINE
  8
1-2
  6
CONTINUOUS
 62
    3
 10
763.39806
 20
2387.1514
 11
763.96014
 21
2386.2536
  0
LINE
  8
1-2
  6
CONTINUOUS
 62
    3
 10
763.96014
 20
2386.2536
 11
764.65307
 21
2385.4786
  0
LINE
  8
1-2
  6
CONTINUOUS
 62
    3
 10
764.65307
 20
2385.4786
 11
765.4558
 21
2384.8499
  0
LINE
  8
1-2
  6
CONTINUOUS
 62
    3
 10
765.4558
 20
2384.8499
 11
766.34394
 21
2384.3867
  0
LINE
  8
1-2
  6
CONTINUOUS
 62
    3
 10
766.34394
 20
2384.3867
 11
767.2905
 21
2384.103
  0
LINE
  8
1-2
  6
CONTINUOUS
 62
    3
 10
767.2905
 20
2384.103
 11
768.26672
 21
2384.0075
  0
LINE
  8
1-2
  6
CONTINUOUS
 62
    3
 10
768.26672
 20
2321.1262
 11
767.2905
 21
2321.0307
  0
LINE
  8
1-2
  6
CONTINUOUS
 62
    3
 10
767.2905
 20
2321.0307
 11
766.34394
 21
2320.747
  0
LINE
  8
1-2
  6
CONTINUOUS
 62
    3
 10
766.34394
 20
2320.747
 11
765.4558
 21
2320.2838
  0
LINE
  8
1-2
  6
CONTINUOUS
 62
    3
 10
765.4558
 20
2320.2838
 11
764.65307
 21
2319.6551
  0
LINE
  8
1-2
  6
CONTINUOUS
 62
    3
 10
764.65307
 20
2319.6551
 11
763.96014
 21
2318.8801
  0
LINE
  8
1-2
  6
CONTINUOUS
 62
    3
 10
763.96014
 20
2318.8801
 11
763.39806
 21
2317.9823
  0
LINE
  8
1-2
  6
CONTINUOUS
 62
    3
 10
763.39806
 20
2317.9823
 11
762.98391
 21
2316.989
  0
LINE
  8
1-2
  6
CONTINUOUS
 62
    3
 10
762.98391
 20
2316.989
 11
762.73028
 21
2315.9303
  0
LINE
  8
1-2
  6
CONTINUOUS
 62
    3
 10
762.73028
 20
2315.9303
 11
762.64487
 21
2314.8385
  0
LINE
  8
1-2
  6
CONTINUOUS
 62
    3
 10
762.64487
 20
2314.8385
 11
762.73028
 21
2313.7466
  0
LINE
  8
1-2
  6
CONTINUOUS
 62
    3
 10
762.73028
 20
2313.7466
 11
762.98391
 21
2312.6879
  0
LINE
  8
1-2
  6
CONTINUOUS
 62
    3
 10
762.98391
 20
2312.6879
 11
763.39806
 21
2311.6946
  0
LINE
  8
1-2
  6
CONTINUOUS
 62
    3
 10
763.39806
 20
2311.6946
 11
763.96014
 21
2310.7968
  0
LINE
  8
1-2
  6
CONTINUOUS
 62
    3
 10
763.96014
 20
2310.7968
 11
764.65307
 21
2310.0218
  0
LINE
  8
1-2
  6
CONTINUOUS
 62
    3
 10
764.65307
 20
2310.0218
 11
765.4558
 21
2309.3931
  0
LINE
  8
1-2
  6
CONTINUOUS
 62
    3
 10
765.4558
 20
2309.3931
 11
766.34394
 21
2308.9299
  0
LINE
  8
1-2
  6
CONTINUOUS
 62
    3
 10
766.34394
 20
2308.9299
 11
767.2905
 21
2308.6463
  0
LINE
  8
1-2
  6
CONTINUOUS
 62
    3
 10
767.2905
 20
2308.6463
 11
768.26672
 21
2308.5507
  0
LINE
  8
1-2
  6
CONTINUOUS
 62
    3
 10
1341.7333
 20
2384.0075
 11
1342.7095
 21
2384.103
  0
LINE
  8
1-2
  6
CONTINUOUS
 62
    3
 10
1342.7095
 20
2384.103
 11
1343.6561
 21
2384.3867
  0
LINE
  8
1-2
  6
CONTINUOUS
 62
    3
 10
1343.6561
 20
2384.3867
 11
1344.5442
 21
2384.8499
  0
LINE
  8
1-2
  6
CONTINUOUS
 62
    3
 10
1344.5442
 20
2384.8499
 11
1345.347
 21
2385.4786
  0
LINE
  8
1-2
  6
CONTINUOUS
 62
    3
 10
1345.347
 20
2385.4786
 11
1346.0399
 21
2386.2536
  0
LINE
  8
1-2
  6
CONTINUOUS
 62
    3
 10
1346.0399
 20
2386.2536
 11
1346.602
 21
2387.1514
  0
LINE
  8
1-2
  6
CONTINUOUS
 62
    3
 10
1346.602
 20
2387.1514
 11
1347.0161
 21
2388.1447
  0
LINE
  8
1-2
  6
CONTINUOUS
 62
    3
 10
1347.0161
 20
2388.1447
 11
1347.2697
 21
2389.2034
  0
LINE
  8
1-2
  6
CONTINUOUS
 62
    3
 10
1347.2697
 20
2389.2034
 11
1347.3552
 21
2390.2952
  0
LINE
  8
1-2
  6
CONTINUOUS
 62
    3
 10
1347.3552
 20
2390.2952
 11
1347.2697
 21
2391.3871
  0
LINE
  8
1-2
  6
CONTINUOUS
 62
    3
 10
1347.2697
 20
2391.3871
 11
1347.0161
 21
2392.4458
  0
LINE
  8
1-2
  6
CONTINUOUS
 62
    3
 10
1347.0161
 20
2392.4458
 11
1346.602
 21
2393.4391
  0
LINE
  8
1-2
  6
CONTINUOUS
 62
    3
 10
1346.602
 20
2393.4391
 11
1346.0399
 21
2394.3369
  0
LINE
  8
1-2
  6
CONTINUOUS
 62
    3
 10
1346.0399
 20
2394.3369
 11
1345.347
 21
2395.1119
  0
LINE
  8
1-2
  6
CONTINUOUS
 62
    3
 10
1345.347
 20
2395.1119
 11
1344.5442
 21
2395.7406
  0
LINE
  8
1-2
  6
CONTINUOUS
 62
    3
 10
1344.5442
 20
2395.7406
 11
1343.6561
 21
2396.2038
  0
LINE
  8
1-2
  6
CONTINUOUS
 62
    3
 10
1343.6561
 20
2396.2038
 11
1342.7095
 21
2396.4874
  0
LINE
  8
1-2
  6
CONTINUOUS
 62
    3
 10
1342.7095
 20
2396.4874
 11
1341.7333
 21
2396.583
  0
LINE
  8
1-2
  6
CONTINUOUS
 62
    3
 10
1341.7333
 20
2308.5507
 11
1342.7095
 21
2308.6463
  0
LINE
  8
1-2
  6
CONTINUOUS
 62
    3
 10
1342.7095
 20
2308.6463
 11
1343.6561
 21
2308.9299
  0
LINE
  8
1-2
  6
CONTINUOUS
 62
    3
 10
1343.6561
 20
2308.9299
 11
1344.5442
 21
2309.3931
  0
LINE
  8
1-2
  6
CONTINUOUS
 62
    3
 10
1344.5442
 20
2309.3931
 11
1345.347
 21
2310.0218
  0
LINE
  8
1-2
  6
CONTINUOUS
 62
    3
 10
1345.347
 20
2310.0218
 11
1346.0399
 21
2310.7968
  0
LINE
  8
1-2
  6
CONTINUOUS
 62
    3
 10
1346.0399
 20
2310.7968
 11
1346.602
 21
2311.6946
  0
LINE
  8
1-2
  6
CONTINUOUS
 62
    3
 10
1346.602
 20
2311.6946
 11
1347.0161
 21
2312.6879
  0
LINE
  8
1-2
  6
CONTINUOUS
 62
    3
 10
1347.0161
 20
2312.6879
 11
1347.2697
 21
2313.7466
  0
LINE
  8
1-2
  6
CONTINUOUS
 62
    3
 10
1347.2697
 20
2313.7466
 11
1347.3552
 21
2314.8385
  0
LINE
  8
1-2
  6
CONTINUOUS
 62
    3
 10
1347.3552
 20
2314.8385
 11
1347.2697
 21
2315.9303
  0
LINE
  8
1-2
  6
CONTINUOUS
 62
    3
 10
1347.2697
 20
2315.9303
 11
1347.0161
 21
2316.989
  0
LINE
  8
1-2
  6
CONTINUOUS
 62
    3
 10
1347.0161
 20
2316.989
 11
1346.602
 21
2317.9823
  0
LINE
  8
1-2
  6
CONTINUOUS
 62
    3
 10
1346.602
 20
2317.9823
 11
1346.0399
 21
2318.8801
  0
LINE
  8
1-2
  6
CONTINUOUS
 62
    3
 10
1346.0399
 20
2318.8801
 11
1345.347
 21
2319.6551
  0
LINE
  8
1-2
  6
CONTINUOUS
 62
    3
 10
1345.347
 20
2319.6551
 11
1344.5442
 21
2320.2838
  0
LINE
  8
1-2
  6
CONTINUOUS
 62
    3
 10
1344.5442
 20
2320.2838
 11
1343.6561
 21
2320.747
  0
LINE
  8
1-2
  6
CONTINUOUS
 62
    3
 10
1343.6561
 20
2320.747
 11
1342.7095
 21
2321.0307
  0
LINE
  8
1-2
  6
CONTINUOUS
 62
    3
 10
1342.7095
 20
2321.0307
 11
1341.7333
 21
2321.1262
  0
LINE
  8
1-2
  6
CONTINUOUS
 62
    3
 10
1031.9633
 20
2459.4633
 11
1032.2578
 21
2458.3664
  0
LINE
  8
1-2
  6
CONTINUOUS
 62
    3
 10
1032.2578
 20
2458.3664
 11
1032.7182
 21
2457.3434
  0
LINE
  8
1-2
  6
CONTINUOUS
 62
    3
 10
1032.7182
 20
2457.3434
 11
1033.3304
 21
2456.4253
  0
LINE
  8
1-2
  6
CONTINUOUS
 62
    3
 10
1033.3304
 20
2456.4253
 11
1034.0758
 21
2455.6401
  0
LINE
  8
1-2
  6
CONTINUOUS
 62
    3
 10
1034.0758
 20
2455.6401
 11
1034.9319
 21
2455.0116
  0
LINE
  8
1-2
  6
CONTINUOUS
 62
    3
 10
1034.9319
 20
2455.0116
 11
1035.8725
 21
2454.5588
  0
LINE
  8
1-2
  6
CONTINUOUS
 62
    3
 10
1035.8725
 20
2454.5588
 11
1036.8691
 21
2454.2957
  0
LINE
  8
1-2
  6
CONTINUOUS
 62
    3
 10
1036.8691
 20
2454.2957
 11
1037.8914
 21
2454.2301
  0
LINE
  8
1-2
  6
CONTINUOUS
 62
    3
 10
1037.8914
 20
2454.2301
 11
1038.9084
 21
2454.364
  0
LINE
  8
1-2
  6
CONTINUOUS
 62
    3
 10
1038.9084
 20
2454.364
 11
1039.8891
 21
2454.6934
  0
LINE
  8
1-2
  6
CONTINUOUS
 62
    3
 10
1039.8891
 20
2454.6934
 11
1040.8038
 21
2455.2083
  0
LINE
  8
1-2
  6
CONTINUOUS
 62
    3
 10
1040.8038
 20
2455.2083
 11
1041.6247
 21
2455.8931
  0
LINE
  8
1-2
  6
CONTINUOUS
 62
    3
 10
1041.6247
 20
2455.8931
 11
1042.3268
 21
2456.7268
  0
LINE
  8
1-2
  6
CONTINUOUS
 62
    3
 10
1042.3268
 20
2456.7268
 11
1042.8887
 21
2457.6842
  0
LINE
  8
1-2
  6
CONTINUOUS
 62
    3
 10
1042.8887
 20
2457.6842
 11
1043.2935
 21
2458.7362
  0
LINE
  8
1-2
  6
CONTINUOUS
 62
    3
 10
1043.2935
 20
2458.7362
 11
1043.4677
 21
2459.4633
  0
LINE
  8
1-2
  6
CONTINUOUS
 62
    3
 10
1066.5326
 20
2459.4633
 11
1066.8271
 21
2458.3664
  0
LINE
  8
1-2
  6
CONTINUOUS
 62
    3
 10
1066.8271
 20
2458.3664
 11
1067.2875
 21
2457.3434
  0
LINE
  8
1-2
  6
CONTINUOUS
 62
    3
 10
1067.2875
 20
2457.3434
 11
1067.8997
 21
2456.4253
  0
LINE
  8
1-2
  6
CONTINUOUS
 62
    3
 10
1067.8997
 20
2456.4253
 11
1068.6452
 21
2455.6401
  0
LINE
  8
1-2
  6
CONTINUOUS
 62
    3
 10
1068.6452
 20
2455.6401
 11
1069.5012
 21
2455.0116
  0
LINE
  8
1-2
  6
CONTINUOUS
 62
    3
 10
1069.5012
 20
2455.0116
 11
1070.4418
 21
2454.5588
  0
LINE
  8
1-2
  6
CONTINUOUS
 62
    3
 10
1070.4418
 20
2454.5588
 11
1071.4384
 21
2454.2957
  0
LINE
  8
1-2
  6
CONTINUOUS
 62
    3
 10
1071.4384
 20
2454.2957
 11
1072.4607
 21
2454.2301
  0
LINE
  8
1-2
  6
CONTINUOUS
 62
    3
 10
1072.4607
 20
2454.2301
 11
1073.4777
 21
2454.364
  0
LINE
  8
1-2
  6
CONTINUOUS
 62
    3
 10
1073.4777
 20
2454.364
 11
1074.4585
 21
2454.6934
  0
LINE
  8
1-2
  6
CONTINUOUS
 62
    3
 10
1074.4585
 20
2454.6934
 11
1075.3732
 21
2455.2083
  0
LINE
  8
1-2
  6
CONTINUOUS
 62
    3
 10
1075.3732
 20
2455.2083
 11
1076.194
 21
2455.8931
  0
LINE
  8
1-2
  6
CONTINUOUS
 62
    3
 10
1076.194
 20
2455.8931
 11
1076.8961
 21
2456.7268
  0
LINE
  8
1-2
  6
CONTINUOUS
 62
    3
 10
1076.8961
 20
2456.7268
 11
1077.458
 21
2457.6842
  0
LINE
  8
1-2
  6
CONTINUOUS
 62
    3
 10
1077.458
 20
2457.6842
 11
1077.8628
 21
2458.7362
  0
LINE
  8
1-2
  6
CONTINUOUS
 62
    3
 10
1077.8628
 20
2458.7362
 11
1078.037
 21
2459.4633
  0
LINE
  8
1-2
  6
CONTINUOUS
 62
    3
 10
888.14685
 20
2326.912
 11
888.0956
 21
2327.5672
  0
LINE
  8
1-2
  6
CONTINUOUS
 62
    3
 10
888.0956
 20
2327.5672
 11
887.94342
 21
2328.2024
  0
LINE
  8
1-2
  6
CONTINUOUS
 62
    3
 10
887.94342
 20
2328.2024
 11
887.69492
 21
2328.7984
  0
LINE
  8
1-2
  6
CONTINUOUS
 62
    3
 10
887.69492
 20
2328.7984
 11
887.35765
 21
2329.3371
  0
LINE
  8
1-2
  6
CONTINUOUS
 62
    3
 10
887.35765
 20
2329.3371
 11
886.94188
 21
2329.8022
  0
LINE
  8
1-2
  6
CONTINUOUS
 62
    3
 10
886.94188
 20
2329.8022
 11
886.46022
 21
2330.1794
  0
LINE
  8
1-2
  6
CONTINUOUS
 62
    3
 10
886.46022
 20
2330.1794
 11
885.92731
 21
2330.4573
  0
LINE
  8
1-2
  6
CONTINUOUS
 62
    3
 10
885.92731
 20
2330.4573
 11
885.35934
 21
2330.6275
  0
LINE
  8
1-2
  6
CONTINUOUS
 62
    3
 10
885.35934
 20
2330.6275
 11
884.77358
 21
2330.6848
  0
LINE
  8
1-2
  6
CONTINUOUS
 62
    3
 10
884.77358
 20
2330.6848
 11
884.18782
 21
2330.6275
  0
LINE
  8
1-2
  6
CONTINUOUS
 62
    3
 10
884.18782
 20
2330.6275
 11
883.61986
 21
2330.4573
  0
LINE
  8
1-2
  6
CONTINUOUS
 62
    3
 10
883.61986
 20
2330.4573
 11
883.08695
 21
2330.1794
  0
LINE
  8
1-2
  6
CONTINUOUS
 62
    3
 10
883.08695
 20
2330.1794
 11
882.60529
 21
2329.8022
  0
LINE
  8
1-2
  6
CONTINUOUS
 62
    3
 10
882.60529
 20
2329.8022
 11
882.18951
 21
2329.3371
  0
LINE
  8
1-2
  6
CONTINUOUS
 62
    3
 10
882.18951
 20
2329.3371
 11
881.85225
 21
2328.7984
  0
LINE
  8
1-2
  6
CONTINUOUS
 62
    3
 10
881.85225
 20
2328.7984
 11
881.60375
 21
2328.2024
  0
LINE
  8
1-2
  6
CONTINUOUS
 62
    3
 10
881.60375
 20
2328.2024
 11
881.45156
 21
2327.5672
  0
LINE
  8
1-2
  6
CONTINUOUS
 62
    3
 10
881.45156
 20
2327.5672
 11
881.40032
 21
2326.912
  0
LINE
  8
1-2
  6
CONTINUOUS
 62
    3
 10
881.40032
 20
2326.912
 11
881.45156
 21
2326.2569
  0
LINE
  8
1-2
  6
CONTINUOUS
 62
    3
 10
881.45156
 20
2326.2569
 11
881.60375
 21
2325.6217
  0
LINE
  8
1-2
  6
CONTINUOUS
 62
    3
 10
881.60375
 20
2325.6217
 11
881.85225
 21
2325.0256
  0
LINE
  8
1-2
  6
CONTINUOUS
 62
    3
 10
881.85225
 20
2325.0256
 11
882.18951
 21
2324.4869
  0
LINE
  8
1-2
  6
CONTINUOUS
 62
    3
 10
882.18951
 20
2324.4869
 11
882.60529
 21
2324.0219
  0
LINE
  8
1-2
  6
CONTINUOUS
 62
    3
 10
882.60529
 20
2324.0219
 11
883.08695
 21
2323.6447
  0
LINE
  8
1-2
  6
CONTINUOUS
 62
    3
 10
883.08695
 20
2323.6447
 11
883.61986
 21
2323.3668
  0
LINE
  8
1-2
  6
CONTINUOUS
 62
    3
 10
883.61986
 20
2323.3668
 11
884.18782
 21
2323.1965
  0
LINE
  8
1-2
  6
CONTINUOUS
 62
    3
 10
884.18782
 20
2323.1965
 11
884.77358
 21
2323.1392
  0
LINE
  8
1-2
  6
CONTINUOUS
 62
    3
 10
884.77358
 20
2323.1392
 11
885.35934
 21
2323.1965
  0
LINE
  8
1-2
  6
CONTINUOUS
 62
    3
 10
885.35934
 20
2323.1965
 11
885.92731
 21
2323.3668
  0
LINE
  8
1-2
  6
CONTINUOUS
 62
    3
 10
885.92731
 20
2323.3668
 11
886.46022
 21
2323.6447
  0
LINE
  8
1-2
  6
CONTINUOUS
 62
    3
 10
886.46022
 20
2323.6447
 11
886.94188
 21
2324.0219
  0
LINE
  8
1-2
  6
CONTINUOUS
 62
    3
 10
886.94188
 20
2324.0219
 11
887.35765
 21
2324.4869
  0
LINE
  8
1-2
  6
CONTINUOUS
 62
    3
 10
887.35765
 20
2324.4869
 11
887.69492
 21
2325.0256
  0
LINE
  8
1-2
  6
CONTINUOUS
 62
    3
 10
887.69492
 20
2325.0256
 11
887.94342
 21
2325.6217
  0
LINE
  8
1-2
  6
CONTINUOUS
 62
    3
 10
887.94342
 20
2325.6217
 11
888.0956
 21
2326.2569
  0
LINE
  8
1-2
  6
CONTINUOUS
 62
    3
 10
888.0956
 20
2326.2569
 11
888.14685
 21
2326.912
  0
LINE
  8
1-2
  6
CONTINUOUS
 62
    3
 10
888.14685
 20
2371.9822
 11
888.0956
 21
2372.6374
  0
LINE
  8
1-2
  6
CONTINUOUS
 62
    3
 10
888.0956
 20
2372.6374
 11
887.94342
 21
2373.2726
  0
LINE
  8
1-2
  6
CONTINUOUS
 62
    3
 10
887.94342
 20
2373.2726
 11
887.69492
 21
2373.8686
  0
LINE
  8
1-2
  6
CONTINUOUS
 62
    3
 10
887.69492
 20
2373.8686
 11
887.35765
 21
2374.4073
  0
LINE
  8
1-2
  6
CONTINUOUS
 62
    3
 10
887.35765
 20
2374.4073
 11
886.94188
 21
2374.8723
  0
LINE
  8
1-2
  6
CONTINUOUS
 62
    3
 10
886.94188
 20
2374.8723
 11
886.46022
 21
2375.2496
  0
LINE
  8
1-2
  6
CONTINUOUS
 62
    3
 10
886.46022
 20
2375.2496
 11
885.92731
 21
2375.5275
  0
LINE
  8
1-2
  6
CONTINUOUS
 62
    3
 10
885.92731
 20
2375.5275
 11
885.35934
 21
2375.6977
  0
LINE
  8
1-2
  6
CONTINUOUS
 62
    3
 10
885.35934
 20
2375.6977
 11
884.77358
 21
2375.755
  0
LINE
  8
1-2
  6
CONTINUOUS
 62
    3
 10
884.77358
 20
2375.755
 11
884.18782
 21
2375.6977
  0
LINE
  8
1-2
  6
CONTINUOUS
 62
    3
 10
884.18782
 20
2375.6977
 11
883.61986
 21
2375.5275
  0
LINE
  8
1-2
  6
CONTINUOUS
 62
    3
 10
883.61986
 20
2375.5275
 11
883.08695
 21
2375.2496
  0
LINE
  8
1-2
  6
CONTINUOUS
 62
    3
 10
883.08695
 20
2375.2496
 11
882.60529
 21
2374.8723
  0
LINE
  8
1-2
  6
CONTINUOUS
 62
    3
 10
882.60529
 20
2374.8723
 11
882.18951
 21
2374.4073
  0
LINE
  8
1-2
  6
CONTINUOUS
 62
    3
 10
882.18951
 20
2374.4073
 11
881.85225
 21
2373.8686
  0
LINE
  8
1-2
  6
CONTINUOUS
 62
    3
 10
881.85225
 20
2373.8686
 11
881.60375
 21
2373.2726
  0
LINE
  8
1-2
  6
CONTINUOUS
 62
    3
 10
881.60375
 20
2373.2726
 11
881.45156
 21
2372.6374
  0
LINE
  8
1-2
  6
CONTINUOUS
 62
    3
 10
881.45156
 20
2372.6374
 11
881.40032
 21
2371.9822
  0
LINE
  8
1-2
  6
CONTINUOUS
 62
    3
 10
881.40032
 20
2371.9822
 11
881.45156
 21
2371.3271
  0
LINE
  8
1-2
  6
CONTINUOUS
 62
    3
 10
881.45156
 20
2371.3271
 11
881.60375
 21
2370.6918
  0
LINE
  8
1-2
  6
CONTINUOUS
 62
    3
 10
881.60375
 20
2370.6918
 11
881.85225
 21
2370.0958
  0
LINE
  8
1-2
  6
CONTINUOUS
 62
    3
 10
881.85225
 20
2370.0958
 11
882.18951
 21
2369.5571
  0
LINE
  8
1-2
  6
CONTINUOUS
 62
    3
 10
882.18951
 20
2369.5571
 11
882.60529
 21
2369.0921
  0
LINE
  8
1-2
  6
CONTINUOUS
 62
    3
 10
882.60529
 20
2369.0921
 11
883.08695
 21
2368.7149
  0
LINE
  8
1-2
  6
CONTINUOUS
 62
    3
 10
883.08695
 20
2368.7149
 11
883.61986
 21
2368.4369
  0
LINE
  8
1-2
  6
CONTINUOUS
 62
    3
 10
883.61986
 20
2368.4369
 11
884.18782
 21
2368.2667
  0
LINE
  8
1-2
  6
CONTINUOUS
 62
    3
 10
884.18782
 20
2368.2667
 11
884.77358
 21
2368.2094
  0
LINE
  8
1-2
  6
CONTINUOUS
 62
    3
 10
884.77358
 20
2368.2094
 11
885.35934
 21
2368.2667
  0
LINE
  8
1-2
  6
CONTINUOUS
 62
    3
 10
885.35934
 20
2368.2667
 11
885.92731
 21
2368.4369
  0
LINE
  8
1-2
  6
CONTINUOUS
 62
    3
 10
885.92731
 20
2368.4369
 11
886.46022
 21
2368.7149
  0
LINE
  8
1-2
  6
CONTINUOUS
 62
    3
 10
886.46022
 20
2368.7149
 11
886.94188
 21
2369.0921
  0
LINE
  8
1-2
  6
CONTINUOUS
 62
    3
 10
886.94188
 20
2369.0921
 11
887.35765
 21
2369.5571
  0
LINE
  8
1-2
  6
CONTINUOUS
 62
    3
 10
887.35765
 20
2369.5571
 11
887.69492
 21
2370.0958
  0
LINE
  8
1-2
  6
CONTINUOUS
 62
    3
 10
887.69492
 20
2370.0958
 11
887.94342
 21
2370.6918
  0
LINE
  8
1-2
  6
CONTINUOUS
 62
    3
 10
887.94342
 20
2370.6918
 11
888.0956
 21
2371.3271
  0
LINE
  8
1-2
  6
CONTINUOUS
 62
    3
 10
888.0956
 20
2371.3271
 11
888.14685
 21
2371.9822
  0
LINE
  8
1-2
  6
CONTINUOUS
 62
    3
 10
888.14685
 20
2114.1252
 11
888.0956
 21
2114.7803
  0
LINE
  8
1-2
  6
CONTINUOUS
 62
    3
 10
888.0956
 20
2114.7803
 11
887.94342
 21
2115.4155
  0
LINE
  8
1-2
  6
CONTINUOUS
 62
    3
 10
887.94342
 20
2115.4155
 11
887.69492
 21
2116.0116
  0
LINE
  8
1-2
  6
CONTINUOUS
 62
    3
 10
887.69492
 20
2116.0116
 11
887.35765
 21
2116.5503
  0
LINE
  8
1-2
  6
CONTINUOUS
 62
    3
 10
887.35765
 20
2116.5503
 11
886.94188
 21
2117.0153
  0
LINE
  8
1-2
  6
CONTINUOUS
 62
    3
 10
886.94188
 20
2117.0153
 11
886.46022
 21
2117.3925
  0
LINE
  8
1-2
  6
CONTINUOUS
 62
    3
 10
886.46022
 20
2117.3925
 11
885.92731
 21
2117.6704
  0
LINE
  8
1-2
  6
CONTINUOUS
 62
    3
 10
885.92731
 20
2117.6704
 11
885.35934
 21
2117.8406
  0
LINE
  8
1-2
  6
CONTINUOUS
 62
    3
 10
885.35934
 20
2117.8406
 11
884.77358
 21
2117.898
  0
LINE
  8
1-2
  6
CONTINUOUS
 62
    3
 10
884.77358
 20
2117.898
 11
884.18782
 21
2117.8406
  0
LINE
  8
1-2
  6
CONTINUOUS
 62
    3
 10
884.18782
 20
2117.8406
 11
883.61986
 21
2117.6704
  0
LINE
  8
1-2
  6
CONTINUOUS
 62
    3
 10
883.61986
 20
2117.6704
 11
883.08695
 21
2117.3925
  0
LINE
  8
1-2
  6
CONTINUOUS
 62
    3
 10
883.08695
 20
2117.3925
 11
882.60529
 21
2117.0153
  0
LINE
  8
1-2
  6
CONTINUOUS
 62
    3
 10
882.60529
 20
2117.0153
 11
882.18951
 21
2116.5503
  0
LINE
  8
1-2
  6
CONTINUOUS
 62
    3
 10
882.18951
 20
2116.5503
 11
881.85225
 21
2116.0116
  0
LINE
  8
1-2
  6
CONTINUOUS
 62
    3
 10
881.85225
 20
2116.0116
 11
881.60375
 21
2115.4155
  0
LINE
  8
1-2
  6
CONTINUOUS
 62
    3
 10
881.60375
 20
2115.4155
 11
881.45156
 21
2114.7803
  0
LINE
  8
1-2
  6
CONTINUOUS
 62
    3
 10
881.45156
 20
2114.7803
 11
881.40032
 21
2114.1252
  0
LINE
  8
1-2
  6
CONTINUOUS
 62
    3
 10
881.40032
 20
2114.1252
 11
881.45156
 21
2113.47
  0
LINE
  8
1-2
  6
CONTINUOUS
 62
    3
 10
881.45156
 20
2113.47
 11
881.60375
 21
2112.8348
  0
LINE
  8
1-2
  6
CONTINUOUS
 62
    3
 10
881.60375
 20
2112.8348
 11
881.85225
 21
2112.2388
  0
LINE
  8
1-2
  6
CONTINUOUS
 62
    3
 10
881.85225
 20
2112.2388
 11
882.18951
 21
2111.7
  0
LINE
  8
1-2
  6
CONTINUOUS
 62
    3
 10
882.18951
 20
2111.7
 11
882.60529
 21
2111.235
  0
LINE
  8
1-2
  6
CONTINUOUS
 62
    3
 10
882.60529
 20
2111.235
 11
883.08695
 21
2110.8578
  0
LINE
  8
1-2
  6
CONTINUOUS
 62
    3
 10
883.08695
 20
2110.8578
 11
883.61986
 21
2110.5799
  0
LINE
  8
1-2
  6
CONTINUOUS
 62
    3
 10
883.61986
 20
2110.5799
 11
884.18782
 21
2110.4097
  0
LINE
  8
1-2
  6
CONTINUOUS
 62
    3
 10
884.18782
 20
2110.4097
 11
884.77358
 21
2110.3524
  0
LINE
  8
1-2
  6
CONTINUOUS
 62
    3
 10
884.77358
 20
2110.3524
 11
885.35934
 21
2110.4097
  0
LINE
  8
1-2
  6
CONTINUOUS
 62
    3
 10
885.35934
 20
2110.4097
 11
885.92731
 21
2110.5799
  0
LINE
  8
1-2
  6
CONTINUOUS
 62
    3
 10
885.92731
 20
2110.5799
 11
886.46022
 21
2110.8578
  0
LINE
  8
1-2
  6
CONTINUOUS
 62
    3
 10
886.46022
 20
2110.8578
 11
886.94188
 21
2111.235
  0
LINE
  8
1-2
  6
CONTINUOUS
 62
    3
 10
886.94188
 20
2111.235
 11
887.35765
 21
2111.7
  0
LINE
  8
1-2
  6
CONTINUOUS
 62
    3
 10
887.35765
 20
2111.7
 11
887.69492
 21
2112.2388
  0
LINE
  8
1-2
  6
CONTINUOUS
 62
    3
 10
887.69492
 20
2112.2388
 11
887.94342
 21
2112.8348
  0
LINE
  8
1-2
  6
CONTINUOUS
 62
    3
 10
887.94342
 20
2112.8348
 11
888.0956
 21
2113.47
  0
LINE
  8
1-2
  6
CONTINUOUS
 62
    3
 10
888.0956
 20
2113.47
 11
888.14685
 21
2114.1252
  0
LINE
  8
1-2
  6
CONTINUOUS
 62
    3
 10
888.14685
 20
2069.0545
 11
888.0956
 21
2069.7096
  0
LINE
  8
1-2
  6
CONTINUOUS
 62
    3
 10
888.0956
 20
2069.7096
 11
887.94342
 21
2070.3449
  0
LINE
  8
1-2
  6
CONTINUOUS
 62
    3
 10
887.94342
 20
2070.3449
 11
887.69492
 21
2070.9409
  0
LINE
  8
1-2
  6
CONTINUOUS
 62
    3
 10
887.69492
 20
2070.9409
 11
887.35765
 21
2071.4796
  0
LINE
  8
1-2
  6
CONTINUOUS
 62
    3
 10
887.35765
 20
2071.4796
 11
886.94188
 21
2071.9446
  0
LINE
  8
1-2
  6
CONTINUOUS
 62
    3
 10
886.94188
 20
2071.9446
 11
886.46022
 21
2072.3218
  0
LINE
  8
1-2
  6
CONTINUOUS
 62
    3
 10
886.46022
 20
2072.3218
 11
885.92731
 21
2072.5998
  0
LINE
  8
1-2
  6
CONTINUOUS
 62
    3
 10
885.92731
 20
2072.5998
 11
885.35934
 21
2072.77
  0
LINE
  8
1-2
  6
CONTINUOUS
 62
    3
 10
885.35934
 20
2072.77
 11
884.77358
 21
2072.8273
  0
LINE
  8
1-2
  6
CONTINUOUS
 62
    3
 10
884.77358
 20
2072.8273
 11
884.18782
 21
2072.77
  0
LINE
  8
1-2
  6
CONTINUOUS
 62
    3
 10
884.18782
 20
2072.77
 11
883.61986
 21
2072.5998
  0
LINE
  8
1-2
  6
CONTINUOUS
 62
    3
 10
883.61986
 20
2072.5998
 11
883.08695
 21
2072.3218
  0
LINE
  8
1-2
  6
CONTINUOUS
 62
    3
 10
883.08695
 20
2072.3218
 11
882.60529
 21
2071.9446
  0
LINE
  8
1-2
  6
CONTINUOUS
 62
    3
 10
882.60529
 20
2071.9446
 11
882.18951
 21
2071.4796
  0
LINE
  8
1-2
  6
CONTINUOUS
 62
    3
 10
882.18951
 20
2071.4796
 11
881.85225
 21
2070.9409
  0
LINE
  8
1-2
  6
CONTINUOUS
 62
    3
 10
881.85225
 20
2070.9409
 11
881.60375
 21
2070.3449
  0
LINE
  8
1-2
  6
CONTINUOUS
 62
    3
 10
881.60375
 20
2070.3449
 11
881.45156
 21
2069.7096
  0
LINE
  8
1-2
  6
CONTINUOUS
 62
    3
 10
881.45156
 20
2069.7096
 11
881.40032
 21
2069.0545
  0
LINE
  8
1-2
  6
CONTINUOUS
 62
    3
 10
881.40032
 20
2069.0545
 11
881.45156
 21
2068.3993
  0
LINE
  8
1-2
  6
CONTINUOUS
 62
    3
 10
881.45156
 20
2068.3993
 11
881.60375
 21
2067.7641
  0
LINE
  8
1-2
  6
CONTINUOUS
 62
    3
 10
881.60375
 20
2067.7641
 11
881.85225
 21
2067.1681
  0
LINE
  8
1-2
  6
CONTINUOUS
 62
    3
 10
881.85225
 20
2067.1681
 11
882.18951
 21
2066.6294
  0
LINE
  8
1-2
  6
CONTINUOUS
 62
    3
 10
882.18951
 20
2066.6294
 11
882.60529
 21
2066.1644
  0
LINE
  8
1-2
  6
CONTINUOUS
 62
    3
 10
882.60529
 20
2066.1644
 11
883.08695
 21
2065.7871
  0
LINE
  8
1-2
  6
CONTINUOUS
 62
    3
 10
883.08695
 20
2065.7871
 11
883.61986
 21
2065.5092
  0
LINE
  8
1-2
  6
CONTINUOUS
 62
    3
 10
883.61986
 20
2065.5092
 11
884.18782
 21
2065.339
  0
LINE
  8
1-2
  6
CONTINUOUS
 62
    3
 10
884.18782
 20
2065.339
 11
884.77358
 21
2065.2817
  0
LINE
  8
1-2
  6
CONTINUOUS
 62
    3
 10
884.77358
 20
2065.2817
 11
885.35934
 21
2065.339
  0
LINE
  8
1-2
  6
CONTINUOUS
 62
    3
 10
885.35934
 20
2065.339
 11
885.92731
 21
2065.5092
  0
LINE
  8
1-2
  6
CONTINUOUS
 62
    3
 10
885.92731
 20
2065.5092
 11
886.46022
 21
2065.7871
  0
LINE
  8
1-2
  6
CONTINUOUS
 62
    3
 10
886.46022
 20
2065.7871
 11
886.94188
 21
2066.1644
  0
LINE
  8
1-2
  6
CONTINUOUS
 62
    3
 10
886.94188
 20
2066.1644
 11
887.35765
 21
2066.6294
  0
LINE
  8
1-2
  6
CONTINUOUS
 62
    3
 10
887.35765
 20
2066.6294
 11
887.69492
 21
2067.1681
  0
LINE
  8
1-2
  6
CONTINUOUS
 62
    3
 10
887.69492
 20
2067.1681
 11
887.94342
 21
2067.7641
  0
LINE
  8
1-2
  6
CONTINUOUS
 62
    3
 10
887.94342
 20
2067.7641
 11
888.0956
 21
2068.3993
  0
LINE
  8
1-2
  6
CONTINUOUS
 62
    3
 10
888.0956
 20
2068.3993
 11
888.14685
 21
2069.0545
  0
LINE
  8
1-2
  6
CONTINUOUS
 62
    3
 10
1221.8535
 20
2326.912
 11
1221.9047
 21
2326.2569
  0
LINE
  8
1-2
  6
CONTINUOUS
 62
    3
 10
1221.9047
 20
2326.2569
 11
1222.0569
 21
2325.6217
  0
LINE
  8
1-2
  6
CONTINUOUS
 62
    3
 10
1222.0569
 20
2325.6217
 11
1222.3054
 21
2325.0256
  0
LINE
  8
1-2
  6
CONTINUOUS
 62
    3
 10
1222.3054
 20
2325.0256
 11
1222.6427
 21
2324.4869
  0
LINE
  8
1-2
  6
CONTINUOUS
 62
    3
 10
1222.6427
 20
2324.4869
 11
1223.0585
 21
2324.0219
  0
LINE
  8
1-2
  6
CONTINUOUS
 62
    3
 10
1223.0585
 20
2324.0219
 11
1223.5401
 21
2323.6447
  0
LINE
  8
1-2
  6
CONTINUOUS
 62
    3
 10
1223.5401
 20
2323.6447
 11
1224.073
 21
2323.3668
  0
LINE
  8
1-2
  6
CONTINUOUS
 62
    3
 10
1224.073
 20
2323.3668
 11
1224.641
 21
2323.1965
  0
LINE
  8
1-2
  6
CONTINUOUS
 62
    3
 10
1224.641
 20
2323.1965
 11
1225.2267
 21
2323.1392
  0
LINE
  8
1-2
  6
CONTINUOUS
 62
    3
 10
1225.2267
 20
2323.1392
 11
1225.8125
 21
2323.1965
  0
LINE
  8
1-2
  6
CONTINUOUS
 62
    3
 10
1225.8125
 20
2323.1965
 11
1226.3805
 21
2323.3668
  0
LINE
  8
1-2
  6
CONTINUOUS
 62
    3
 10
1226.3805
 20
2323.3668
 11
1226.9134
 21
2323.6447
  0
LINE
  8
1-2
  6
CONTINUOUS
 62
    3
 10
1226.9134
 20
2323.6447
 11
1227.395
 21
2324.0219
  0
LINE
  8
1-2
  6
CONTINUOUS
 62
    3
 10
1227.395
 20
2324.0219
 11
1227.8108
 21
2324.4869
  0
LINE
  8
1-2
  6
CONTINUOUS
 62
    3
 10
1227.8108
 20
2324.4869
 11
1228.1481
 21
2325.0256
  0
LINE
  8
1-2
  6
CONTINUOUS
 62
    3
 10
1228.1481
 20
2325.0256
 11
1228.3966
 21
2325.6217
  0
LINE
  8
1-2
  6
CONTINUOUS
 62
    3
 10
1228.3966
 20
2325.6217
 11
1228.5488
 21
2326.2569
  0
LINE
  8
1-2
  6
CONTINUOUS
 62
    3
 10
1228.5488
 20
2326.2569
 11
1228.6
 21
2326.912
  0
LINE
  8
1-2
  6
CONTINUOUS
 62
    3
 10
1228.6
 20
2326.912
 11
1228.5488
 21
2327.5672
  0
LINE
  8
1-2
  6
CONTINUOUS
 62
    3
 10
1228.5488
 20
2327.5672
 11
1228.3966
 21
2328.2024
  0
LINE
  8
1-2
  6
CONTINUOUS
 62
    3
 10
1228.3966
 20
2328.2024
 11
1228.1481
 21
2328.7984
  0
LINE
  8
1-2
  6
CONTINUOUS
 62
    3
 10
1228.1481
 20
2328.7984
 11
1227.8108
 21
2329.3371
  0
LINE
  8
1-2
  6
CONTINUOUS
 62
    3
 10
1227.8108
 20
2329.3371
 11
1227.395
 21
2329.8022
  0
LINE
  8
1-2
  6
CONTINUOUS
 62
    3
 10
1227.395
 20
2329.8022
 11
1226.9134
 21
2330.1794
  0
LINE
  8
1-2
  6
CONTINUOUS
 62
    3
 10
1226.9134
 20
2330.1794
 11
1226.3805
 21
2330.4573
  0
LINE
  8
1-2
  6
CONTINUOUS
 62
    3
 10
1226.3805
 20
2330.4573
 11
1225.8125
 21
2330.6275
  0
LINE
  8
1-2
  6
CONTINUOUS
 62
    3
 10
1225.8125
 20
2330.6275
 11
1225.2267
 21
2330.6848
  0
LINE
  8
1-2
  6
CONTINUOUS
 62
    3
 10
1225.2267
 20
2330.6848
 11
1224.641
 21
2330.6275
  0
LINE
  8
1-2
  6
CONTINUOUS
 62
    3
 10
1224.641
 20
2330.6275
 11
1224.073
 21
2330.4573
  0
LINE
  8
1-2
  6
CONTINUOUS
 62
    3
 10
1224.073
 20
2330.4573
 11
1223.5401
 21
2330.1794
  0
LINE
  8
1-2
  6
CONTINUOUS
 62
    3
 10
1223.5401
 20
2330.1794
 11
1223.0585
 21
2329.8022
  0
LINE
  8
1-2
  6
CONTINUOUS
 62
    3
 10
1223.0585
 20
2329.8022
 11
1222.6427
 21
2329.3371
  0
LINE
  8
1-2
  6
CONTINUOUS
 62
    3
 10
1222.6427
 20
2329.3371
 11
1222.3054
 21
2328.7984
  0
LINE
  8
1-2
  6
CONTINUOUS
 62
    3
 10
1222.3054
 20
2328.7984
 11
1222.0569
 21
2328.2024
  0
LINE
  8
1-2
  6
CONTINUOUS
 62
    3
 10
1222.0569
 20
2328.2024
 11
1221.9047
 21
2327.5672
  0
LINE
  8
1-2
  6
CONTINUOUS
 62
    3
 10
1221.9047
 20
2327.5672
 11
1221.8535
 21
2326.912
  0
LINE
  8
1-2
  6
CONTINUOUS
 62
    3
 10
1221.8535
 20
2371.9822
 11
1221.9047
 21
2371.3271
  0
LINE
  8
1-2
  6
CONTINUOUS
 62
    3
 10
1221.9047
 20
2371.3271
 11
1222.0569
 21
2370.6918
  0
LINE
  8
1-2
  6
CONTINUOUS
 62
    3
 10
1222.0569
 20
2370.6918
 11
1222.3054
 21
2370.0958
  0
LINE
  8
1-2
  6
CONTINUOUS
 62
    3
 10
1222.3054
 20
2370.0958
 11
1222.6427
 21
2369.5571
  0
LINE
  8
1-2
  6
CONTINUOUS
 62
    3
 10
1222.6427
 20
2369.5571
 11
1223.0585
 21
2369.0921
  0
LINE
  8
1-2
  6
CONTINUOUS
 62
    3
 10
1223.0585
 20
2369.0921
 11
1223.5401
 21
2368.7149
  0
LINE
  8
1-2
  6
CONTINUOUS
 62
    3
 10
1223.5401
 20
2368.7149
 11
1224.073
 21
2368.4369
  0
LINE
  8
1-2
  6
CONTINUOUS
 62
    3
 10
1224.073
 20
2368.4369
 11
1224.641
 21
2368.2667
  0
LINE
  8
1-2
  6
CONTINUOUS
 62
    3
 10
1224.641
 20
2368.2667
 11
1225.2267
 21
2368.2094
  0
LINE
  8
1-2
  6
CONTINUOUS
 62
    3
 10
1225.2267
 20
2368.2094
 11
1225.8125
 21
2368.2667
  0
LINE
  8
1-2
  6
CONTINUOUS
 62
    3
 10
1225.8125
 20
2368.2667
 11
1226.3805
 21
2368.4369
  0
LINE
  8
1-2
  6
CONTINUOUS
 62
    3
 10
1226.3805
 20
2368.4369
 11
1226.9134
 21
2368.7149
  0
LINE
  8
1-2
  6
CONTINUOUS
 62
    3
 10
1226.9134
 20
2368.7149
 11
1227.395
 21
2369.0921
  0
LINE
  8
1-2
  6
CONTINUOUS
 62
    3
 10
1227.395
 20
2369.0921
 11
1227.8108
 21
2369.5571
  0
LINE
  8
1-2
  6
CONTINUOUS
 62
    3
 10
1227.8108
 20
2369.5571
 11
1228.1481
 21
2370.0958
  0
LINE
  8
1-2
  6
CONTINUOUS
 62
    3
 10
1228.1481
 20
2370.0958
 11
1228.3966
 21
2370.6918
  0
LINE
  8
1-2
  6
CONTINUOUS
 62
    3
 10
1228.3966
 20
2370.6918
 11
1228.5488
 21
2371.3271
  0
LINE
  8
1-2
  6
CONTINUOUS
 62
    3
 10
1228.5488
 20
2371.3271
 11
1228.6
 21
2371.9822
  0
LINE
  8
1-2
  6
CONTINUOUS
 62
    3
 10
1228.6
 20
2371.9822
 11
1228.5488
 21
2372.6374
  0
LINE
  8
1-2
  6
CONTINUOUS
 62
    3
 10
1228.5488
 20
2372.6374
 11
1228.3966
 21
2373.2726
  0
LINE
  8
1-2
  6
CONTINUOUS
 62
    3
 10
1228.3966
 20
2373.2726
 11
1228.1481
 21
2373.8686
  0
LINE
  8
1-2
  6
CONTINUOUS
 62
    3
 10
1228.1481
 20
2373.8686
 11
1227.8108
 21
2374.4073
  0
LINE
  8
1-2
  6
CONTINUOUS
 62
    3
 10
1227.8108
 20
2374.4073
 11
1227.395
 21
2374.8723
  0
LINE
  8
1-2
  6
CONTINUOUS
 62
    3
 10
1227.395
 20
2374.8723
 11
1226.9134
 21
2375.2496
  0
LINE
  8
1-2
  6
CONTINUOUS
 62
    3
 10
1226.9134
 20
2375.2496
 11
1226.3805
 21
2375.5275
  0
LINE
  8
1-2
  6
CONTINUOUS
 62
    3
 10
1226.3805
 20
2375.5275
 11
1225.8125
 21
2375.6977
  0
LINE
  8
1-2
  6
CONTINUOUS
 62
    3
 10
1225.8125
 20
2375.6977
 11
1225.2267
 21
2375.755
  0
LINE
  8
1-2
  6
CONTINUOUS
 62
    3
 10
1225.2267
 20
2375.755
 11
1224.641
 21
2375.6977
  0
LINE
  8
1-2
  6
CONTINUOUS
 62
    3
 10
1224.641
 20
2375.6977
 11
1224.073
 21
2375.5275
  0
LINE
  8
1-2
  6
CONTINUOUS
 62
    3
 10
1224.073
 20
2375.5275
 11
1223.5401
 21
2375.2496
  0
LINE
  8
1-2
  6
CONTINUOUS
 62
    3
 10
1223.5401
 20
2375.2496
 11
1223.0585
 21
2374.8723
  0
LINE
  8
1-2
  6
CONTINUOUS
 62
    3
 10
1223.0585
 20
2374.8723
 11
1222.6427
 21
2374.4073
  0
LINE
  8
1-2
  6
CONTINUOUS
 62
    3
 10
1222.6427
 20
2374.4073
 11
1222.3054
 21
2373.8686
  0
LINE
  8
1-2
  6
CONTINUOUS
 62
    3
 10
1222.3054
 20
2373.8686
 11
1222.0569
 21
2373.2726
  0
LINE
  8
1-2
  6
CONTINUOUS
 62
    3
 10
1222.0569
 20
2373.2726
 11
1221.9047
 21
2372.6374
  0
LINE
  8
1-2
  6
CONTINUOUS
 62
    3
 10
1221.9047
 20
2372.6374
 11
1221.8535
 21
2371.9822
  0
LINE
  8
1-2
  6
CONTINUOUS
 62
    3
 10
1221.8535
 20
2114.1252
 11
1221.9047
 21
2113.47
  0
LINE
  8
1-2
  6
CONTINUOUS
 62
    3
 10
1221.9047
 20
2113.47
 11
1222.0569
 21
2112.8348
  0
LINE
  8
1-2
  6
CONTINUOUS
 62
    3
 10
1222.0569
 20
2112.8348
 11
1222.3054
 21
2112.2388
  0
LINE
  8
1-2
  6
CONTINUOUS
 62
    3
 10
1222.3054
 20
2112.2388
 11
1222.6427
 21
2111.7
  0
LINE
  8
1-2
  6
CONTINUOUS
 62
    3
 10
1222.6427
 20
2111.7
 11
1223.0585
 21
2111.235
  0
LINE
  8
1-2
  6
CONTINUOUS
 62
    3
 10
1223.0585
 20
2111.235
 11
1223.5401
 21
2110.8578
  0
LINE
  8
1-2
  6
CONTINUOUS
 62
    3
 10
1223.5401
 20
2110.8578
 11
1224.073
 21
2110.5799
  0
LINE
  8
1-2
  6
CONTINUOUS
 62
    3
 10
1224.073
 20
2110.5799
 11
1224.641
 21
2110.4097
  0
LINE
  8
1-2
  6
CONTINUOUS
 62
    3
 10
1224.641
 20
2110.4097
 11
1225.2267
 21
2110.3524
  0
LINE
  8
1-2
  6
CONTINUOUS
 62
    3
 10
1225.2267
 20
2110.3524
 11
1225.8125
 21
2110.4097
  0
LINE
  8
1-2
  6
CONTINUOUS
 62
    3
 10
1225.8125
 20
2110.4097
 11
1226.3805
 21
2110.5799
  0
LINE
  8
1-2
  6
CONTINUOUS
 62
    3
 10
1226.3805
 20
2110.5799
 11
1226.9134
 21
2110.8578
  0
LINE
  8
1-2
  6
CONTINUOUS
 62
    3
 10
1226.9134
 20
2110.8578
 11
1227.395
 21
2111.235
  0
LINE
  8
1-2
  6
CONTINUOUS
 62
    3
 10
1227.395
 20
2111.235
 11
1227.8108
 21
2111.7
  0
LINE
  8
1-2
  6
CONTINUOUS
 62
    3
 10
1227.8108
 20
2111.7
 11
1228.1481
 21
2112.2388
  0
LINE
  8
1-2
  6
CONTINUOUS
 62
    3
 10
1228.1481
 20
2112.2388
 11
1228.3966
 21
2112.8348
  0
LINE
  8
1-2
  6
CONTINUOUS
 62
    3
 10
1228.3966
 20
2112.8348
 11
1228.5488
 21
2113.47
  0
LINE
  8
1-2
  6
CONTINUOUS
 62
    3
 10
1228.5488
 20
2113.47
 11
1228.6
 21
2114.1252
  0
LINE
  8
1-2
  6
CONTINUOUS
 62
    3
 10
1228.6
 20
2114.1252
 11
1228.5488
 21
2114.7803
  0
LINE
  8
1-2
  6
CONTINUOUS
 62
    3
 10
1228.5488
 20
2114.7803
 11
1228.3966
 21
2115.4155
  0
LINE
  8
1-2
  6
CONTINUOUS
 62
    3
 10
1228.3966
 20
2115.4155
 11
1228.1481
 21
2116.0116
  0
LINE
  8
1-2
  6
CONTINUOUS
 62
    3
 10
1228.1481
 20
2116.0116
 11
1227.8108
 21
2116.5503
  0
LINE
  8
1-2
  6
CONTINUOUS
 62
    3
 10
1227.8108
 20
2116.5503
 11
1227.395
 21
2117.0153
  0
LINE
  8
1-2
  6
CONTINUOUS
 62
    3
 10
1227.395
 20
2117.0153
 11
1226.9134
 21
2117.3925
  0
LINE
  8
1-2
  6
CONTINUOUS
 62
    3
 10
1226.9134
 20
2117.3925
 11
1226.3805
 21
2117.6704
  0
LINE
  8
1-2
  6
CONTINUOUS
 62
    3
 10
1226.3805
 20
2117.6704
 11
1225.8125
 21
2117.8406
  0
LINE
  8
1-2
  6
CONTINUOUS
 62
    3
 10
1225.8125
 20
2117.8406
 11
1225.2267
 21
2117.898
  0
LINE
  8
1-2
  6
CONTINUOUS
 62
    3
 10
1225.2267
 20
2117.898
 11
1224.641
 21
2117.8406
  0
LINE
  8
1-2
  6
CONTINUOUS
 62
    3
 10
1224.641
 20
2117.8406
 11
1224.073
 21
2117.6704
  0
LINE
  8
1-2
  6
CONTINUOUS
 62
    3
 10
1224.073
 20
2117.6704
 11
1223.5401
 21
2117.3925
  0
LINE
  8
1-2
  6
CONTINUOUS
 62
    3
 10
1223.5401
 20
2117.3925
 11
1223.0585
 21
2117.0153
  0
LINE
  8
1-2
  6
CONTINUOUS
 62
    3
 10
1223.0585
 20
2117.0153
 11
1222.6427
 21
2116.5503
  0
LINE
  8
1-2
  6
CONTINUOUS
 62
    3
 10
1222.6427
 20
2116.5503
 11
1222.3054
 21
2116.0116
  0
LINE
  8
1-2
  6
CONTINUOUS
 62
    3
 10
1222.3054
 20
2116.0116
 11
1222.0569
 21
2115.4155
  0
LINE
  8
1-2
  6
CONTINUOUS
 62
    3
 10
1222.0569
 20
2115.4155
 11
1221.9047
 21
2114.7803
  0
LINE
  8
1-2
  6
CONTINUOUS
 62
    3
 10
1221.9047
 20
2114.7803
 11
1221.8535
 21
2114.1252
  0
LINE
  8
1-2
  6
CONTINUOUS
 62
    3
 10
1221.8535
 20
2069.0545
 11
1221.9047
 21
2068.3993
  0
LINE
  8
1-2
  6
CONTINUOUS
 62
    3
 10
1221.9047
 20
2068.3993
 11
1222.0569
 21
2067.7641
  0
LINE
  8
1-2
  6
CONTINUOUS
 62
    3
 10
1222.0569
 20
2067.7641
 11
1222.3054
 21
2067.1681
  0
LINE
  8
1-2
  6
CONTINUOUS
 62
    3
 10
1222.3054
 20
2067.1681
 11
1222.6427
 21
2066.6294
  0
LINE
  8
1-2
  6
CONTINUOUS
 62
    3
 10
1222.6427
 20
2066.6294
 11
1223.0585
 21
2066.1644
  0
LINE
  8
1-2
  6
CONTINUOUS
 62
    3
 10
1223.0585
 20
2066.1644
 11
1223.5401
 21
2065.7871
  0
LINE
  8
1-2
  6
CONTINUOUS
 62
    3
 10
1223.5401
 20
2065.7871
 11
1224.073
 21
2065.5092
  0
LINE
  8
1-2
  6
CONTINUOUS
 62
    3
 10
1224.073
 20
2065.5092
 11
1224.641
 21
2065.339
  0
LINE
  8
1-2
  6
CONTINUOUS
 62
    3
 10
1224.641
 20
2065.339
 11
1225.2267
 21
2065.2817
  0
LINE
  8
1-2
  6
CONTINUOUS
 62
    3
 10
1225.2267
 20
2065.2817
 11
1225.8125
 21
2065.339
  0
LINE
  8
1-2
  6
CONTINUOUS
 62
    3
 10
1225.8125
 20
2065.339
 11
1226.3805
 21
2065.5092
  0
LINE
  8
1-2
  6
CONTINUOUS
 62
    3
 10
1226.3805
 20
2065.5092
 11
1226.9134
 21
2065.7871
  0
LINE
  8
1-2
  6
CONTINUOUS
 62
    3
 10
1226.9134
 20
2065.7871
 11
1227.395
 21
2066.1644
  0
LINE
  8
1-2
  6
CONTINUOUS
 62
    3
 10
1227.395
 20
2066.1644
 11
1227.8108
 21
2066.6294
  0
LINE
  8
1-2
  6
CONTINUOUS
 62
    3
 10
1227.8108
 20
2066.6294
 11
1228.1481
 21
2067.1681
  0
LINE
  8
1-2
  6
CONTINUOUS
 62
    3
 10
1228.1481
 20
2067.1681
 11
1228.3966
 21
2067.7641
  0
LINE
  8
1-2
  6
CONTINUOUS
 62
    3
 10
1228.3966
 20
2067.7641
 11
1228.5488
 21
2068.3993
  0
LINE
  8
1-2
  6
CONTINUOUS
 62
    3
 10
1228.5488
 20
2068.3993
 11
1228.6
 21
2069.0545
  0
LINE
  8
1-2
  6
CONTINUOUS
 62
    3
 10
1228.6
 20
2069.0545
 11
1228.5488
 21
2069.7096
  0
LINE
  8
1-2
  6
CONTINUOUS
 62
    3
 10
1228.5488
 20
2069.7096
 11
1228.3966
 21
2070.3449
  0
LINE
  8
1-2
  6
CONTINUOUS
 62
    3
 10
1228.3966
 20
2070.3449
 11
1228.1481
 21
2070.9409
  0
LINE
  8
1-2
  6
CONTINUOUS
 62
    3
 10
1228.1481
 20
2070.9409
 11
1227.8108
 21
2071.4796
  0
LINE
  8
1-2
  6
CONTINUOUS
 62
    3
 10
1227.8108
 20
2071.4796
 11
1227.395
 21
2071.9446
  0
LINE
  8
1-2
  6
CONTINUOUS
 62
    3
 10
1227.395
 20
2071.9446
 11
1226.9134
 21
2072.3218
  0
LINE
  8
1-2
  6
CONTINUOUS
 62
    3
 10
1226.9134
 20
2072.3218
 11
1226.3805
 21
2072.5998
  0
LINE
  8
1-2
  6
CONTINUOUS
 62
    3
 10
1226.3805
 20
2072.5998
 11
1225.8125
 21
2072.77
  0
LINE
  8
1-2
  6
CONTINUOUS
 62
    3
 10
1225.8125
 20
2072.77
 11
1225.2267
 21
2072.8273
  0
LINE
  8
1-2
  6
CONTINUOUS
 62
    3
 10
1225.2267
 20
2072.8273
 11
1224.641
 21
2072.77
  0
LINE
  8
1-2
  6
CONTINUOUS
 62
    3
 10
1224.641
 20
2072.77
 11
1224.073
 21
2072.5998
  0
LINE
  8
1-2
  6
CONTINUOUS
 62
    3
 10
1224.073
 20
2072.5998
 11
1223.5401
 21
2072.3218
  0
LINE
  8
1-2
  6
CONTINUOUS
 62
    3
 10
1223.5401
 20
2072.3218
 11
1223.0585
 21
2071.9446
  0
LINE
  8
1-2
  6
CONTINUOUS
 62
    3
 10
1223.0585
 20
2071.9446
 11
1222.6427
 21
2071.4796
  0
LINE
  8
1-2
  6
CONTINUOUS
 62
    3
 10
1222.6427
 20
2071.4796
 11
1222.3054
 21
2070.9409
  0
LINE
  8
1-2
  6
CONTINUOUS
 62
    3
 10
1222.3054
 20
2070.9409
 11
1222.0569
 21
2070.3449
  0
LINE
  8
1-2
  6
CONTINUOUS
 62
    3
 10
1222.0569
 20
2070.3449
 11
1221.9047
 21
2069.7096
  0
LINE
  8
1-2
  6
CONTINUOUS
 62
    3
 10
1221.9047
 20
2069.7096
 11
1221.8535
 21
2069.0545
  0
LINE
  8
1-2
  6
CONTINUOUS
 62
    3
 10
1043.4677
 20
1981.574
 11
1043.1731
 21
1982.6709
  0
LINE
  8
1-2
  6
CONTINUOUS
 62
    3
 10
1043.1731
 20
1982.6709
 11
1042.7128
 21
1983.6939
  0
LINE
  8
1-2
  6
CONTINUOUS
 62
    3
 10
1042.7128
 20
1983.6939
 11
1042.1006
 21
1984.612
  0
LINE
  8
1-2
  6
CONTINUOUS
 62
    3
 10
1042.1006
 20
1984.612
 11
1041.3551
 21
1985.3972
  0
LINE
  8
1-2
  6
CONTINUOUS
 62
    3
 10
1041.3551
 20
1985.3972
 11
1040.4991
 21
1986.0258
  0
LINE
  8
1-2
  6
CONTINUOUS
 62
    3
 10
1040.4991
 20
1986.0258
 11
1039.5585
 21
1986.4785
  0
LINE
  8
1-2
  6
CONTINUOUS
 62
    3
 10
1039.5585
 20
1986.4785
 11
1038.5619
 21
1986.7416
  0
LINE
  8
1-2
  6
CONTINUOUS
 62
    3
 10
1038.5619
 20
1986.7416
 11
1037.5395
 21
1986.8072
  0
LINE
  8
1-2
  6
CONTINUOUS
 62
    3
 10
1037.5395
 20
1986.8072
 11
1036.5226
 21
1986.6733
  0
LINE
  8
1-2
  6
CONTINUOUS
 62
    3
 10
1036.5226
 20
1986.6733
 11
1035.5418
 21
1986.3439
  0
LINE
  8
1-2
  6
CONTINUOUS
 62
    3
 10
1035.5418
 20
1986.3439
 11
1034.6271
 21
1985.829
  0
LINE
  8
1-2
  6
CONTINUOUS
 62
    3
 10
1034.6271
 20
1985.829
 11
1033.8063
 21
1985.1443
  0
LINE
  8
1-2
  6
CONTINUOUS
 62
    3
 10
1033.8063
 20
1985.1443
 11
1033.1042
 21
1984.3105
  0
LINE
  8
1-2
  6
CONTINUOUS
 62
    3
 10
1033.1042
 20
1984.3105
 11
1032.5422
 21
1983.3531
  0
LINE
  8
1-2
  6
CONTINUOUS
 62
    3
 10
1032.5422
 20
1983.3531
 11
1032.1375
 21
1982.3011
  0
LINE
  8
1-2
  6
CONTINUOUS
 62
    3
 10
1032.1375
 20
1982.3011
 11
1031.9633
 21
1981.574
  0
LINE
  8
1-2
  6
CONTINUOUS
 62
    3
 10
1078.037
 20
1981.574
 11
1077.7425
 21
1982.6709
  0
LINE
  8
1-2
  6
CONTINUOUS
 62
    3
 10
1077.7425
 20
1982.6709
 11
1077.2821
 21
1983.6939
  0
LINE
  8
1-2
  6
CONTINUOUS
 62
    3
 10
1077.2821
 20
1983.6939
 11
1076.6699
 21
1984.612
  0
LINE
  8
1-2
  6
CONTINUOUS
 62
    3
 10
1076.6699
 20
1984.612
 11
1075.9244
 21
1985.3972
  0
LINE
  8
1-2
  6
CONTINUOUS
 62
    3
 10
1075.9244
 20
1985.3972
 11
1075.0684
 21
1986.0258
  0
LINE
  8
1-2
  6
CONTINUOUS
 62
    3
 10
1075.0684
 20
1986.0258
 11
1074.1278
 21
1986.4785
  0
LINE
  8
1-2
  6
CONTINUOUS
 62
    3
 10
1074.1278
 20
1986.4785
 11
1073.1312
 21
1986.7416
  0
LINE
  8
1-2
  6
CONTINUOUS
 62
    3
 10
1073.1312
 20
1986.7416
 11
1072.1089
 21
1986.8072
  0
LINE
  8
1-2
  6
CONTINUOUS
 62
    3
 10
1072.1089
 20
1986.8072
 11
1071.0919
 21
1986.6733
  0
LINE
  8
1-2
  6
CONTINUOUS
 62
    3
 10
1071.0919
 20
1986.6733
 11
1070.1111
 21
1986.3439
  0
LINE
  8
1-2
  6
CONTINUOUS
 62
    3
 10
1070.1111
 20
1986.3439
 11
1069.1965
 21
1985.829
  0
LINE
  8
1-2
  6
CONTINUOUS
 62
    3
 10
1069.1965
 20
1985.829
 11
1068.3756
 21
1985.1443
  0
LINE
  8
1-2
  6
CONTINUOUS
 62
    3
 10
1068.3756
 20
1985.1443
 11
1067.6735
 21
1984.3105
  0
LINE
  8
1-2
  6
CONTINUOUS
 62
    3
 10
1067.6735
 20
1984.3105
 11
1067.1116
 21
1983.3531
  0
LINE
  8
1-2
  6
CONTINUOUS
 62
    3
 10
1067.1116
 20
1983.3531
 11
1066.7068
 21
1982.3011
  0
LINE
  8
1-2
  6
CONTINUOUS
 62
    3
 10
1066.7068
 20
1982.3011
 11
1066.5326
 21
1981.574
  0
LINE
  8
1-2
  6
CONTINUOUS
 62
    3
 10
931.27462
 20
1970.5011
 11
931.22337
 21
1971.1562
  0
LINE
  8
1-2
  6
CONTINUOUS
 62
    3
 10
931.22337
 20
1971.1562
 11
931.07119
 21
1971.7914
  0
LINE
  8
1-2
  6
CONTINUOUS
 62
    3
 10
931.07119
 20
1971.7914
 11
930.82269
 21
1972.3875
  0
LINE
  8
1-2
  6
CONTINUOUS
 62
    3
 10
930.82269
 20
1972.3875
 11
930.48543
 21
1972.9262
  0
LINE
  8
1-2
  6
CONTINUOUS
 62
    3
 10
930.48543
 20
1972.9262
 11
930.06965
 21
1973.3912
  0
LINE
  8
1-2
  6
CONTINUOUS
 62
    3
 10
930.06965
 20
1973.3912
 11
929.58799
 21
1973.7684
  0
LINE
  8
1-2
  6
CONTINUOUS
 62
    3
 10
929.58799
 20
1973.7684
 11
929.05508
 21
1974.0463
  0
LINE
  8
1-2
  6
CONTINUOUS
 62
    3
 10
929.05508
 20
1974.0463
 11
928.48712
 21
1974.2165
  0
LINE
  8
1-2
  6
CONTINUOUS
 62
    3
 10
928.48712
 20
1974.2165
 11
927.90136
 21
1974.2739
  0
LINE
  8
1-2
  6
CONTINUOUS
 62
    3
 10
927.90136
 20
1974.2739
 11
927.3156
 21
1974.2165
  0
LINE
  8
1-2
  6
CONTINUOUS
 62
    3
 10
927.3156
 20
1974.2165
 11
926.74763
 21
1974.0463
  0
LINE
  8
1-2
  6
CONTINUOUS
 62
    3
 10
926.74763
 20
1974.0463
 11
926.21472
 21
1973.7684
  0
LINE
  8
1-2
  6
CONTINUOUS
 62
    3
 10
926.21472
 20
1973.7684
 11
925.73306
 21
1973.3912
  0
LINE
  8
1-2
  6
CONTINUOUS
 62
    3
 10
925.73306
 20
1973.3912
 11
925.31729
 21
1972.9262
  0
LINE
  8
1-2
  6
CONTINUOUS
 62
    3
 10
925.31729
 20
1972.9262
 11
924.98002
 21
1972.3875
  0
LINE
  8
1-2
  6
CONTINUOUS
 62
    3
 10
924.98002
 20
1972.3875
 11
924.73152
 21
1971.7914
  0
LINE
  8
1-2
  6
CONTINUOUS
 62
    3
 10
924.73152
 20
1971.7914
 11
924.57934
 21
1971.1562
  0
LINE
  8
1-2
  6
CONTINUOUS
 62
    3
 10
924.57934
 20
1971.1562
 11
924.52809
 21
1970.5011
  0
LINE
  8
1-2
  6
CONTINUOUS
 62
    3
 10
924.52809
 20
1970.5011
 11
924.57934
 21
1969.8459
  0
LINE
  8
1-2
  6
CONTINUOUS
 62
    3
 10
924.57934
 20
1969.8459
 11
924.73152
 21
1969.2107
  0
LINE
  8
1-2
  6
CONTINUOUS
 62
    3
 10
924.73152
 20
1969.2107
 11
924.98002
 21
1968.6147
  0
LINE
  8
1-2
  6
CONTINUOUS
 62
    3
 10
924.98002
 20
1968.6147
 11
925.31729
 21
1968.0759
  0
LINE
  8
1-2
  6
CONTINUOUS
 62
    3
 10
925.31729
 20
1968.0759
 11
925.73306
 21
1967.6109
  0
LINE
  8
1-2
  6
CONTINUOUS
 62
    3
 10
925.73306
 20
1967.6109
 11
926.21472
 21
1967.2337
  0
LINE
  8
1-2
  6
CONTINUOUS
 62
    3
 10
926.21472
 20
1967.2337
 11
926.74763
 21
1966.9558
  0
LINE
  8
1-2
  6
CONTINUOUS
 62
    3
 10
926.74763
 20
1966.9558
 11
927.3156
 21
1966.7856
  0
LINE
  8
1-2
  6
CONTINUOUS
 62
    3
 10
927.3156
 20
1966.7856
 11
927.90136
 21
1966.7283
  0
LINE
  8
1-2
  6
CONTINUOUS
 62
    3
 10
927.90136
 20
1966.7283
 11
928.48712
 21
1966.7856
  0
LINE
  8
1-2
  6
CONTINUOUS
 62
    3
 10
928.48712
 20
1966.7856
 11
929.05508
 21
1966.9558
  0
LINE
  8
1-2
  6
CONTINUOUS
 62
    3
 10
929.05508
 20
1966.9558
 11
929.58799
 21
1967.2337
  0
LINE
  8
1-2
  6
CONTINUOUS
 62
    3
 10
929.58799
 20
1967.2337
 11
930.06965
 21
1967.6109
  0
LINE
  8
1-2
  6
CONTINUOUS
 62
    3
 10
930.06965
 20
1967.6109
 11
930.48543
 21
1968.0759
  0
LINE
  8
1-2
  6
CONTINUOUS
 62
    3
 10
930.48543
 20
1968.0759
 11
930.82269
 21
1968.6147
  0
LINE
  8
1-2
  6
CONTINUOUS
 62
    3
 10
930.82269
 20
1968.6147
 11
931.07119
 21
1969.2107
  0
LINE
  8
1-2
  6
CONTINUOUS
 62
    3
 10
931.07119
 20
1969.2107
 11
931.22337
 21
1969.8459
  0
LINE
  8
1-2
  6
CONTINUOUS
 62
    3
 10
931.22337
 20
1969.8459
 11
931.27462
 21
1970.5011
  0
LINE
  8
1-2
  6
CONTINUOUS
 62
    3
 10
931.27462
 20
1928.0511
 11
931.22337
 21
1928.7063
  0
LINE
  8
1-2
  6
CONTINUOUS
 62
    3
 10
931.22337
 20
1928.7063
 11
931.07119
 21
1929.3415
  0
LINE
  8
1-2
  6
CONTINUOUS
 62
    3
 10
931.07119
 20
1929.3415
 11
930.82269
 21
1929.9375
  0
LINE
  8
1-2
  6
CONTINUOUS
 62
    3
 10
930.82269
 20
1929.9375
 11
930.48543
 21
1930.4763
  0
LINE
  8
1-2
  6
CONTINUOUS
 62
    3
 10
930.48543
 20
1930.4763
 11
930.06965
 21
1930.9413
  0
LINE
  8
1-2
  6
CONTINUOUS
 62
    3
 10
930.06965
 20
1930.9413
 11
929.58799
 21
1931.3185
  0
LINE
  8
1-2
  6
CONTINUOUS
 62
    3
 10
929.58799
 20
1931.3185
 11
929.05508
 21
1931.5964
  0
LINE
  8
1-2
  6
CONTINUOUS
 62
    3
 10
929.05508
 20
1931.5964
 11
928.48712
 21
1931.7666
  0
LINE
  8
1-2
  6
CONTINUOUS
 62
    3
 10
928.48712
 20
1931.7666
 11
927.90136
 21
1931.824
  0
LINE
  8
1-2
  6
CONTINUOUS
 62
    3
 10
927.90136
 20
1931.824
 11
927.3156
 21
1931.7666
  0
LINE
  8
1-2
  6
CONTINUOUS
 62
    3
 10
927.3156
 20
1931.7666
 11
926.74763
 21
1931.5964
  0
LINE
  8
1-2
  6
CONTINUOUS
 62
    3
 10
926.74763
 20
1931.5964
 11
926.21472
 21
1931.3185
  0
LINE
  8
1-2
  6
CONTINUOUS
 62
    3
 10
926.21472
 20
1931.3185
 11
925.73306
 21
1930.9413
  0
LINE
  8
1-2
  6
CONTINUOUS
 62
    3
 10
925.73306
 20
1930.9413
 11
925.31729
 21
1930.4763
  0
LINE
  8
1-2
  6
CONTINUOUS
 62
    3
 10
925.31729
 20
1930.4763
 11
924.98002
 21
1929.9375
  0
LINE
  8
1-2
  6
CONTINUOUS
 62
    3
 10
924.98002
 20
1929.9375
 11
924.73152
 21
1929.3415
  0
LINE
  8
1-2
  6
CONTINUOUS
 62
    3
 10
924.73152
 20
1929.3415
 11
924.57934
 21
1928.7063
  0
LINE
  8
1-2
  6
CONTINUOUS
 62
    3
 10
924.57934
 20
1928.7063
 11
924.52809
 21
1928.0511
  0
LINE
  8
1-2
  6
CONTINUOUS
 62
    3
 10
924.52809
 20
1928.0511
 11
924.57934
 21
1927.396
  0
LINE
  8
1-2
  6
CONTINUOUS
 62
    3
 10
924.57934
 20
1927.396
 11
924.73152
 21
1926.7608
  0
LINE
  8
1-2
  6
CONTINUOUS
 62
    3
 10
924.73152
 20
1926.7608
 11
924.98002
 21
1926.1647
  0
LINE
  8
1-2
  6
CONTINUOUS
 62
    3
 10
924.98002
 20
1926.1647
 11
925.31729
 21
1925.626
  0
LINE
  8
1-2
  6
CONTINUOUS
 62
    3
 10
925.31729
 20
1925.626
 11
925.73306
 21
1925.161
  0
LINE
  8
1-2
  6
CONTINUOUS
 62
    3
 10
925.73306
 20
1925.161
 11
926.21472
 21
1924.7838
  0
LINE
  8
1-2
  6
CONTINUOUS
 62
    3
 10
926.21472
 20
1924.7838
 11
926.74763
 21
1924.5059
  0
LINE
  8
1-2
  6
CONTINUOUS
 62
    3
 10
926.74763
 20
1924.5059
 11
927.3156
 21
1924.3357
  0
LINE
  8
1-2
  6
CONTINUOUS
 62
    3
 10
927.3156
 20
1924.3357
 11
927.90136
 21
1924.2783
  0
LINE
  8
1-2
  6
CONTINUOUS
 62
    3
 10
927.90136
 20
1924.2783
 11
928.48712
 21
1924.3357
  0
LINE
  8
1-2
  6
CONTINUOUS
 62
    3
 10
928.48712
 20
1924.3357
 11
929.05508
 21
1924.5059
  0
LINE
  8
1-2
  6
CONTINUOUS
 62
    3
 10
929.05508
 20
1924.5059
 11
929.58799
 21
1924.7838
  0
LINE
  8
1-2
  6
CONTINUOUS
 62
    3
 10
929.58799
 20
1924.7838
 11
930.06965
 21
1925.161
  0
LINE
  8
1-2
  6
CONTINUOUS
 62
    3
 10
930.06965
 20
1925.161
 11
930.48543
 21
1925.626
  0
LINE
  8
1-2
  6
CONTINUOUS
 62
    3
 10
930.48543
 20
1925.626
 11
930.82269
 21
1926.1647
  0
LINE
  8
1-2
  6
CONTINUOUS
 62
    3
 10
930.82269
 20
1926.1647
 11
931.07119
 21
1926.7608
  0
LINE
  8
1-2
  6
CONTINUOUS
 62
    3
 10
931.07119
 20
1926.7608
 11
931.22337
 21
1927.396
  0
LINE
  8
1-2
  6
CONTINUOUS
 62
    3
 10
931.22337
 20
1927.396
 11
931.27462
 21
1928.0511
  0
LINE
  8
1-2
  6
CONTINUOUS
 62
    3
 10
1178.7257
 20
1970.5011
 11
1178.777
 21
1969.8459
  0
LINE
  8
1-2
  6
CONTINUOUS
 62
    3
 10
1178.777
 20
1969.8459
 11
1178.9291
 21
1969.2107
  0
LINE
  8
1-2
  6
CONTINUOUS
 62
    3
 10
1178.9291
 20
1969.2107
 11
1179.1776
 21
1968.6147
  0
LINE
  8
1-2
  6
CONTINUOUS
 62
    3
 10
1179.1776
 20
1968.6147
 11
1179.5149
 21
1968.0759
  0
LINE
  8
1-2
  6
CONTINUOUS
 62
    3
 10
1179.5149
 20
1968.0759
 11
1179.9307
 21
1967.6109
  0
LINE
  8
1-2
  6
CONTINUOUS
 62
    3
 10
1179.9307
 20
1967.6109
 11
1180.4123
 21
1967.2337
  0
LINE
  8
1-2
  6
CONTINUOUS
 62
    3
 10
1180.4123
 20
1967.2337
 11
1180.9453
 21
1966.9558
  0
LINE
  8
1-2
  6
CONTINUOUS
 62
    3
 10
1180.9453
 20
1966.9558
 11
1181.5132
 21
1966.7856
  0
LINE
  8
1-2
  6
CONTINUOUS
 62
    3
 10
1181.5132
 20
1966.7856
 11
1182.099
 21
1966.7283
  0
LINE
  8
1-2
  6
CONTINUOUS
 62
    3
 10
1182.099
 20
1966.7283
 11
1182.6847
 21
1966.7856
  0
LINE
  8
1-2
  6
CONTINUOUS
 62
    3
 10
1182.6847
 20
1966.7856
 11
1183.2527
 21
1966.9558
  0
LINE
  8
1-2
  6
CONTINUOUS
 62
    3
 10
1183.2527
 20
1966.9558
 11
1183.7856
 21
1967.2337
  0
LINE
  8
1-2
  6
CONTINUOUS
 62
    3
 10
1183.7856
 20
1967.2337
 11
1184.2673
 21
1967.6109
  0
LINE
  8
1-2
  6
CONTINUOUS
 62
    3
 10
1184.2673
 20
1967.6109
 11
1184.683
 21
1968.0759
  0
LINE
  8
1-2
  6
CONTINUOUS
 62
    3
 10
1184.683
 20
1968.0759
 11
1185.0203
 21
1968.6147
  0
LINE
  8
1-2
  6
CONTINUOUS
 62
    3
 10
1185.0203
 20
1968.6147
 11
1185.2688
 21
1969.2107
  0
LINE
  8
1-2
  6
CONTINUOUS
 62
    3
 10
1185.2688
 20
1969.2107
 11
1185.421
 21
1969.8459
  0
LINE
  8
1-2
  6
CONTINUOUS
 62
    3
 10
1185.421
 20
1969.8459
 11
1185.4722
 21
1970.5011
  0
LINE
  8
1-2
  6
CONTINUOUS
 62
    3
 10
1185.4722
 20
1970.5011
 11
1185.421
 21
1971.1562
  0
LINE
  8
1-2
  6
CONTINUOUS
 62
    3
 10
1185.421
 20
1971.1562
 11
1185.2688
 21
1971.7914
  0
LINE
  8
1-2
  6
CONTINUOUS
 62
    3
 10
1185.2688
 20
1971.7914
 11
1185.0203
 21
1972.3875
  0
LINE
  8
1-2
  6
CONTINUOUS
 62
    3
 10
1185.0203
 20
1972.3875
 11
1184.683
 21
1972.9262
  0
LINE
  8
1-2
  6
CONTINUOUS
 62
    3
 10
1184.683
 20
1972.9262
 11
1184.2673
 21
1973.3912
  0
LINE
  8
1-2
  6
CONTINUOUS
 62
    3
 10
1184.2673
 20
1973.3912
 11
1183.7856
 21
1973.7684
  0
LINE
  8
1-2
  6
CONTINUOUS
 62
    3
 10
1183.7856
 20
1973.7684
 11
1183.2527
 21
1974.0463
  0
LINE
  8
1-2
  6
CONTINUOUS
 62
    3
 10
1183.2527
 20
1974.0463
 11
1182.6847
 21
1974.2165
  0
LINE
  8
1-2
  6
CONTINUOUS
 62
    3
 10
1182.6847
 20
1974.2165
 11
1182.099
 21
1974.2739
  0
LINE
  8
1-2
  6
CONTINUOUS
 62
    3
 10
1182.099
 20
1974.2739
 11
1181.5132
 21
1974.2165
  0
LINE
  8
1-2
  6
CONTINUOUS
 62
    3
 10
1181.5132
 20
1974.2165
 11
1180.9453
 21
1974.0463
  0
LINE
  8
1-2
  6
CONTINUOUS
 62
    3
 10
1180.9453
 20
1974.0463
 11
1180.4123
 21
1973.7684
  0
LINE
  8
1-2
  6
CONTINUOUS
 62
    3
 10
1180.4123
 20
1973.7684
 11
1179.9307
 21
1973.3912
  0
LINE
  8
1-2
  6
CONTINUOUS
 62
    3
 10
1179.9307
 20
1973.3912
 11
1179.5149
 21
1972.9262
  0
LINE
  8
1-2
  6
CONTINUOUS
 62
    3
 10
1179.5149
 20
1972.9262
 11
1179.1776
 21
1972.3875
  0
LINE
  8
1-2
  6
CONTINUOUS
 62
    3
 10
1179.1776
 20
1972.3875
 11
1178.9291
 21
1971.7914
  0
LINE
  8
1-2
  6
CONTINUOUS
 62
    3
 10
1178.9291
 20
1971.7914
 11
1178.777
 21
1971.1562
  0
LINE
  8
1-2
  6
CONTINUOUS
 62
    3
 10
1178.777
 20
1971.1562
 11
1178.7257
 21
1970.5011
  0
LINE
  8
1-2
  6
CONTINUOUS
 62
    3
 10
1178.7257
 20
1928.0511
 11
1178.777
 21
1927.396
  0
LINE
  8
1-2
  6
CONTINUOUS
 62
    3
 10
1178.777
 20
1927.396
 11
1178.9291
 21
1926.7608
  0
LINE
  8
1-2
  6
CONTINUOUS
 62
    3
 10
1178.9291
 20
1926.7608
 11
1179.1776
 21
1926.1647
  0
LINE
  8
1-2
  6
CONTINUOUS
 62
    3
 10
1179.1776
 20
1926.1647
 11
1179.5149
 21
1925.626
  0
LINE
  8
1-2
  6
CONTINUOUS
 62
    3
 10
1179.5149
 20
1925.626
 11
1179.9307
 21
1925.161
  0
LINE
  8
1-2
  6
CONTINUOUS
 62
    3
 10
1179.9307
 20
1925.161
 11
1180.4123
 21
1924.7838
  0
LINE
  8
1-2
  6
CONTINUOUS
 62
    3
 10
1180.4123
 20
1924.7838
 11
1180.9453
 21
1924.5059
  0
LINE
  8
1-2
  6
CONTINUOUS
 62
    3
 10
1180.9453
 20
1924.5059
 11
1181.5132
 21
1924.3357
  0
LINE
  8
1-2
  6
CONTINUOUS
 62
    3
 10
1181.5132
 20
1924.3357
 11
1182.099
 21
1924.2783
  0
LINE
  8
1-2
  6
CONTINUOUS
 62
    3
 10
1182.099
 20
1924.2783
 11
1182.6847
 21
1924.3357
  0
LINE
  8
1-2
  6
CONTINUOUS
 62
    3
 10
1182.6847
 20
1924.3357
 11
1183.2527
 21
1924.5059
  0
LINE
  8
1-2
  6
CONTINUOUS
 62
    3
 10
1183.2527
 20
1924.5059
 11
1183.7856
 21
1924.7838
  0
LINE
  8
1-2
  6
CONTINUOUS
 62
    3
 10
1183.7856
 20
1924.7838
 11
1184.2673
 21
1925.161
  0
LINE
  8
1-2
  6
CONTINUOUS
 62
    3
 10
1184.2673
 20
1925.161
 11
1184.683
 21
1925.626
  0
LINE
  8
1-2
  6
CONTINUOUS
 62
    3
 10
1184.683
 20
1925.626
 11
1185.0203
 21
1926.1647
  0
LINE
  8
1-2
  6
CONTINUOUS
 62
    3
 10
1185.0203
 20
1926.1647
 11
1185.2688
 21
1926.7608
  0
LINE
  8
1-2
  6
CONTINUOUS
 62
    3
 10
1185.2688
 20
1926.7608
 11
1185.421
 21
1927.396
  0
LINE
  8
1-2
  6
CONTINUOUS
 62
    3
 10
1185.421
 20
1927.396
 11
1185.4722
 21
1928.0511
  0
LINE
  8
1-2
  6
CONTINUOUS
 62
    3
 10
1185.4722
 20
1928.0511
 11
1185.421
 21
1928.7063
  0
LINE
  8
1-2
  6
CONTINUOUS
 62
    3
 10
1185.421
 20
1928.7063
 11
1185.2688
 21
1929.3415
  0
LINE
  8
1-2
  6
CONTINUOUS
 62
    3
 10
1185.2688
 20
1929.3415
 11
1185.0203
 21
1929.9375
  0
LINE
  8
1-2
  6
CONTINUOUS
 62
    3
 10
1185.0203
 20
1929.9375
 11
1184.683
 21
1930.4763
  0
LINE
  8
1-2
  6
CONTINUOUS
 62
    3
 10
1184.683
 20
1930.4763
 11
1184.2673
 21
1930.9413
  0
LINE
  8
1-2
  6
CONTINUOUS
 62
    3
 10
1184.2673
 20
1930.9413
 11
1183.7856
 21
1931.3185
  0
LINE
  8
1-2
  6
CONTINUOUS
 62
    3
 10
1183.7856
 20
1931.3185
 11
1183.2527
 21
1931.5964
  0
LINE
  8
1-2
  6
CONTINUOUS
 62
    3
 10
1183.2527
 20
1931.5964
 11
1182.6847
 21
1931.7666
  0
LINE
  8
1-2
  6
CONTINUOUS
 62
    3
 10
1182.6847
 20
1931.7666
 11
1182.099
 21
1931.824
  0
LINE
  8
1-2
  6
CONTINUOUS
 62
    3
 10
1182.099
 20
1931.824
 11
1181.5132
 21
1931.7666
  0
LINE
  8
1-2
  6
CONTINUOUS
 62
    3
 10
1181.5132
 20
1931.7666
 11
1180.9453
 21
1931.5964
  0
LINE
  8
1-2
  6
CONTINUOUS
 62
    3
 10
1180.9453
 20
1931.5964
 11
1180.4123
 21
1931.3185
  0
LINE
  8
1-2
  6
CONTINUOUS
 62
    3
 10
1180.4123
 20
1931.3185
 11
1179.9307
 21
1930.9413
  0
LINE
  8
1-2
  6
CONTINUOUS
 62
    3
 10
1179.9307
 20
1930.9413
 11
1179.5149
 21
1930.4763
  0
LINE
  8
1-2
  6
CONTINUOUS
 62
    3
 10
1179.5149
 20
1930.4763
 11
1179.1776
 21
1929.9375
  0
LINE
  8
1-2
  6
CONTINUOUS
 62
    3
 10
1179.1776
 20
1929.9375
 11
1178.9291
 21
1929.3415
  0
LINE
  8
1-2
  6
CONTINUOUS
 62
    3
 10
1178.9291
 20
1929.3415
 11
1178.777
 21
1928.7063
  0
LINE
  8
1-2
  6
CONTINUOUS
 62
    3
 10
1178.777
 20
1928.7063
 11
1178.7257
 21
1928.0511
  0
ARC
  8
1-2
  6
CONTINUOUS
 62
    3
 10
883.33355
 20
1870.4502
 40
3.3333446
 50
90
 51
270
  0
ARC
  8
1-2
  6
CONTINUOUS
 62
    3
 10
883.33274
 20
1914.0875
 40
3.3333446
 50
90
 51
270
  0
ARC
  8
1-2
  6
CONTINUOUS
 62
    3
 10
1226.6668
 20
1870.4502
 40
3.3333446
 50
270
 51
90
  0
ARC
  8
1-2
  6
CONTINUOUS
 62
    3
 10
1226.6677
 20
1914.0875
 40
3.3333446
 50
270
 51
90
  0
ARC
  8
1-2
  6
CONTINUOUS
 62
    3
 10
1223.3335
 20
1603.6725
 40
5.1997606
 50
90
 51
270
  0
ARC
  8
1-2
  6
CONTINUOUS
 62
    3
 10
886.66668
 20
1603.6725
 40
5.1997606
 50
270
 51
90
  0
CIRCLE
  8
1-2
  6
CONTINUOUS
 62
    3
 10
1055.0001
 20
785.30846
 40
168.33335
  0
TEXT
  8
1-d
 10
259.99975
 20
167.50018
 40
25
 41
1
 50
0
  1
図
  0
TEXT
  8
1-d
 10
259.99975
 20
107.50023
 40
25
 41
1
 50
0
  1
番
  0
TEXT
  8
1-d
 10
660.0006
 20
167.50018
 40
25
 41
1
 50
0
  1
承
  0
TEXT
  8
1-d
 10
660.0006
 20
107.50023
 40
25
 41
1
 50
0
  1
認
  0
TEXT
  8
1-d
 10
1025.0003
 20
247.50021
 40
25
 41
1
 50
0
  1
尺
  0
TEXT
  8
1-d
 10
1025.0003
 20
207.50007
 40
25
 41
1
 50
0.0000762
  1
度
  0
TEXT
  8
1-d
 10
860.00028
 20
167.50018
 40
25
 41
1
 50
0
  1
製
  0
TEXT
  8
1-d
 10
860.00028
 20
107.50023
 40
25
 41
1
 50
0
  1
図
  0
TEXT
  8
1-d
 10
1560.0001
 20
247.50021
 40
25
 41
1
 50
0
  1
日
  0
TEXT
  8
1-d
 10
1560.0001
 20
207.50007
 40
25
 41
1
 50
0.0000762
  1
付
  0
TEXT
  8
1-d
 10
1116.4263
 20
173.48254
 40
20
 41
1
 50
0
  1
株式
  0
TEXT
  8
1-d
 10
1116.4263
 20
151.85209
 40
20
 41
1
 50
0.0000152
  1
会社
  0
TEXT
  8
1-d
 10
1179.2248
 20
153.2474
 40
40
 41
1
 50
0
  1
スズキベンチレーター
  0
TEXT
  8
1-d
 10
1242.9183
 20
104.02444
 40
20
 41
1
 50
0
  1
TEL(054)296-7000  FAX(054)296-7001
  0
TEXT
  8
1-2
 10
991.55383
 20
2655.8489
 40
30
 41
1
 50
0
  1
860φ
  0
TEXT
  8
1-2
 10
1016.5883
 20
1800.0537
 40
30
 41
1
 50
0
  1
515φ
  0
TEXT
  8
1-2
 10
653.57372
 20
2138.4225
 40
30
 41
1
 50
90
  1
1,030
  0
TEXT
  8
1-d
 10
724.8599
 20
1448.8373
 40
30
 41
1
 50
359.99952
  1
3
  0
TEXT
  8
1-d
 10
666.46527
 20
1420.2401
 40
30
 41
1
 50
0
  1
10
  0
TEXT
  8
1-8
 10
1020.8771
 20
1679.9661
 40
30
 41
1
 50
0
  1
505φ
  0
TEXT
  8
1-8
 10
1593.3995
 20
1584.3062
 40
30
 41
1
 50
90
  1
70
  0
TEXT
  8
1-8
 10
1593.3995
 20
1478.7065
 40
30
 41
1
 50
90
  1
240
  0
TEXT
  8
1-8
 10
1570.6747
 20
771.14179
 40
30
 41
1
 50
90
  1
600
  0
TEXT
  8
1-8
 10
1017.2088
 20
783.09066
 40
30
 41
1
 50
19.303787
  1
505φ
  0
TEXT
  8
1-8
 10
1570.6747
 20
487.80845
 40
30
 41
1
 50
90
  1
250
  0
TEXT
  8
1-8
 10
1570.6747
 20
1054.475
 40
30
 41
1
 50
90
  1
250
  0
TEXT
  8
1-d
 10
313.45925
 20
150.30237
 40
30
 41
1
 50
0
  1
50-C09
  0
TEXT
  8
1-d
 10
1089.349
 20
220.10095
 40
40
 41
1
 50
0
  1
１／１５
  0
TEXT
  8
1-8
 10
494.44185
 20
760.37605
 40
30
 41
1
 50
90
  1
≒ 1,100
  0
TEXT
  8
1-8
 10
1003.8313
 20
1341.1788
 40
30
 41
1
 50
0
  1
600x600
  0
TEXT
  8
1-d
 10
264.45945
 20
2794.1893
 40
50
 41
1
 50
0
  1
ＡＳ－５００　自然回転  直付型立面、直付袴立面・平面
  0
TEXT
  8
1-d
 10
683.92877
 20
207.67925
 40
30
 41
1
 50
0
  1
直付袴立面・平面
  0
TEXT
  8
1-8
 10
264.56901
 20
246.94413
 40
30
 41
1
 50
0
  1
ＡＳ－５００　自然回転  直付型立面、
  0
TEXT
  8
1-d
 10
1240.6792
 20
128.64619
 40
20
 41
1
 50
0
  1
〒421-2114　静岡市葵区安倍口新田１５２番地
  0
POINT
  8
1-2
 62
    2
 10
768.26672
 20
2645.86
  0
POINT
  8
1-2
 62
    2
 10
1341.7333
 20
2645.86
  0
POINT
  8
1-2
 62
    2
 10
658.63374
 20
1867.1169
  0
POINT
  8
1-2
 62
    2
 10
658.63374
 20
2553.7834
  0
POINT
  8
1-2
 62
    2
 10
658.63374
 20
1867.1174
  0
POINT
  8
1-2
 62
    2
 10
883.3341
 20
1791.1807
  0
POINT
  8
1-2
 62
    2
 10
1226.6673
 20
1791.1805
  0
POINT
  8
1-8
 62
    2
 10
1598.9997
 20
1412.6064
  0
POINT
  8
1-8
 62
    2
 10
1598.9997
 20
1572.6064
  0
POINT
  8
1-8
 62
    2
 10
1598.9997
 20
1619.2726
  0
POINT
  8
1-8
 62
    2
 10
855.00001
 20
1330.5175
  0
POINT
  8
1-8
 62
    2
 10
1255.0003
 20
1330.5175
  0
POINT
  8
1-8
 62
    2
 10
896.13058
 20
729.66122
  0
POINT
  8
1-8
 62
    2
 10
1213.8698
 20
840.95533
  0
POINT
  8
1-8
 62
    2
 10
886.66687
 20
1670.1893
  0
POINT
  8
1-8
 62
    2
 10
1223.3335
 20
1670.1893
  0
POINT
  8
1-8
 62
    2
 10
511.00062
 20
418.64147
  0
POINT
  8
1-8
 62
    2
 10
511.00062
 20
1151.9749
  0
POINT
  8
1-8
 62
    2
 10
1567.3414
 20
585.30853
  0
POINT
  8
1-8
 62
    2
 10
1567.3414
 20
985.30839
  0
POINT
  8
1-8
 62
    2
 10
1567.3414
 20
418.64147
  0
POINT
  8
1-8
 62
    2
 10
1567.3414
 20
1151.9749
  0
ENDSEC
  0
EOF
