  0
SECTION
  2
HEADER
  9
$EXTMIN
 10
0
 20
0
  9
$EXTMAX
 10
4200
 20
2970
  0
ENDSEC
  0
SECTION
  2
TABLES
  0
TABLE
  2
LTYPE
 70
     9
  0
LTYPE
  2
CONTINUOUS
 70
    64
  3
実線
 72
    65
 73
     0
 40
0.0
  0
LTYPE
  2
DASHED1
 70
    64
  3
--  --  --  --  --  --  --  --  
 72
    65
 73
     2
 40
2.5
 49
1.25
 49
-1.25
  0
LTYPE
  2
DASHED2
 70
    64
  3
----    ----    ----    ----    
 72
    65
 73
     2
 40
5.0
 49
2.5
 49
-2.5
  0
LTYPE
  2
DASHED3
 70
    64
  3
------  ------  ------  ------  
 72
    65
 73
     2
 40
5.0
 49
3.75
 49
-1.25
  0
LTYPE
  2
CENTER1
 70
    64
  3
----- - ----- - ----- - ----- - 
 72
    65
 73
     4
 40
10.0
 49
6.25
 49
-1.25
 49
1.25
 49
-1.25
  0
LTYPE
  2
CENTER2
 70
    64
  3
----------  --  ----------  --  
 72
    65
 73
     4
 40
20.0
 49
12.5
 49
-2.5
 49
2.5
 49
-2.5
  0
LTYPE
  2
PHANTOM1
 70
    64
  3
--- - - --- - - --- - - --- - - 
 72
    65
 73
     6
 40
10.0
 49
3.25
 49
-1.25
 49
1.25
 49
-1.25
 49
1.25
 49
-1.25
  0
LTYPE
  2
PHANTOM2
 70
    64
  3
--------  -  -  --------  -  -  
 72
    65
 73
     6
 40
20.0
 49
10.0
 49
-2.5
 49
1.25
 49
-2.5
 49
1.25
 49
-2.5
  0
LTYPE
  2
DOT
 70
    64
  3
-   -   -   -   -   -   -   -   
 72
    65
 73
     2
 40
2.5
 49
0.625
 49
-1.875
  0
ENDTAB
  0
TABLE
  2
STYLE
 70
    1
  0
STYLE
  2
STANDARD
 70
    64
 40
0.0
 41
1.0
 42
0.0
 50
0.0
 71
     0
  3
TXT
  4
BIGFONT
  0
ENDTAB
  0
TABLE
  2
LAYER
 70
    8
  0
LAYER
  2
0-1
 70
   64
 62
    7
  6
CONTINUOUS
  0
LAYER
  2
0-2
 70
   64
 62
    7
  6
CONTINUOUS
  0
LAYER
  2
0-3
 70
   64
 62
    7
  6
CONTINUOUS
  0
LAYER
  2
0-4
 70
   64
 62
    7
  6
CONTINUOUS
  0
LAYER
  2
0-5
 70
   64
 62
    7
  6
CONTINUOUS
  0
LAYER
  2
0-8
 70
   64
 62
    7
  6
CONTINUOUS
  0
LAYER
  2
0-d
 70
   64
 62
    7
  6
CONTINUOUS
  0
LAYER
  2
ADD_LINE
 70
   64
 62
    7
  6
CONTINUOUS
  0
ENDTAB
  0
ENDSEC
  0
SECTION
  2
ENTITIES
  0
LINE
  8
0-d
  6
CONTINUOUS
 62
    7
 10
250.00004
 20
2757.7013
 11
1850.0001
 21
2757.7013
  0
LINE
  8
0-d
  6
CONTINUOUS
 62
    7
 10
250.00004
 20
2767.7016
 11
1850.0001
 21
2767.7016
  0
LINE
  8
0-d
  6
CONTINUOUS
 62
    7
 10
249.99967
 20
189.99989
 11
1850.0003
 21
189.99989
  0
LINE
  8
0-d
  6
CONTINUOUS
 62
    7
 10
249.99967
 20
89.999806
 11
249.99967
 21
269.99991
  0
LINE
  8
0-d
  6
CONTINUOUS
 62
    7
 10
249.99967
 20
89.999806
 11
1850.0003
 21
89.999806
  0
LINE
  8
0-d
  6
CONTINUOUS
 62
    7
 10
1850.0003
 20
269.99991
 11
1850.0003
 21
89.999806
  0
LINE
  8
0-d
  6
CONTINUOUS
 62
    7
 10
249.99967
 20
269.99991
 11
1850.0003
 21
269.99991
  0
LINE
  8
0-d
  6
CONTINUOUS
 62
    7
 10
1050
 20
269.99991
 11
1050
 21
89.999806
  0
LINE
  8
0-d
  6
CONTINUOUS
 62
    7
 10
650.00019
 20
89.999806
 11
650.00019
 21
189.99989
  0
LINE
  8
0-d
  6
CONTINUOUS
 62
    7
 10
1050
 20
189.99989
 11
1050
 21
269.99991
  0
LINE
  8
0-d
  6
CONTINUOUS
 62
    7
 10
849.99975
 20
89.999806
 11
849.99975
 21
189.99989
  0
LINE
  8
0-d
  6
CONTINUOUS
 62
    7
 10
285.00002
 20
89.999806
 11
285.00002
 21
189.99989
  0
LINE
  8
0-d
  6
CONTINUOUS
 62
    7
 10
685.00006
 20
89.999806
 11
685.00006
 21
189.99989
  0
LINE
  8
0-d
  6
CONTINUOUS
 62
    7
 10
885.00011
 20
89.999806
 11
885.00011
 21
189.99989
  0
LINE
  8
0-d
  6
CONTINUOUS
 62
    7
 10
1015
 20
189.99989
 11
1015
 21
269.99991
  0
LINE
  8
0-d
  6
CONTINUOUS
 62
    7
 10
1550.0004
 20
189.99989
 11
1550.0004
 21
269.99991
  0
LINE
  8
0-d
  6
CONTINUOUS
 62
    7
 10
1585.0002
 20
189.99989
 11
1585.0002
 21
269.99991
  0
LINE
  8
0-2
  6
CONTINUOUS
 62
    3
 10
631.49343
 20
2338.7501
 11
1049.9999
 21
2432.9187
  0
LINE
  8
0-2
  6
CONTINUOUS
 62
    3
 10
1467.6304
 20
2338.9475
 11
1049.9999
 21
2432.9187
  0
LINE
  8
0-8
  6
CONTINUOUS
 62
    7
 10
459.60031
 20
1967.9187
 11
459.60031
 21
2432.9187
  0
LINE
  8
0-8
  6
CONTINUOUS
 62
    7
 10
598.28391
 20
1967.9187
 11
459.60031
 21
1967.9187
  0
LINE
  8
0-8
  6
CONTINUOUS
 62
    7
 10
649.99995
 20
2540.2641
 11
1450.0013
 21
2540.2641
  0
LINE
  8
0-8
  6
CONTINUOUS
 62
    7
 10
792.4998
 20
1882.3851
 11
1307.4999
 21
1882.3851
  0
LINE
  8
0-2
  6
CONTINUOUS
 62
    3
 10
649.99995
 20
2342.9187
 11
649.99995
 21
2207.265
  0
LINE
  8
0-2
  6
CONTINUOUS
 62
    3
 10
649.99995
 20
2191.2754
 11
649.99995
 21
2163.9081
  0
LINE
  8
0-2
  6
CONTINUOUS
 62
    3
 10
1449.9999
 20
2342.9187
 11
1450.0013
 21
2207.265
  0
LINE
  8
0-2
  6
CONTINUOUS
 62
    3
 10
792.4998
 20
2035.3735
 11
1307.5014
 21
2035.3735
  0
LINE
  8
0-2
  6
CONTINUOUS
 62
    3
 10
792.4998
 20
2051.3629
 11
1307.5014
 21
2051.3629
  0
LINE
  8
0-2
  6
CONTINUOUS
 62
    3
 10
792.4998
 20
1983.9085
 11
1307.5014
 21
1983.9085
  0
LINE
  8
0-2
  6
CONTINUOUS
 62
    3
 10
792.4998
 20
1967.9188
 11
1307.5014
 21
1967.9188
  0
LINE
  8
0-2
  6
CONTINUOUS
 62
    3
 10
792.4998
 20
2035.3735
 11
792.4998
 21
1983.9082
  0
LINE
  8
0-2
  6
CONTINUOUS
 62
    3
 10
1307.4999
 20
2035.3735
 11
1307.4999
 21
1983.9082
  0
LINE
  8
0-2
  6
CONTINUOUS
 62
    3
 10
792.4998
 20
2147.9188
 11
792.4998
 21
2051.3629
  0
LINE
  8
0-8
  6
CONTINUOUS
 62
    7
 10
649.99995
 20
2390.0466
 11
649.99995
 21
2540.2641
  0
LINE
  8
0-8
  6
CONTINUOUS
 62
    7
 10
730.28341
 20
2432.9187
 11
459.60031
 21
2432.9187
  0
LINE
  8
0-8
  6
CONTINUOUS
 62
    7
 10
1450.0013
 20
2390.0466
 11
1450.0013
 21
2540.2641
  0
LINE
  8
0-2
  6
CONTINUOUS
 62
    3
 10
1307.4999
 20
2035.3735
 11
1307.4999
 21
1983.9082
  0
LINE
  8
0-2
  6
CONTINUOUS
 62
    3
 10
1449.9999
 20
2191.2754
 11
1449.9999
 21
2163.9081
  0
LINE
  8
0-8
  6
CONTINUOUS
 62
    7
 10
792.4998
 20
1948.5076
 11
792.4998
 21
1882.3851
  0
LINE
  8
0-8
  6
CONTINUOUS
 62
    7
 10
1307.4999
 20
1948.5076
 11
1307.4999
 21
1882.3851
  0
LINE
  8
0-3
  6
CONTINUOUS
 62
    3
 10
1068.1575
 20
2191.0747
 11
1072.9361
 21
2194.0116
  0
LINE
  8
0-3
  6
CONTINUOUS
 62
    3
 10
1072.9361
 20
2194.0116
 11
1077.6919
 21
2197.0066
  0
LINE
  8
0-3
  6
CONTINUOUS
 62
    3
 10
1077.6919
 20
2197.0066
 11
1082.4031
 21
2200.1142
  0
LINE
  8
0-3
  6
CONTINUOUS
 62
    3
 10
1082.4031
 20
2200.1142
 11
1087.0164
 21
2203.3943
  0
LINE
  8
0-3
  6
CONTINUOUS
 62
    3
 10
1087.0164
 20
2203.3943
 11
1091.4483
 21
2206.9134
  0
LINE
  8
0-3
  6
CONTINUOUS
 62
    3
 10
1091.4483
 20
2206.9134
 11
1095.6058
 21
2210.7281
  0
LINE
  8
0-3
  6
CONTINUOUS
 62
    3
 10
1095.6058
 20
2210.7281
 11
1099.3973
 21
2214.9081
  0
LINE
  8
0-3
  6
CONTINUOUS
 62
    3
 10
1099.3973
 20
2214.9081
 11
1102.733
 21
2219.5105
  0
LINE
  8
0-3
  6
CONTINUOUS
 62
    3
 10
1102.733
 20
2219.5105
 11
1105.6422
 21
2224.4893
  0
LINE
  8
0-3
  6
CONTINUOUS
 62
    3
 10
1105.6422
 20
2224.4893
 11
1108.3912
 21
2229.5734
  0
LINE
  8
0-3
  6
CONTINUOUS
 62
    3
 10
1108.3912
 20
2229.5734
 11
1111.2588
 21
2234.4757
  0
LINE
  8
0-3
  6
CONTINUOUS
 62
    3
 10
1111.2588
 20
2234.4757
 11
1114.5396
 21
2238.9096
  0
LINE
  8
0-3
  6
CONTINUOUS
 62
    3
 10
1114.5396
 20
2238.9096
 11
1118.5105
 21
2242.5858
  0
LINE
  8
0-3
  6
CONTINUOUS
 62
    3
 10
1118.5105
 20
2242.5858
 11
1123.2599
 21
2245.4284
  0
LINE
  8
0-3
  6
CONTINUOUS
 62
    3
 10
1123.2599
 20
2245.4284
 11
1128.4982
 21
2247.7506
  0
LINE
  8
0-3
  6
CONTINUOUS
 62
    3
 10
1128.4982
 20
2247.7506
 11
1130.978
 21
2248.7413
  0
LINE
  8
0-3
  6
CONTINUOUS
 62
    3
 10
1128.4982
 20
2247.7506
 11
1131.9475
 21
2248.2987
  0
LINE
  8
0-3
  6
CONTINUOUS
 62
    3
 10
1131.9475
 20
2248.2987
 11
1135.4282
 21
2248.7757
  0
LINE
  8
0-3
  6
CONTINUOUS
 62
    3
 10
1135.4282
 20
2248.7757
 11
1138.9659
 21
2249.1167
  0
LINE
  8
0-3
  6
CONTINUOUS
 62
    3
 10
1138.9659
 20
2249.1167
 11
1142.5904
 21
2249.2464
  0
LINE
  8
0-3
  6
CONTINUOUS
 62
    3
 10
1142.5904
 20
2249.2464
 11
1146.3257
 21
2249.1001
  0
LINE
  8
0-3
  6
CONTINUOUS
 62
    3
 10
1146.3257
 20
2249.1001
 11
1150.0628
 21
2248.5555
  0
LINE
  8
0-3
  6
CONTINUOUS
 62
    3
 10
1150.0628
 20
2248.5555
 11
1153.5495
 21
2247.4631
  0
LINE
  8
0-3
  6
CONTINUOUS
 62
    3
 10
1153.5495
 20
2247.4631
 11
1156.5212
 21
2245.653
  0
LINE
  8
0-3
  6
CONTINUOUS
 62
    3
 10
1156.5212
 20
2245.653
 11
1158.7645
 21
2243.0079
  0
LINE
  8
0-3
  6
CONTINUOUS
 62
    3
 10
1158.7645
 20
2243.0079
 11
1160.5132
 21
2239.8318
  0
LINE
  8
0-3
  6
CONTINUOUS
 62
    3
 10
1066.2817
 20
2177.9486
 11
1071.8812
 21
2178.7797
  0
LINE
  8
0-3
  6
CONTINUOUS
 62
    3
 10
1071.8812
 20
2178.7797
 11
1077.4466
 21
2179.7207
  0
LINE
  8
0-3
  6
CONTINUOUS
 62
    3
 10
1077.4466
 20
2179.7207
 11
1082.9505
 21
2180.8701
  0
LINE
  8
0-3
  6
CONTINUOUS
 62
    3
 10
1082.9505
 20
2180.8701
 11
1088.3555
 21
2182.3409
  0
LINE
  8
0-3
  6
CONTINUOUS
 62
    3
 10
1088.3555
 20
2182.3409
 11
1093.6342
 21
2184.2345
  0
LINE
  8
0-3
  6
CONTINUOUS
 62
    3
 10
1093.6342
 20
2184.2345
 11
1098.7557
 21
2186.5773
  0
LINE
  8
0-3
  6
CONTINUOUS
 62
    3
 10
1098.7557
 20
2186.5773
 11
1103.6993
 21
2189.3224
  0
LINE
  8
0-3
  6
CONTINUOUS
 62
    3
 10
1103.6993
 20
2189.3224
 11
1108.437
 21
2192.4399
  0
LINE
  8
0-3
  6
CONTINUOUS
 62
    3
 10
1108.437
 20
2192.4399
 11
1112.9473
 21
2195.8736
  0
LINE
  8
0-3
  6
CONTINUOUS
 62
    3
 10
1112.9473
 20
2195.8736
 11
1117.2075
 21
2199.5904
  0
LINE
  8
0-3
  6
CONTINUOUS
 62
    3
 10
1117.2075
 20
2199.5904
 11
1121.2512
 21
2203.5227
  0
LINE
  8
0-3
  6
CONTINUOUS
 62
    3
 10
1121.2512
 20
2203.5227
 11
1125.1597
 21
2207.5807
  0
LINE
  8
0-3
  6
CONTINUOUS
 62
    3
 10
1125.1597
 20
2207.5807
 11
1129.0186
 21
2211.6768
  0
LINE
  8
0-3
  6
CONTINUOUS
 62
    3
 10
1129.0186
 20
2211.6768
 11
1132.9093
 21
2215.7175
  0
LINE
  8
0-3
  6
CONTINUOUS
 62
    3
 10
1132.9093
 20
2215.7175
 11
1136.9213
 21
2219.6169
  0
LINE
  8
0-3
  6
CONTINUOUS
 62
    3
 10
1136.9213
 20
2219.6169
 11
1141.131
 21
2223.2964
  0
LINE
  8
0-3
  6
CONTINUOUS
 62
    3
 10
1141.131
 20
2223.2964
 11
1145.5334
 21
2226.7536
  0
LINE
  8
0-3
  6
CONTINUOUS
 62
    3
 10
1145.5334
 20
2226.7536
 11
1150.0925
 21
2230.0411
  0
LINE
  8
0-3
  6
CONTINUOUS
 62
    3
 10
1150.0925
 20
2230.0411
 11
1154.76
 21
2233.2009
  0
LINE
  8
0-3
  6
CONTINUOUS
 62
    3
 10
1154.76
 20
2233.2009
 11
1159.5012
 21
2236.2808
  0
LINE
  8
0-3
  6
CONTINUOUS
 62
    3
 10
1159.5012
 20
2236.2808
 11
1162.8577
 21
2238.4261
  0
LINE
  8
0-3
  6
CONTINUOUS
 62
    3
 10
1162.8577
 20
2238.4261
 11
1168.0955
 21
2240.5986
  0
LINE
  8
0-3
  6
CONTINUOUS
 62
    3
 10
1168.0955
 20
2240.5986
 11
1173.3625
 21
2242.6269
  0
LINE
  8
0-3
  6
CONTINUOUS
 62
    3
 10
1173.3625
 20
2242.6269
 11
1178.6926
 21
2244.3683
  0
LINE
  8
0-3
  6
CONTINUOUS
 62
    3
 10
1178.6926
 20
2244.3683
 11
1184.1157
 21
2245.6803
  0
LINE
  8
0-3
  6
CONTINUOUS
 62
    3
 10
1184.1157
 20
2245.6803
 11
1189.6453
 21
2246.4839
  0
LINE
  8
0-3
  6
CONTINUOUS
 62
    3
 10
1189.6453
 20
2246.4839
 11
1195.2542
 21
2246.8373
  0
LINE
  8
0-3
  6
CONTINUOUS
 62
    3
 10
1195.2542
 20
2246.8373
 11
1200.91
 21
2246.8165
  0
LINE
  8
0-3
  6
CONTINUOUS
 62
    3
 10
1200.91
 20
2246.8165
 11
1206.5828
 21
2246.498
  0
LINE
  8
0-3
  6
CONTINUOUS
 62
    3
 10
1206.5828
 20
2246.498
 11
1212.2454
 21
2245.9606
  0
LINE
  8
0-3
  6
CONTINUOUS
 62
    3
 10
1212.2454
 20
2245.9606
 11
1217.8641
 21
2245.2698
  0
LINE
  8
0-3
  6
CONTINUOUS
 62
    3
 10
1217.8641
 20
2245.2698
 11
1223.4339
 21
2244.4104
  0
LINE
  8
0-3
  6
CONTINUOUS
 62
    3
 10
1223.4339
 20
2244.4104
 11
1228.956
 21
2243.364
  0
LINE
  8
0-3
  6
CONTINUOUS
 62
    3
 10
1228.956
 20
2243.364
 11
1234.4225
 21
2242.0949
  0
LINE
  8
0-3
  6
CONTINUOUS
 62
    3
 10
1234.4225
 20
2242.0949
 11
1239.8367
 21
2240.5813
  0
LINE
  8
0-3
  6
CONTINUOUS
 62
    3
 10
1239.8367
 20
2240.5813
 11
1245.1963
 21
2238.7891
  0
LINE
  8
0-3
  6
CONTINUOUS
 62
    3
 10
1245.1963
 20
2238.7891
 11
1250.4796
 21
2236.6925
  0
LINE
  8
0-3
  6
CONTINUOUS
 62
    3
 10
1250.4796
 20
2236.6925
 11
1255.6375
 21
2234.2693
  0
LINE
  8
0-3
  6
CONTINUOUS
 62
    3
 10
1255.6375
 20
2234.2693
 11
1260.5947
 21
2231.5039
  0
LINE
  8
0-3
  6
CONTINUOUS
 62
    3
 10
1260.5947
 20
2231.5039
 11
1265.2864
 21
2228.3711
  0
LINE
  8
0-3
  6
CONTINUOUS
 62
    3
 10
1265.2864
 20
2228.3711
 11
1269.645
 21
2224.8466
  0
LINE
  8
0-3
  6
CONTINUOUS
 62
    3
 10
1269.645
 20
2224.8466
 11
1273.6105
 21
2220.9212
  0
LINE
  8
0-3
  6
CONTINUOUS
 62
    3
 10
1273.6105
 20
2220.9212
 11
1277.2335
 21
2216.6516
  0
LINE
  8
0-3
  6
CONTINUOUS
 62
    3
 10
1277.2335
 20
2216.6516
 11
1280.6034
 21
2212.1339
  0
LINE
  8
0-3
  6
CONTINUOUS
 62
    3
 10
1280.6034
 20
2212.1339
 11
1283.8177
 21
2207.4622
  0
LINE
  8
0-3
  6
CONTINUOUS
 62
    3
 10
1283.8177
 20
2207.4622
 11
1285.6848
 21
2204.6726
  0
LINE
  8
0-3
  6
CONTINUOUS
 62
    3
 10
1283.8177
 20
2207.4622
 11
1286.3302
 21
2202.259
  0
LINE
  8
0-3
  6
CONTINUOUS
 62
    3
 10
1286.3302
 20
2202.259
 11
1288.709
 21
2197.0324
  0
LINE
  8
0-3
  6
CONTINUOUS
 62
    3
 10
1288.709
 20
2197.0324
 11
1290.8256
 21
2191.7691
  0
LINE
  8
0-3
  6
CONTINUOUS
 62
    3
 10
1290.8256
 20
2191.7691
 11
1292.5449
 21
2186.4407
  0
LINE
  8
0-3
  6
CONTINUOUS
 62
    3
 10
1292.5449
 20
2186.4407
 11
1293.736
 21
2181.0319
  0
LINE
  8
0-3
  6
CONTINUOUS
 62
    3
 10
1293.736
 20
2181.0319
 11
1294.2715
 21
2175.5217
  0
LINE
  8
0-3
  6
CONTINUOUS
 62
    3
 10
1294.2715
 20
2175.5217
 11
1294.1181
 21
2169.933
  0
LINE
  8
0-3
  6
CONTINUOUS
 62
    3
 10
1294.1181
 20
2169.933
 11
1293.3683
 21
2164.3191
  0
LINE
  8
0-3
  6
CONTINUOUS
 62
    3
 10
1293.3683
 20
2164.3191
 11
1292.1203
 21
2158.7455
  0
LINE
  8
0-3
  6
CONTINUOUS
 62
    3
 10
1292.1203
 20
2158.7455
 11
1290.4584
 21
2153.2761
  0
LINE
  8
0-3
  6
CONTINUOUS
 62
    3
 10
1290.4584
 20
2153.2761
 11
1288.4116
 21
2147.9866
  0
LINE
  8
0-3
  6
CONTINUOUS
 62
    3
 10
1288.4116
 20
2147.9866
 11
1285.9234
 21
2142.9509
  0
LINE
  8
0-3
  6
CONTINUOUS
 62
    3
 10
1285.9234
 20
2142.9509
 11
1282.934
 21
2138.2478
  0
LINE
  8
0-3
  6
CONTINUOUS
 62
    3
 10
1282.934
 20
2138.2478
 11
1279.4508
 21
2133.9053
  0
LINE
  8
0-3
  6
CONTINUOUS
 62
    3
 10
1279.4508
 20
2133.9053
 11
1275.5784
 21
2129.842
  0
LINE
  8
0-3
  6
CONTINUOUS
 62
    3
 10
1275.5784
 20
2129.842
 11
1271.44
 21
2125.9738
  0
LINE
  8
0-3
  6
CONTINUOUS
 62
    3
 10
1271.44
 20
2125.9738
 11
1267.1501
 21
2122.2187
  0
LINE
  8
0-3
  6
CONTINUOUS
 62
    3
 10
1267.1501
 20
2122.2187
 11
1265.9938
 21
2121.2245
  0
LINE
  8
0-3
  6
CONTINUOUS
 62
    3
 10
1267.1501
 20
2122.2187
 11
1262.2268
 21
2119.4585
  0
LINE
  8
0-3
  6
CONTINUOUS
 62
    3
 10
1262.2268
 20
2119.4585
 11
1257.2844
 21
2116.749
  0
LINE
  8
0-3
  6
CONTINUOUS
 62
    3
 10
1257.2844
 20
2116.749
 11
1252.3017
 21
2114.1388
  0
LINE
  8
0-3
  6
CONTINUOUS
 62
    3
 10
1252.3017
 20
2114.1388
 11
1247.2498
 21
2111.6758
  0
LINE
  8
0-3
  6
CONTINUOUS
 62
    3
 10
1247.2498
 20
2111.6758
 11
1242.1179
 21
2109.4099
  0
LINE
  8
0-3
  6
CONTINUOUS
 62
    3
 10
1242.1179
 20
2109.4099
 11
1236.8756
 21
2107.3894
  0
LINE
  8
0-3
  6
CONTINUOUS
 62
    3
 10
1236.8756
 20
2107.3894
 11
1231.5232
 21
2105.6429
  0
LINE
  8
0-3
  6
CONTINUOUS
 62
    3
 10
1231.5232
 20
2105.6429
 11
1226.082
 21
2104.1776
  0
LINE
  8
0-3
  6
CONTINUOUS
 62
    3
 10
1226.082
 20
2104.1776
 11
1220.573
 21
2102.9901
  0
LINE
  8
0-3
  6
CONTINUOUS
 62
    3
 10
1220.573
 20
2102.9901
 11
1215.0135
 21
2102.082
  0
LINE
  8
0-3
  6
CONTINUOUS
 62
    3
 10
1215.0135
 20
2102.082
 11
1209.4298
 21
2101.4466
  0
LINE
  8
0-3
  6
CONTINUOUS
 62
    3
 10
1209.4298
 20
2101.4466
 11
1203.8278
 21
2101.0353
  0
LINE
  8
0-3
  6
CONTINUOUS
 62
    3
 10
1203.8278
 20
2101.0353
 11
1198.2109
 21
2100.7953
  0
LINE
  8
0-3
  6
CONTINUOUS
 62
    3
 10
1198.2109
 20
2100.7953
 11
1192.5816
 21
2100.6652
  0
LINE
  8
0-3
  6
CONTINUOUS
 62
    3
 10
1192.5816
 20
2100.6652
 11
1187.7024
 21
2100.5964
  0
LINE
  8
0-3
  6
CONTINUOUS
 62
    3
 10
1124.8039
 20
2100.0795
 11
1130.0684
 21
2097.9488
  0
LINE
  8
0-3
  6
CONTINUOUS
 62
    3
 10
1130.0684
 20
2097.9488
 11
1135.3641
 21
2095.8421
  0
LINE
  8
0-3
  6
CONTINUOUS
 62
    3
 10
1135.3641
 20
2095.8421
 11
1140.7093
 21
2093.9007
  0
LINE
  8
0-3
  6
CONTINUOUS
 62
    3
 10
1140.7093
 20
2093.9007
 11
1146.1058
 21
2092.2824
  0
LINE
  8
0-3
  6
CONTINUOUS
 62
    3
 10
1146.1058
 20
2092.2824
 11
1151.568
 21
2091.1407
  0
LINE
  8
0-3
  6
CONTINUOUS
 62
    3
 10
1151.568
 20
2091.1407
 11
1157.1079
 21
2090.6295
  0
LINE
  8
0-3
  6
CONTINUOUS
 62
    3
 10
1157.1079
 20
2090.6295
 11
1162.7129
 21
2090.7094
  0
LINE
  8
0-3
  6
CONTINUOUS
 62
    3
 10
1162.7129
 20
2090.7094
 11
1168.3585
 21
2091.1259
  0
LINE
  8
0-3
  6
CONTINUOUS
 62
    3
 10
1168.3585
 20
2091.1259
 11
1169.4193
 21
2091.2199
  0
LINE
  8
0-3
  6
CONTINUOUS
 62
    3
 10
1168.3585
 20
2091.1259
 11
1172.9748
 21
2092.1552
  0
LINE
  8
0-3
  6
CONTINUOUS
 62
    3
 10
1172.9748
 20
2092.1552
 11
1177.4054
 21
2093.5797
  0
LINE
  8
0-3
  6
CONTINUOUS
 62
    3
 10
1177.4054
 20
2093.5797
 11
1181.4706
 21
2095.7978
  0
LINE
  8
0-3
  6
CONTINUOUS
 62
    3
 10
1181.4706
 20
2095.7978
 11
1184.9367
 21
2098.9806
  0
LINE
  8
0-3
  6
CONTINUOUS
 62
    3
 10
1184.9367
 20
2098.9806
 11
1187.5062
 21
2102.9696
  0
LINE
  8
0-3
  6
CONTINUOUS
 62
    3
 10
1187.5062
 20
2102.9696
 11
1188.9057
 21
2107.5309
  0
LINE
  8
0-3
  6
CONTINUOUS
 62
    3
 10
1188.9057
 20
2107.5309
 11
1189.0091
 21
2112.2483
  0
LINE
  8
0-3
  6
CONTINUOUS
 62
    3
 10
1189.0091
 20
2112.2483
 11
1187.7608
 21
2116.6681
  0
LINE
  8
0-3
  6
CONTINUOUS
 62
    3
 10
1187.7608
 20
2116.6681
 11
1185.4279
 21
2120.689
  0
LINE
  8
0-3
  6
CONTINUOUS
 62
    3
 10
1185.4279
 20
2120.689
 11
1182.5462
 21
2124.5055
  0
LINE
  8
0-3
  6
CONTINUOUS
 62
    3
 10
1074.3821
 20
2170.6721
 11
1080.0557
 21
2169.7061
  0
LINE
  8
0-3
  6
CONTINUOUS
 62
    3
 10
1080.0557
 20
2169.7061
 11
1085.7106
 21
2168.9036
  0
LINE
  8
0-3
  6
CONTINUOUS
 62
    3
 10
1085.7106
 20
2168.9036
 11
1091.3241
 21
2168.4266
  0
LINE
  8
0-3
  6
CONTINUOUS
 62
    3
 10
1091.3241
 20
2168.4266
 11
1096.8769
 21
2168.4352
  0
LINE
  8
0-3
  6
CONTINUOUS
 62
    3
 10
1096.8769
 20
2168.4352
 11
1102.3485
 21
2169.0882
  0
LINE
  8
0-3
  6
CONTINUOUS
 62
    3
 10
1102.3485
 20
2169.0882
 11
1107.7395
 21
2170.4155
  0
LINE
  8
0-3
  6
CONTINUOUS
 62
    3
 10
1107.7395
 20
2170.4155
 11
1113.0619
 21
2172.2371
  0
LINE
  8
0-3
  6
CONTINUOUS
 62
    3
 10
1113.0619
 20
2172.2371
 11
1118.3413
 21
2174.3733
  0
LINE
  8
0-3
  6
CONTINUOUS
 62
    3
 10
1118.3413
 20
2174.3733
 11
1123.5877
 21
2176.6307
  0
LINE
  8
0-3
  6
CONTINUOUS
 62
    3
 10
1123.5877
 20
2176.6307
 11
1128.828
 21
2178.8468
  0
LINE
  8
0-3
  6
CONTINUOUS
 62
    3
 10
1128.828
 20
2178.8468
 11
1134.0631
 21
2180.9799
  0
LINE
  8
0-3
  6
CONTINUOUS
 62
    3
 10
1134.0631
 20
2180.9799
 11
1139.2982
 21
2183.0495
  0
LINE
  8
0-3
  6
CONTINUOUS
 62
    3
 10
1139.2982
 20
2183.0495
 11
1144.5273
 21
2185.0676
  0
LINE
  8
0-3
  6
CONTINUOUS
 62
    3
 10
1144.5273
 20
2185.0676
 11
1149.756
 21
2187.0486
  0
LINE
  8
0-3
  6
CONTINUOUS
 62
    3
 10
1149.756
 20
2187.0486
 11
1154.9864
 21
2189.0111
  0
LINE
  8
0-3
  6
CONTINUOUS
 62
    3
 10
1154.9864
 20
2189.0111
 11
1154.9134
 21
2184.1939
  0
LINE
  8
0-3
  6
CONTINUOUS
 62
    3
 10
1154.9134
 20
2184.1939
 11
1154.8443
 21
2179.3827
  0
LINE
  8
0-3
  6
CONTINUOUS
 62
    3
 10
1154.8443
 20
2179.3827
 11
1154.7748
 21
2174.5653
  0
LINE
  8
0-3
  6
CONTINUOUS
 62
    3
 10
1154.7748
 20
2174.5653
 11
1154.7021
 21
2169.7526
  0
LINE
  8
0-3
  6
CONTINUOUS
 62
    3
 10
1154.7021
 20
2169.7526
 11
1154.6335
 21
2164.9409
  0
LINE
  8
0-3
  6
CONTINUOUS
 62
    3
 10
1154.6335
 20
2164.9409
 11
1154.564
 21
2160.1235
  0
LINE
  8
0-3
  6
CONTINUOUS
 62
    3
 10
1154.564
 20
2160.1235
 11
1154.4912
 21
2155.3123
  0
LINE
  8
0-3
  6
CONTINUOUS
 62
    3
 10
1154.4912
 20
2155.3123
 11
1154.4222
 21
2150.4951
  0
LINE
  8
0-3
  6
CONTINUOUS
 62
    3
 10
1154.4222
 20
2150.4951
 11
1154.3507
 21
2145.6819
  0
LINE
  8
0-3
  6
CONTINUOUS
 62
    3
 10
1154.3507
 20
2145.6819
 11
1154.2807
 21
2140.8662
  0
LINE
  8
0-3
  6
CONTINUOUS
 62
    3
 10
1182.5462
 20
2124.5055
 11
1181.3951
 21
2125.52
  0
LINE
  8
0-3
  6
CONTINUOUS
 62
    3
 10
1181.3951
 20
2125.52
 11
1179.7408
 21
2126.7473
  0
LINE
  8
0-3
  6
CONTINUOUS
 62
    3
 10
1179.7408
 20
2126.7473
 11
1177.6489
 21
2128.151
  0
LINE
  8
0-3
  6
CONTINUOUS
 62
    3
 10
1177.6489
 20
2128.151
 11
1175.1752
 21
2129.6978
  0
LINE
  8
0-3
  6
CONTINUOUS
 62
    3
 10
1175.1752
 20
2129.6978
 11
1172.3557
 21
2131.3561
  0
LINE
  8
0-3
  6
CONTINUOUS
 62
    3
 10
1172.3557
 20
2131.3561
 11
1169.2401
 21
2133.1048
  0
LINE
  8
0-3
  6
CONTINUOUS
 62
    3
 10
1169.2401
 20
2133.1048
 11
1165.8584
 21
2134.9227
  0
LINE
  8
0-3
  6
CONTINUOUS
 62
    3
 10
1165.8584
 20
2134.9227
 11
1162.2356
 21
2136.7899
  0
LINE
  8
0-3
  6
CONTINUOUS
 62
    3
 10
1162.2356
 20
2136.7899
 11
1158.4055
 21
2138.6925
  0
LINE
  8
0-3
  6
CONTINUOUS
 62
    3
 10
1158.4055
 20
2138.6925
 11
1154.3878
 21
2140.6153
  0
LINE
  8
0-3
  6
CONTINUOUS
 62
    3
 10
1154.3878
 20
2140.6153
 11
1150.1979
 21
2142.5459
  0
LINE
  8
0-3
  6
CONTINUOUS
 62
    3
 10
1150.1979
 20
2142.5459
 11
1145.8625
 21
2144.4791
  0
LINE
  8
0-3
  6
CONTINUOUS
 62
    3
 10
1145.8625
 20
2144.4791
 11
1141.393
 21
2146.4022
  0
LINE
  8
0-3
  6
CONTINUOUS
 62
    3
 10
1141.393
 20
2146.4022
 11
1136.8122
 21
2148.31
  0
LINE
  8
0-3
  6
CONTINUOUS
 62
    3
 10
1136.8122
 20
2148.31
 11
1132.1318
 21
2150.1982
  0
LINE
  8
0-3
  6
CONTINUOUS
 62
    3
 10
1132.1318
 20
2150.1982
 11
1127.3709
 21
2152.0572
  0
LINE
  8
0-3
  6
CONTINUOUS
 62
    3
 10
1127.3709
 20
2152.0572
 11
1122.5465
 21
2153.885
  0
LINE
  8
0-3
  6
CONTINUOUS
 62
    3
 10
1122.5465
 20
2153.885
 11
1117.6784
 21
2155.6792
  0
LINE
  8
0-3
  6
CONTINUOUS
 62
    3
 10
1117.6784
 20
2155.6792
 11
1112.7872
 21
2157.4368
  0
LINE
  8
0-3
  6
CONTINUOUS
 62
    3
 10
1112.7872
 20
2157.4368
 11
1107.8909
 21
2159.1476
  0
LINE
  8
0-3
  6
CONTINUOUS
 62
    3
 10
1107.8909
 20
2159.1476
 11
1103.0087
 21
2160.8119
  0
LINE
  8
0-3
  6
CONTINUOUS
 62
    3
 10
1103.0087
 20
2160.8119
 11
1098.1655
 21
2162.4291
  0
LINE
  8
0-3
  6
CONTINUOUS
 62
    3
 10
1098.1655
 20
2162.4291
 11
1093.388
 21
2163.989
  0
LINE
  8
0-3
  6
CONTINUOUS
 62
    3
 10
1093.388
 20
2163.989
 11
1088.693
 21
2165.4922
  0
LINE
  8
0-3
  6
CONTINUOUS
 62
    3
 10
1088.693
 20
2165.4922
 11
1084.1119
 21
2166.932
  0
LINE
  8
0-3
  6
CONTINUOUS
 62
    3
 10
1084.1119
 20
2166.932
 11
1079.6679
 21
2168.3019
  0
LINE
  8
0-3
  6
CONTINUOUS
 62
    3
 10
1079.6679
 20
2168.3019
 11
1075.387
 21
2169.5962
  0
LINE
  8
0-3
  6
CONTINUOUS
 62
    3
 10
1075.387
 20
2169.5962
 11
1071.2913
 21
2170.8121
  0
LINE
  8
0-3
  6
CONTINUOUS
 62
    3
 10
1071.2913
 20
2170.8121
 11
1067.4073
 21
2171.9385
  0
LINE
  8
0-3
  6
CONTINUOUS
 62
    3
 10
1154.9864
 20
2189.0111
 11
1155.0529
 21
2189.0339
  0
LINE
  8
0-3
  6
CONTINUOUS
 62
    3
 10
1078.4357
 20
2095.3757
 11
1078.4357
 21
2084.3213
  0
LINE
  8
0-3
  6
CONTINUOUS
 62
    3
 10
1078.4357
 20
2084.3213
 11
1112.0279
 21
2084.3213
  0
LINE
  8
0-3
  6
CONTINUOUS
 62
    3
 10
1112.0279
 20
2095.3757
 11
1112.0279
 21
2084.3213
  0
LINE
  8
0-3
  6
CONTINUOUS
 62
    3
 10
1078.4357
 20
2095.3757
 11
1112.0279
 21
2095.3757
  0
LINE
  8
0-3
  6
CONTINUOUS
 62
    3
 10
1062.8715
 20
2201.949
 11
1062.8715
 21
2165.6802
  0
LINE
  8
0-3
  6
CONTINUOUS
 62
    3
 10
1068.1575
 20
2191.0747
 11
1067.6089
 21
2190.7642
  0
LINE
  8
0-3
  6
CONTINUOUS
 62
    3
 10
1067.6089
 20
2190.7642
 11
1067.047
 21
2190.4383
  0
LINE
  8
0-3
  6
CONTINUOUS
 62
    3
 10
1067.047
 20
2190.4383
 11
1066.4786
 21
2190.0969
  0
LINE
  8
0-3
  6
CONTINUOUS
 62
    3
 10
1066.4786
 20
2190.0969
 11
1065.8979
 21
2189.7391
  0
LINE
  8
0-3
  6
CONTINUOUS
 62
    3
 10
1065.8979
 20
2189.7391
 11
1065.3058
 21
2189.3696
  0
LINE
  8
0-3
  6
CONTINUOUS
 62
    3
 10
1065.3058
 20
2189.3696
 11
1064.7035
 21
2188.9814
  0
LINE
  8
0-3
  6
CONTINUOUS
 62
    3
 10
1064.7035
 20
2188.9814
 11
1064.0908
 21
2188.5801
  0
LINE
  8
0-3
  6
CONTINUOUS
 62
    3
 10
1064.0908
 20
2188.5801
 11
1063.4658
 21
2188.1611
  0
LINE
  8
0-3
  6
CONTINUOUS
 62
    3
 10
1063.4658
 20
2188.1611
 11
1062.8329
 21
2187.7299
  0
LINE
  8
0-3
  6
CONTINUOUS
 62
    3
 10
1066.2817
 20
2177.9486
 11
1065.8749
 21
2177.8706
  0
LINE
  8
0-3
  6
CONTINUOUS
 62
    3
 10
1065.8749
 20
2177.8706
 11
1065.4733
 21
2177.7979
  0
LINE
  8
0-3
  6
CONTINUOUS
 62
    3
 10
1065.4733
 20
2177.7979
 11
1065.0794
 21
2177.7264
  0
LINE
  8
0-3
  6
CONTINUOUS
 62
    3
 10
1065.0794
 20
2177.7264
 11
1064.6891
 21
2177.6558
  0
LINE
  8
0-3
  6
CONTINUOUS
 62
    3
 10
1064.6891
 20
2177.6558
 11
1064.3071
 21
2177.5888
  0
LINE
  8
0-3
  6
CONTINUOUS
 62
    3
 10
1064.3071
 20
2177.5888
 11
1063.929
 21
2177.5264
  0
LINE
  8
0-3
  6
CONTINUOUS
 62
    3
 10
1063.929
 20
2177.5264
 11
1063.5579
 21
2177.4678
  0
LINE
  8
0-3
  6
CONTINUOUS
 62
    3
 10
1063.5579
 20
2177.4678
 11
1063.1911
 21
2177.4104
  0
LINE
  8
0-3
  6
CONTINUOUS
 62
    3
 10
1063.1911
 20
2177.4104
 11
1062.8329
 21
2177.3547
  0
LINE
  8
0-3
  6
CONTINUOUS
 62
    3
 10
1074.3821
 20
2170.6721
 11
1072.8356
 21
2171.0002
  0
LINE
  8
0-3
  6
CONTINUOUS
 62
    3
 10
1072.8356
 20
2171.0002
 11
1071.352
 21
2171.3172
  0
LINE
  8
0-3
  6
CONTINUOUS
 62
    3
 10
1071.352
 20
2171.3172
 11
1069.9361
 21
2171.6235
  0
LINE
  8
0-3
  6
CONTINUOUS
 62
    3
 10
1069.9361
 20
2171.6235
 11
1068.5863
 21
2171.9212
  0
LINE
  8
0-3
  6
CONTINUOUS
 62
    3
 10
1068.5863
 20
2171.9212
 11
1067.3024
 21
2172.207
  0
LINE
  8
0-3
  6
CONTINUOUS
 62
    3
 10
1067.3024
 20
2172.207
 11
1066.0859
 21
2172.4848
  0
LINE
  8
0-3
  6
CONTINUOUS
 62
    3
 10
1066.0859
 20
2172.4848
 11
1064.9346
 21
2172.7511
  0
LINE
  8
0-3
  6
CONTINUOUS
 62
    3
 10
1064.9346
 20
2172.7511
 11
1063.8506
 21
2173.0084
  0
LINE
  8
0-3
  6
CONTINUOUS
 62
    3
 10
1063.8506
 20
2173.0084
 11
1062.8329
 21
2173.2534
  0
LINE
  8
0-3
  6
CONTINUOUS
 62
    3
 10
1067.4073
 20
2171.9385
 11
1066.8018
 21
2172.1033
  0
LINE
  8
0-3
  6
CONTINUOUS
 62
    3
 10
1066.8018
 20
2172.1033
 11
1066.2215
 21
2172.2619
  0
LINE
  8
0-3
  6
CONTINUOUS
 62
    3
 10
1066.2215
 20
2172.2619
 11
1065.666
 21
2172.4183
  0
LINE
  8
0-3
  6
CONTINUOUS
 62
    3
 10
1065.666
 20
2172.4183
 11
1065.1365
 21
2172.5685
  0
LINE
  8
0-3
  6
CONTINUOUS
 62
    3
 10
1065.1365
 20
2172.5685
 11
1064.634
 21
2172.7135
  0
LINE
  8
0-3
  6
CONTINUOUS
 62
    3
 10
1064.634
 20
2172.7135
 11
1064.1544
 21
2172.8513
  0
LINE
  8
0-3
  6
CONTINUOUS
 62
    3
 10
1064.1544
 20
2172.8513
 11
1063.7006
 21
2172.9864
  0
LINE
  8
0-3
  6
CONTINUOUS
 62
    3
 10
1063.7006
 20
2172.9864
 11
1063.2735
 21
2173.1175
  0
LINE
  8
0-3
  6
CONTINUOUS
 62
    3
 10
1063.2735
 20
2173.1175
 11
1062.8715
 21
2173.2455
  0
LINE
  8
0-3
  6
CONTINUOUS
 62
    3
 10
1057.9165
 20
2206.9067
 11
1050.0009
 21
2206.9067
  0
LINE
  8
0-3
  6
CONTINUOUS
 62
    3
 10
1057.9165
 20
2130.7539
 11
1050.0009
 21
2130.7539
  0
LINE
  8
0-3
  6
CONTINUOUS
 62
    3
 10
1054.1356
 20
2156.574
 11
1057.0064
 21
2153.333
  0
LINE
  8
0-3
  6
CONTINUOUS
 62
    3
 10
1057.0064
 20
2153.333
 11
1060.1622
 21
2149.9663
  0
LINE
  8
0-3
  6
CONTINUOUS
 62
    3
 10
1060.1622
 20
2149.9663
 11
1063.5559
 21
2146.5128
  0
LINE
  8
0-3
  6
CONTINUOUS
 62
    3
 10
1063.5559
 20
2146.5128
 11
1067.145
 21
2143.0086
  0
LINE
  8
0-3
  6
CONTINUOUS
 62
    3
 10
1067.145
 20
2143.0086
 11
1070.8878
 21
2139.4868
  0
LINE
  8
0-3
  6
CONTINUOUS
 62
    3
 10
1070.8878
 20
2139.4868
 11
1074.7466
 21
2135.9788
  0
LINE
  8
0-3
  6
CONTINUOUS
 62
    3
 10
1074.7466
 20
2135.9788
 11
1078.6853
 21
2132.5124
  0
LINE
  8
0-3
  6
CONTINUOUS
 62
    3
 10
1078.6853
 20
2132.5124
 11
1082.6716
 21
2129.1118
  0
LINE
  8
0-3
  6
CONTINUOUS
 62
    3
 10
1082.6716
 20
2129.1118
 11
1086.6744
 21
2125.8016
  0
LINE
  8
0-3
  6
CONTINUOUS
 62
    3
 10
1086.6744
 20
2125.8016
 11
1090.6666
 21
2122.6017
  0
LINE
  8
0-3
  6
CONTINUOUS
 62
    3
 10
1090.6666
 20
2122.6017
 11
1094.6232
 21
2119.5295
  0
LINE
  8
0-3
  6
CONTINUOUS
 62
    3
 10
1094.6232
 20
2119.5295
 11
1098.5211
 21
2116.5998
  0
LINE
  8
0-3
  6
CONTINUOUS
 62
    3
 10
1098.5211
 20
2116.5998
 11
1102.3408
 21
2113.826
  0
LINE
  8
0-3
  6
CONTINUOUS
 62
    3
 10
1102.3408
 20
2113.826
 11
1106.0655
 21
2111.217
  0
LINE
  8
0-3
  6
CONTINUOUS
 62
    3
 10
1106.0655
 20
2111.217
 11
1109.6806
 21
2108.7797
  0
LINE
  8
0-3
  6
CONTINUOUS
 62
    3
 10
1109.6806
 20
2108.7797
 11
1113.1737
 21
2106.5191
  0
LINE
  8
0-3
  6
CONTINUOUS
 62
    3
 10
1113.1737
 20
2106.5191
 11
1116.5362
 21
2104.4371
  0
LINE
  8
0-3
  6
CONTINUOUS
 62
    3
 10
1116.5362
 20
2104.4371
 11
1119.7608
 21
2102.5331
  0
LINE
  8
0-3
  6
CONTINUOUS
 62
    3
 10
1119.7608
 20
2102.5331
 11
1122.8434
 21
2100.8035
  0
LINE
  8
0-3
  6
CONTINUOUS
 62
    3
 10
1122.8434
 20
2100.8035
 11
1123.0706
 21
2100.704
  0
LINE
  8
0-3
  6
CONTINUOUS
 62
    3
 10
1123.0706
 20
2100.704
 11
1123.2953
 21
2100.6097
  0
LINE
  8
0-3
  6
CONTINUOUS
 62
    3
 10
1123.2953
 20
2100.6097
 11
1123.518
 21
2100.5197
  0
LINE
  8
0-3
  6
CONTINUOUS
 62
    3
 10
1123.518
 20
2100.5197
 11
1123.7379
 21
2100.4351
  0
LINE
  8
0-3
  6
CONTINUOUS
 62
    3
 10
1123.7379
 20
2100.4351
 11
1123.9557
 21
2100.3546
  0
LINE
  8
0-3
  6
CONTINUOUS
 62
    3
 10
1123.9557
 20
2100.3546
 11
1124.1712
 21
2100.2787
  0
LINE
  8
0-3
  6
CONTINUOUS
 62
    3
 10
1124.1712
 20
2100.2787
 11
1124.3845
 21
2100.2074
  0
LINE
  8
0-3
  6
CONTINUOUS
 62
    3
 10
1124.3845
 20
2100.2074
 11
1124.5953
 21
2100.1416
  0
LINE
  8
0-3
  6
CONTINUOUS
 62
    3
 10
1124.5953
 20
2100.1416
 11
1124.8039
 21
2100.0795
  0
LINE
  8
0-3
  6
CONTINUOUS
 62
    3
 10
1054.1356
 20
2156.574
 11
1055.833
 21
2157.4167
  0
LINE
  8
0-3
  6
CONTINUOUS
 62
    3
 10
1055.833
 20
2157.4167
 11
1057.3483
 21
2158.3018
  0
LINE
  8
0-3
  6
CONTINUOUS
 62
    3
 10
1057.3483
 20
2158.3018
 11
1058.682
 21
2159.2292
  0
LINE
  8
0-3
  6
CONTINUOUS
 62
    3
 10
1058.682
 20
2159.2292
 11
1059.8346
 21
2160.1987
  0
LINE
  8
0-3
  6
CONTINUOUS
 62
    3
 10
1059.8346
 20
2160.1987
 11
1060.8053
 21
2161.2112
  0
LINE
  8
0-3
  6
CONTINUOUS
 62
    3
 10
1060.8053
 20
2161.2112
 11
1061.5944
 21
2162.2651
  0
LINE
  8
0-3
  6
CONTINUOUS
 62
    3
 10
1061.5944
 20
2162.2651
 11
1062.2016
 21
2163.3612
  0
LINE
  8
0-3
  6
CONTINUOUS
 62
    3
 10
1062.2016
 20
2163.3612
 11
1062.6275
 21
2164.4992
  0
LINE
  8
0-3
  6
CONTINUOUS
 62
    3
 10
1062.6275
 20
2164.4992
 11
1062.8715
 21
2165.6802
  0
LINE
  8
0-3
  6
CONTINUOUS
 62
    3
 10
1062.8727
 20
2135.7111
 11
1062.8727
 21
2147.2079
  0
LINE
  8
0-3
  6
CONTINUOUS
 62
    3
 10
1127.2419
 20
2178.4912
 11
1117.4819
 21
2200.0031
  0
LINE
  8
0-3
  6
CONTINUOUS
 62
    3
 10
1089.6652
 20
2061.6448
 11
1050.0009
 21
2061.6448
  0
LINE
  8
0-3
  6
CONTINUOUS
 62
    3
 10
1096.2959
 20
2068.2754
 11
1096.2959
 21
2084.3213
  0
LINE
  8
0-3
  6
CONTINUOUS
 62
    3
 10
1086.3503
 20
2055.6828
 11
1050.0009
 21
2055.6828
  0
LINE
  8
0-3
  6
CONTINUOUS
 62
    3
 10
1089.6652
 20
2058.9985
 11
1089.6652
 21
2061.6448
  0
LINE
  8
0-3
  6
CONTINUOUS
 62
    3
 10
1096.2959
 20
2116.7156
 11
1096.2959
 21
2095.3757
  0
LINE
  8
0-3
  6
CONTINUOUS
 62
    3
 10
1088.1103
 20
2124.9014
 11
1050.0009
 21
2124.9014
  0
LINE
  8
0-2
  6
CONTINUOUS
 62
    3
 10
1307.5014
 20
2254.9288
 11
1307.5014
 21
2227.5617
  0
LINE
  8
0-2
  6
CONTINUOUS
 62
    3
 10
1049.9999
 20
2270.9186
 11
1307.5014
 21
2270.9186
  0
LINE
  8
0-2
  6
CONTINUOUS
 62
    3
 10
1049.9999
 20
2254.9288
 11
1307.5024
 21
2254.9288
  0
LINE
  8
0-2
  6
CONTINUOUS
 62
    3
 10
1307.4999
 20
2207.265
 11
1450.0013
 21
2207.265
  0
LINE
  8
0-2
  6
CONTINUOUS
 62
    3
 10
1307.4999
 20
2191.2754
 11
1450.0013
 21
2191.2754
  0
LINE
  8
0-2
  6
CONTINUOUS
 62
    3
 10
1307.4999
 20
2163.9086
 11
1450.0013
 21
2163.9086
  0
LINE
  8
0-2
  6
CONTINUOUS
 62
    3
 10
1307.4999
 20
2147.9188
 11
1450.0013
 21
2147.9188
  0
LINE
  8
0-2
  6
CONTINUOUS
 62
    3
 10
649.99995
 20
2147.9188
 11
1049.9999
 21
2147.9188
  0
LINE
  8
0-2
  6
CONTINUOUS
 62
    3
 10
649.99995
 20
2163.9086
 11
1049.9999
 21
2163.9086
  0
LINE
  8
0-2
  6
CONTINUOUS
 62
    3
 10
649.99995
 20
2191.2754
 11
1049.9999
 21
2191.2754
  0
LINE
  8
0-2
  6
CONTINUOUS
 62
    3
 10
649.99995
 20
2207.265
 11
1049.9999
 21
2207.265
  0
LINE
  8
0-2
  6
CONTINUOUS
 62
    3
 10
1284.5038
 20
2211.5722
 11
1307.5024
 21
2211.5722
  0
LINE
  8
0-2
  6
CONTINUOUS
 62
    3
 10
1270.7885
 20
2227.562
 11
1307.5024
 21
2227.562
  0
LINE
  8
0-2
  6
CONTINUOUS
 62
    3
 10
1307.4999
 20
2211.5722
 11
1307.4999
 21
2051.3629
  0
LINE
  8
0-2
  6
CONTINUOUS
 62
    3
 10
1049.9999
 20
2385.9687
 11
1250.0936
 21
2385.9687
  0
LINE
  8
0-2
  6
CONTINUOUS
 62
    3
 10
649.99995
 20
2342.9187
 11
1049.5617
 21
2342.9187
  0
LINE
  8
0-4
  6
CONTINUOUS
 62
    3
 10
1417.1548
 20
2157.1832
 11
1417.1548
 21
2146.8874
  0
LINE
  8
0-4
  6
CONTINUOUS
 62
    3
 10
1301.4604
 20
2087.7716
 11
1317.9814
 21
2087.7716
  0
LINE
  8
0-4
  6
CONTINUOUS
 62
    3
 10
1441.4493
 20
2183.6906
 11
1456.0458
 21
2183.6906
  0
LINE
  8
0-4
  6
CONTINUOUS
 62
    3
 10
1301.1179
 20
2249.3859
 11
1318.2724
 21
2249.3859
  0
LINE
  8
0-4
  6
CONTINUOUS
 62
    3
 10
1404.7833
 20
2150.9187
 11
1307.5014
 21
2241.7108
  0
LINE
  8
0-8
  6
CONTINUOUS
 62
    7
 10
1615.1896
 20
1967.9188
 11
1615.1896
 21
2147.9188
  0
LINE
  8
0-8
  6
CONTINUOUS
 62
    7
 10
1483.8243
 20
1967.9188
 11
1615.1896
 21
1967.9188
  0
LINE
  8
0-8
  6
CONTINUOUS
 62
    7
 10
1483.8243
 20
2147.9188
 11
1615.1896
 21
2147.9188
  0
LINE
  8
0-8
  6
CONTINUOUS
 62
    7
 10
1615.1896
 20
2147.9188
 11
1615.1896
 21
2342.9187
  0
LINE
  8
0-8
  6
CONTINUOUS
 62
    7
 10
1483.8243
 20
2342.9187
 11
1615.1896
 21
2342.9187
  0
LINE
  8
0-8
  6
CONTINUOUS
 62
    7
 10
1615.1896
 20
2342.9187
 11
1615.1896
 21
2432.9187
  0
LINE
  8
0-8
  6
CONTINUOUS
 62
    7
 10
1483.8243
 20
2432.9187
 11
1615.1896
 21
2432.9187
  0
LINE
  8
0-8
  6
CONTINUOUS
 62
    7
 10
1398.5053
 20
1967.9188
 11
1398.5053
 21
2270.9186
  0
LINE
  8
0-8
  6
CONTINUOUS
 62
    7
 10
1330.4559
 20
1967.9188
 11
1398.5053
 21
1967.9188
  0
LINE
  8
0-8
  6
CONTINUOUS
 62
    7
 10
1330.4559
 20
2270.9186
 11
1398.5053
 21
2270.9186
  0
LINE
  8
0-4
  6
CONTINUOUS
 62
    3
 10
1405.9939
 20
2153.9187
 11
1446.311
 21
2153.9187
  0
LINE
  8
0-4
  6
CONTINUOUS
 62
    3
 10
1310.5013
 20
2254.9288
 11
1310.5013
 21
2243.0141
  0
LINE
  8
0-4
  6
CONTINUOUS
 62
    3
 10
1405.9939
 20
2153.9187
 11
1310.5013
 21
2243.0141
  0
LINE
  8
0-4
  6
CONTINUOUS
 62
    3
 10
1311.1902
 20
2147.9188
 11
1311.1902
 21
2074.6586
  0
LINE
  8
0-4
  6
CONTINUOUS
 62
    3
 10
1307.4999
 20
2150.9187
 11
1307.4999
 21
2074.6586
  0
LINE
  8
0-4
  6
CONTINUOUS
 62
    3
 10
1446.311
 20
2150.9187
 11
1307.4999
 21
2150.9187
  0
LINE
  8
0-4
  6
CONTINUOUS
 62
    3
 10
1446.311
 20
2191.4753
 11
1446.311
 21
2150.9187
  0
LINE
  8
0-4
  6
CONTINUOUS
 62
    3
 10
1449.9999
 20
2191.2759
 11
1449.9999
 21
2147.9188
  0
LINE
  8
0-4
  6
CONTINUOUS
 62
    3
 10
1311.1902
 20
2147.9188
 11
1449.9999
 21
2147.9188
  0
LINE
  8
0-4
  6
CONTINUOUS
 62
    3
 10
1446.311
 20
2191.2754
 11
1450.0013
 21
2191.2754
  0
LINE
  8
0-4
  6
CONTINUOUS
 62
    3
 10
1307.4999
 20
2074.6586
 11
1311.1902
 21
2074.6586
  0
LINE
  8
0-4
  6
CONTINUOUS
 62
    3
 10
1310.5013
 20
2254.9288
 11
1307.5014
 21
2254.9288
  0
LINE
  8
0-4
  6
CONTINUOUS
 62
    3
 10
1307.5014
 20
2241.7108
 11
1307.5014
 21
2254.9288
  0
LINE
  8
0-1
  6
CENTER2
 62
    7
 10
1049.9999
 20
2497.1652
 11
1049.9999
 21
1817.3399
  0
LINE
  8
0-d
  6
CONTINUOUS
 62
    3
 10
1307.5014
 20
2270.9186
 11
1307.5014
 21
2374.9782
  0
LINE
  8
0-2
  6
CONTINUOUS
 62
    3
 10
1307.5014
 20
2342.9187
 11
1449.9999
 21
2342.9187
  0
LINE
  8
0-5
  6
CONTINUOUS
 62
    4
 10
1307.5014
 20
2374.9782
 11
1049.9999
 21
2374.9782
  0
LINE
  8
0-2
  6
CONTINUOUS
 62
    3
 10
1250.0936
 20
2385.9687
 11
1228.523
 21
2374.9782
  0
LINE
  8
0-5
  6
CONTINUOUS
 62
    4
 10
1307.5014
 20
2369.9782
 11
1049.9999
 21
2369.9782
  0
LINE
  8
0-5
  6
CONTINUOUS
 62
    4
 10
1307.5014
 20
2364.9782
 11
1049.9999
 21
2364.9782
  0
LINE
  8
0-5
  6
CONTINUOUS
 62
    4
 10
1307.5014
 20
2359.9782
 11
1049.9999
 21
2359.9782
  0
LINE
  8
0-5
  6
CONTINUOUS
 62
    4
 10
1307.5014
 20
2354.9781
 11
1049.9999
 21
2354.9781
  0
LINE
  8
0-5
  6
CONTINUOUS
 62
    4
 10
1307.5014
 20
2349.9781
 11
1049.9999
 21
2349.9781
  0
LINE
  8
0-5
  6
CONTINUOUS
 62
    4
 10
1307.5014
 20
2344.9781
 11
1049.9999
 21
2344.9781
  0
LINE
  8
0-5
  6
CONTINUOUS
 62
    4
 10
1307.5014
 20
2339.9781
 11
1049.9999
 21
2339.9781
  0
LINE
  8
0-5
  6
CONTINUOUS
 62
    4
 10
1307.5014
 20
2334.9783
 11
1049.9999
 21
2334.9783
  0
LINE
  8
0-5
  6
CONTINUOUS
 62
    4
 10
1307.5014
 20
2329.9783
 11
1049.9999
 21
2329.9783
  0
LINE
  8
0-5
  6
CONTINUOUS
 62
    4
 10
1307.5014
 20
2319.9783
 11
1049.9999
 21
2319.9783
  0
LINE
  8
0-5
  6
CONTINUOUS
 62
    4
 10
1307.5014
 20
2314.9783
 11
1049.9999
 21
2314.9783
  0
LINE
  8
0-5
  6
CONTINUOUS
 62
    4
 10
1307.5014
 20
2304.9782
 11
1049.9999
 21
2304.9782
  0
LINE
  8
0-5
  6
CONTINUOUS
 62
    4
 10
1307.5014
 20
2299.9782
 11
1049.9999
 21
2299.9782
  0
LINE
  8
0-5
  6
CONTINUOUS
 62
    4
 10
1307.5014
 20
2294.9782
 11
1049.9999
 21
2294.9782
  0
LINE
  8
0-5
  6
CONTINUOUS
 62
    4
 10
1307.5014
 20
2289.9782
 11
1049.9999
 21
2289.9782
  0
LINE
  8
0-5
  6
CONTINUOUS
 62
    4
 10
1307.5014
 20
2284.9782
 11
1049.9999
 21
2284.9782
  0
LINE
  8
0-5
  6
CONTINUOUS
 62
    4
 10
1307.5014
 20
2279.9781
 11
1049.9999
 21
2279.9781
  0
LINE
  8
0-5
  6
CONTINUOUS
 62
    4
 10
1307.5014
 20
2274.9781
 11
1049.9999
 21
2274.9781
  0
LINE
  8
0-5
  6
CONTINUOUS
 62
    4
 10
1302.5013
 20
2270.9186
 11
1302.5013
 21
2374.9782
  0
LINE
  8
0-5
  6
CONTINUOUS
 62
    4
 10
1297.5013
 20
2270.9186
 11
1297.5013
 21
2374.9782
  0
LINE
  8
0-5
  6
CONTINUOUS
 62
    4
 10
1292.5013
 20
2270.9186
 11
1292.5013
 21
2374.9782
  0
LINE
  8
0-5
  6
CONTINUOUS
 62
    4
 10
1287.5014
 20
2270.9186
 11
1287.5014
 21
2374.9782
  0
LINE
  8
0-5
  6
CONTINUOUS
 62
    4
 10
1282.5014
 20
2270.9186
 11
1282.5014
 21
2374.9782
  0
LINE
  8
0-5
  6
CONTINUOUS
 62
    4
 10
1277.5014
 20
2270.9186
 11
1277.5014
 21
2374.9782
  0
LINE
  8
0-5
  6
CONTINUOUS
 62
    4
 10
1272.5014
 20
2270.9186
 11
1272.5014
 21
2374.9782
  0
LINE
  8
0-5
  6
CONTINUOUS
 62
    4
 10
1267.5014
 20
2270.9186
 11
1267.5014
 21
2374.9782
  0
LINE
  8
0-5
  6
CONTINUOUS
 62
    4
 10
1262.5013
 20
2270.9186
 11
1262.5013
 21
2374.9782
  0
LINE
  8
0-5
  6
CONTINUOUS
 62
    4
 10
1257.5013
 20
2270.9186
 11
1257.5013
 21
2374.9782
  0
LINE
  8
0-5
  6
CONTINUOUS
 62
    4
 10
1252.5013
 20
2270.9186
 11
1252.5013
 21
2374.9782
  0
LINE
  8
0-5
  6
CONTINUOUS
 62
    4
 10
1247.5013
 20
2270.9186
 11
1247.5013
 21
2374.9782
  0
LINE
  8
0-5
  6
CONTINUOUS
 62
    4
 10
1242.5013
 20
2270.9186
 11
1242.5013
 21
2374.9782
  0
LINE
  8
0-5
  6
CONTINUOUS
 62
    4
 10
1237.5013
 20
2270.9186
 11
1237.5013
 21
2374.9782
  0
LINE
  8
0-5
  6
CONTINUOUS
 62
    4
 10
1232.5014
 20
2270.9186
 11
1232.5014
 21
2374.9782
  0
LINE
  8
0-5
  6
CONTINUOUS
 62
    4
 10
1227.5013
 20
2270.9186
 11
1227.5013
 21
2374.9782
  0
LINE
  8
0-5
  6
CONTINUOUS
 62
    4
 10
1222.5013
 20
2270.9186
 11
1222.5013
 21
2374.9782
  0
LINE
  8
0-5
  6
CONTINUOUS
 62
    4
 10
1217.5013
 20
2270.9186
 11
1217.5013
 21
2374.9782
  0
LINE
  8
0-5
  6
CONTINUOUS
 62
    4
 10
1212.5013
 20
2270.9186
 11
1212.5013
 21
2374.9782
  0
LINE
  8
0-5
  6
CONTINUOUS
 62
    4
 10
1207.5013
 20
2270.9186
 11
1207.5013
 21
2374.9782
  0
LINE
  8
0-5
  6
CONTINUOUS
 62
    4
 10
1202.5013
 20
2270.9186
 11
1202.5013
 21
2374.9782
  0
LINE
  8
0-5
  6
CONTINUOUS
 62
    4
 10
1197.5012
 20
2270.9186
 11
1197.5012
 21
2374.9782
  0
LINE
  8
0-5
  6
CONTINUOUS
 62
    4
 10
1192.5012
 20
2270.9186
 11
1192.5012
 21
2374.9782
  0
LINE
  8
0-5
  6
CONTINUOUS
 62
    4
 10
1187.5012
 20
2270.9186
 11
1187.5012
 21
2374.9782
  0
LINE
  8
0-5
  6
CONTINUOUS
 62
    4
 10
1182.5012
 20
2270.9186
 11
1182.5012
 21
2374.9782
  0
LINE
  8
0-5
  6
CONTINUOUS
 62
    4
 10
1177.5013
 20
2270.9186
 11
1177.5013
 21
2374.9782
  0
LINE
  8
0-5
  6
CONTINUOUS
 62
    4
 10
1172.5013
 20
2270.9186
 11
1172.5013
 21
2374.9782
  0
LINE
  8
0-5
  6
CONTINUOUS
 62
    4
 10
1167.5013
 20
2270.9186
 11
1167.5013
 21
2374.9782
  0
LINE
  8
0-5
  6
CONTINUOUS
 62
    4
 10
1162.5012
 20
2270.9186
 11
1162.5012
 21
2374.9782
  0
LINE
  8
0-5
  6
CONTINUOUS
 62
    4
 10
1157.5012
 20
2270.9186
 11
1157.5012
 21
2374.9782
  0
LINE
  8
0-5
  6
CONTINUOUS
 62
    4
 10
1152.5012
 20
2270.9186
 11
1152.5012
 21
2374.9782
  0
LINE
  8
0-5
  6
CONTINUOUS
 62
    4
 10
1147.5012
 20
2270.9186
 11
1147.5012
 21
2374.9782
  0
LINE
  8
0-5
  6
CONTINUOUS
 62
    4
 10
1142.5012
 20
2270.9186
 11
1142.5012
 21
2374.9782
  0
LINE
  8
0-5
  6
CONTINUOUS
 62
    4
 10
1137.5012
 20
2270.9186
 11
1137.5012
 21
2374.9782
  0
LINE
  8
0-5
  6
CONTINUOUS
 62
    4
 10
1132.5011
 20
2270.9186
 11
1132.5011
 21
2374.9782
  0
LINE
  8
0-5
  6
CONTINUOUS
 62
    4
 10
1127.5011
 20
2270.9186
 11
1127.5011
 21
2374.9782
  0
LINE
  8
0-5
  6
CONTINUOUS
 62
    4
 10
1122.5012
 20
2270.9186
 11
1122.5012
 21
2374.9782
  0
LINE
  8
0-5
  6
CONTINUOUS
 62
    4
 10
1117.5012
 20
2270.9186
 11
1117.5012
 21
2374.9782
  0
LINE
  8
0-5
  6
CONTINUOUS
 62
    4
 10
1112.5012
 20
2270.9186
 11
1112.5012
 21
2374.9782
  0
LINE
  8
0-5
  6
CONTINUOUS
 62
    4
 10
1107.5012
 20
2270.9186
 11
1107.5012
 21
2374.9782
  0
LINE
  8
0-5
  6
CONTINUOUS
 62
    4
 10
1102.5012
 20
2270.9186
 11
1102.5012
 21
2374.9782
  0
LINE
  8
0-5
  6
CONTINUOUS
 62
    4
 10
1097.5012
 20
2270.9186
 11
1097.5012
 21
2374.9782
  0
LINE
  8
0-5
  6
CONTINUOUS
 62
    4
 10
1092.5011
 20
2270.9186
 11
1092.5011
 21
2374.9782
  0
LINE
  8
0-5
  6
CONTINUOUS
 62
    4
 10
1087.5011
 20
2270.9186
 11
1087.5011
 21
2374.9782
  0
LINE
  8
0-5
  6
CONTINUOUS
 62
    4
 10
1082.5011
 20
2270.9186
 11
1082.5011
 21
2374.9782
  0
LINE
  8
0-5
  6
CONTINUOUS
 62
    4
 10
1077.5011
 20
2270.9186
 11
1077.5011
 21
2374.9782
  0
LINE
  8
0-5
  6
CONTINUOUS
 62
    4
 10
1072.5011
 20
2270.9186
 11
1072.5011
 21
2374.9782
  0
LINE
  8
0-5
  6
CONTINUOUS
 62
    4
 10
1067.5012
 20
2270.9186
 11
1067.5012
 21
2374.9782
  0
LINE
  8
0-5
  6
CONTINUOUS
 62
    4
 10
1062.5012
 20
2270.9186
 11
1062.5012
 21
2374.9782
  0
LINE
  8
0-5
  6
CONTINUOUS
 62
    4
 10
1057.5011
 20
2270.9186
 11
1057.5011
 21
2374.9782
  0
LINE
  8
0-5
  6
CONTINUOUS
 62
    4
 10
1052.5011
 20
2270.9186
 11
1052.5011
 21
2374.9782
  0
LINE
  8
0-5
  6
CONTINUOUS
 62
    4
 10
1307.5014
 20
2309.9782
 11
1049.9999
 21
2309.9782
  0
LINE
  8
0-5
  6
CONTINUOUS
 62
    4
 10
1307.5014
 20
2324.9783
 11
1049.9999
 21
2324.9783
  0
ARC
  8
0-2
  6
CONTINUOUS
 62
    3
 10
792.4998
 20
1975.9134
 40
7.9946302
 50
90
 51
270
  0
ARC
  8
0-2
  6
CONTINUOUS
 62
    3
 10
792.4998
 20
2043.3681
 40
7.9946302
 50
90
 51
270
  0
ARC
  8
0-2
  6
CONTINUOUS
 62
    3
 10
1307.4999
 20
1975.9134
 40
7.9946302
 50
270
 51
90
  0
ARC
  8
0-2
  6
CONTINUOUS
 62
    3
 10
1307.4999
 20
2043.3681
 40
7.9946302
 50
270
 51
90
  0
ARC
  8
0-2
  6
CONTINUOUS
 62
    3
 10
649.99995
 20
2199.2704
 40
7.9946302
 50
90
 51
270
  0
ARC
  8
0-2
  6
CONTINUOUS
 62
    3
 10
649.99995
 20
2155.9135
 40
7.9946302
 50
90
 51
270
  0
ARC
  8
0-2
  6
CONTINUOUS
 62
    3
 10
1449.9999
 20
2199.2704
 40
7.9946302
 50
270
 51
90
  0
ARC
  8
0-2
  6
CONTINUOUS
 62
    3
 10
1449.9999
 20
2155.9135
 40
7.9946302
 50
270
 51
90
  0
ARC
  8
0-3
  6
CONTINUOUS
 62
    3
 10
1057.9165
 20
2135.7111
 40
4.956173
 50
270
 51
0
  0
ARC
  8
0-3
  6
CONTINUOUS
 62
    3
 10
1057.9165
 20
2201.949
 40
4.956173
 50
0
 51
90
  0
ARC
  8
0-3
  6
CONTINUOUS
 62
    3
 10
1089.6652
 20
2068.2754
 40
6.6303755
 50
270
 51
0
  0
ARC
  8
0-3
  6
CONTINUOUS
 62
    3
 10
1086.3503
 20
2058.9985
 40
3.3151878
 50
270
 51
0
  0
ARC
  8
0-2
  6
CONTINUOUS
 62
    3
 10
1307.5014
 20
2262.9238
 40
7.9946302
 50
270
 51
90
  0
ARC
  8
0-2
  6
CONTINUOUS
 62
    3
 10
1307.5014
 20
2219.5669
 40
7.9946302
 50
270
 51
90
  0
TEXT
  8
0-d
 10
254.9998
 20
157.4999
 40
25
 41
1
 50
0
  1
図
  0
TEXT
  8
0-d
 10
254.9998
 20
97.499963
 40
25
 41
1
 50
0
  1
番
  0
TEXT
  8
0-d
 10
655.00046
 20
157.4999
 40
25
 41
1
 50
0
  1
承
  0
TEXT
  8
0-d
 10
655.00046
 20
97.499963
 40
25
 41
1
 50
0
  1
認
  0
TEXT
  8
0-d
 10
1020.0003
 20
237.49994
 40
25
 41
1
 50
0
  1
尺
  0
TEXT
  8
0-d
 10
1020.0003
 20
197.49978
 40
25
 41
1
 50
0.0000762
  1
度
  0
TEXT
  8
0-d
 10
855.00014
 20
157.4999
 40
25
 41
1
 50
0
  1
製
  0
TEXT
  8
0-d
 10
855.00014
 20
97.499963
 40
25
 41
1
 50
0
  1
図
  0
TEXT
  8
0-d
 10
1555.0001
 20
237.49994
 40
25
 41
1
 50
0
  1
日
  0
TEXT
  8
0-d
 10
1555.0001
 20
197.49978
 40
25
 41
1
 50
0.0000762
  1
付
  0
TEXT
  8
0-d
 10
1111.4263
 20
163.48226
 40
20
 41
1
 50
0
  1
株式
  0
TEXT
  8
0-d
 10
1111.4263
 20
141.85179
 40
20
 41
1
 50
0.0000152
  1
会社
  0
TEXT
  8
0-d
 10
1174.2247
 20
143.24712
 40
40
 41
1
 50
0
  1
スズキベンチレーター
  0
TEXT
  8
0-d
 10
1237.9182
 20
94.024183
 40
20
 41
1
 50
0
  1
TEL(054)296-7000  FAX(054)296-7001
  0
TEXT
  8
0-d
 10
1084.349
 20
210.10065
 40
40
 41
1
 50
0
  1
１／１０
  0
TEXT
  8
0-8
 10
1028.3212
 20
2564.2501
 40
30
 41
1
 50
0
  1
800
  0
TEXT
  8
0-8
 10
1607.8094
 20
2378.8959
 40
30
 41
1
 50
90
  1
90
  0
TEXT
  8
0-8
 10
1607.8094
 20
2228.8363
 40
30
 41
1
 50
90
  1
195
  0
TEXT
  8
0-8
 10
1607.8094
 20
2039.9861
 40
30
 41
1
 50
90
  1
180
  0
TEXT
  8
0-8
 10
1391.1251
 20
2101.4859
 40
30
 41
1
 50
90
  1
300
  0
TEXT
  8
0-8
 10
1014.3299
 20
1898.3752
 40
30
 41
1
 50
0
  1
515φ
  0
TEXT
  8
0-8
 10
435.61572
 20
2167.5969
 40
30
 41
1
 50
90
  1
465
  0
TEXT
  8
0-d
 10
255.00005
 20
2792.7014
 40
50
 41
1
 50
0
  1
ＳＴ－５０　直付型（網付）断面
  0
TEXT
  8
0-d
 10
280.67567
 20
215.81082
 40
30
 41
1
 50
0
  1
ＳＴ－５０　直付型（網付）断面
  0
TEXT
  8
0-d
 10
308.45927
 20
140.30214
 40
30
 41
1
 50
0
  1
50-C04a
  0
TEXT
  8
0-d
 10
1235.6792
 20
118.64593
 40
20
 41
1
 50
0
  1
〒421-2114　静岡市葵区安倍口新田１５２番地
  0
POINT
  8
0-8
 62
    2
 10
459.60031
 20
1967.9187
  0
POINT
  8
0-8
 62
    2
 10
459.60031
 20
2432.9187
  0
POINT
  8
0-8
 62
    2
 10
649.99995
 20
2540.2641
  0
POINT
  8
0-8
 62
    2
 10
1450.0013
 20
2540.2641
  0
POINT
  8
0-8
 62
    2
 10
792.4998
 20
1882.3851
  0
POINT
  8
0-8
 62
    2
 10
1307.4999
 20
1882.3851
  0
POINT
  8
0-8
 62
    2
 10
1615.1896
 20
1967.9188
  0
POINT
  8
0-8
 62
    2
 10
1615.1896
 20
2147.9188
  0
POINT
  8
0-8
 62
    2
 10
1615.1896
 20
2342.9187
  0
POINT
  8
0-8
 62
    2
 10
1615.1896
 20
2432.9187
  0
POINT
  8
0-8
 62
    2
 10
1398.5053
 20
1967.9188
  0
POINT
  8
0-8
 62
    2
 10
1398.5053
 20
2270.9186
  0
ENDSEC
  0
EOF
