  0
SECTION
  2
HEADER
  9
$EXTMIN
 10
0
 20
0
  9
$EXTMAX
 10
4200
 20
2970
  0
ENDSEC
  0
SECTION
  2
TABLES
  0
TABLE
  2
LTYPE
 70
     9
  0
LTYPE
  2
CONTINUOUS
 70
    64
  3
実線
 72
    65
 73
     0
 40
0.0
  0
LTYPE
  2
DASHED1
 70
    64
  3
--  --  --  --  --  --  --  --  
 72
    65
 73
     2
 40
2.5
 49
1.25
 49
-1.25
  0
LTYPE
  2
DASHED2
 70
    64
  3
----    ----    ----    ----    
 72
    65
 73
     2
 40
5.0
 49
2.5
 49
-2.5
  0
LTYPE
  2
DASHED3
 70
    64
  3
------  ------  ------  ------  
 72
    65
 73
     2
 40
5.0
 49
3.75
 49
-1.25
  0
LTYPE
  2
CENTER1
 70
    64
  3
----- - ----- - ----- - ----- - 
 72
    65
 73
     4
 40
10.0
 49
6.25
 49
-1.25
 49
1.25
 49
-1.25
  0
LTYPE
  2
CENTER2
 70
    64
  3
----------  --  ----------  --  
 72
    65
 73
     4
 40
20.0
 49
12.5
 49
-2.5
 49
2.5
 49
-2.5
  0
LTYPE
  2
PHANTOM1
 70
    64
  3
--- - - --- - - --- - - --- - - 
 72
    65
 73
     6
 40
10.0
 49
3.25
 49
-1.25
 49
1.25
 49
-1.25
 49
1.25
 49
-1.25
  0
LTYPE
  2
PHANTOM2
 70
    64
  3
--------  -  -  --------  -  -  
 72
    65
 73
     6
 40
20.0
 49
10.0
 49
-2.5
 49
1.25
 49
-2.5
 49
1.25
 49
-2.5
  0
LTYPE
  2
DOT
 70
    64
  3
-   -   -   -   -   -   -   -   
 72
    65
 73
     2
 40
2.5
 49
0.625
 49
-1.875
  0
ENDTAB
  0
TABLE
  2
STYLE
 70
    1
  0
STYLE
  2
STANDARD
 70
    64
 40
0.0
 41
1.0
 42
0.0
 50
0.0
 71
     0
  3
TXT
  4
BIGFONT
  0
ENDTAB
  0
TABLE
  2
LAYER
 70
    7
  0
LAYER
  2
0-1
 70
   64
 62
    7
  6
CONTINUOUS
  0
LAYER
  2
0-2
 70
   64
 62
    7
  6
CONTINUOUS
  0
LAYER
  2
0-3
 70
   64
 62
    7
  6
CONTINUOUS
  0
LAYER
  2
0-4
 70
   64
 62
    7
  6
CONTINUOUS
  0
LAYER
  2
0-8
 70
   64
 62
    7
  6
CONTINUOUS
  0
LAYER
  2
0-d
 70
   64
 62
    7
  6
CONTINUOUS
  0
LAYER
  2
ADD_LINE
 70
   64
 62
    7
  6
CONTINUOUS
  0
ENDTAB
  0
ENDSEC
  0
SECTION
  2
ENTITIES
  0
LINE
  8
0-d
  6
CONTINUOUS
 62
    7
 10
250.00004
 20
2757.7013
 11
1850.0001
 21
2757.7013
  0
LINE
  8
0-d
  6
CONTINUOUS
 62
    7
 10
250.00004
 20
2767.7016
 11
1850.0001
 21
2767.7016
  0
LINE
  8
0-d
  6
CONTINUOUS
 62
    7
 10
249.99967
 20
189.99989
 11
1850.0003
 21
189.99989
  0
LINE
  8
0-d
  6
CONTINUOUS
 62
    7
 10
249.99967
 20
89.999806
 11
249.99967
 21
269.99991
  0
LINE
  8
0-d
  6
CONTINUOUS
 62
    7
 10
249.99967
 20
89.999806
 11
1850.0003
 21
89.999806
  0
LINE
  8
0-d
  6
CONTINUOUS
 62
    7
 10
1850.0003
 20
269.99991
 11
1850.0003
 21
89.999806
  0
LINE
  8
0-d
  6
CONTINUOUS
 62
    7
 10
249.99967
 20
269.99991
 11
1850.0003
 21
269.99991
  0
LINE
  8
0-d
  6
CONTINUOUS
 62
    7
 10
1050
 20
269.99991
 11
1050
 21
89.999806
  0
LINE
  8
0-d
  6
CONTINUOUS
 62
    7
 10
650.00019
 20
89.999806
 11
650.00019
 21
189.99989
  0
LINE
  8
0-d
  6
CONTINUOUS
 62
    7
 10
1050
 20
189.99989
 11
1050
 21
269.99991
  0
LINE
  8
0-d
  6
CONTINUOUS
 62
    7
 10
849.99975
 20
89.999806
 11
849.99975
 21
189.99989
  0
LINE
  8
0-d
  6
CONTINUOUS
 62
    7
 10
285.00002
 20
89.999806
 11
285.00002
 21
189.99989
  0
LINE
  8
0-d
  6
CONTINUOUS
 62
    7
 10
685.00006
 20
89.999806
 11
685.00006
 21
189.99989
  0
LINE
  8
0-d
  6
CONTINUOUS
 62
    7
 10
885.00011
 20
89.999806
 11
885.00011
 21
189.99989
  0
LINE
  8
0-d
  6
CONTINUOUS
 62
    7
 10
1015
 20
189.99989
 11
1015
 21
269.99991
  0
LINE
  8
0-d
  6
CONTINUOUS
 62
    7
 10
1550.0004
 20
189.99989
 11
1550.0004
 21
269.99991
  0
LINE
  8
0-d
  6
CONTINUOUS
 62
    7
 10
1585.0002
 20
189.99989
 11
1585.0002
 21
269.99991
  0
LINE
  8
0-8
  6
CONTINUOUS
 62
    7
 10
650.24974
 20
2560.2644
 11
1449.7508
 21
2560.2644
  0
LINE
  8
0-2
  6
CONTINUOUS
 62
    3
 10
650.24974
 20
2362.919
 11
650.24974
 21
2227.2658
  0
LINE
  8
0-2
  6
CONTINUOUS
 62
    3
 10
650.24974
 20
2211.2762
 11
650.24974
 21
2183.9089
  0
LINE
  8
0-2
  6
CONTINUOUS
 62
    3
 10
1449.7508
 20
2362.919
 11
1449.7508
 21
2227.2658
  0
LINE
  8
0-2
  6
CONTINUOUS
 62
    3
 10
794.77464
 20
2167.9198
 11
794.77464
 21
2128.5593
  0
LINE
  8
0-8
  6
CONTINUOUS
 62
    7
 10
650.24974
 20
2410.0469
 11
650.24974
 21
2560.2644
  0
LINE
  8
0-8
  6
CONTINUOUS
 62
    7
 10
1449.7508
 20
2410.0469
 11
1449.7508
 21
2560.2644
  0
LINE
  8
0-2
  6
CONTINUOUS
 62
    3
 10
1449.7498
 20
2211.2762
 11
1449.7498
 21
2183.9089
  0
LINE
  8
0-8
  6
CONTINUOUS
 62
    7
 10
689.99996
 20
1859.2076
 11
689.99996
 21
1793.0852
  0
LINE
  8
0-8
  6
CONTINUOUS
 62
    7
 10
1409.9998
 20
1859.2076
 11
1409.9998
 21
1793.0852
  0
LINE
  8
0-8
  6
CONTINUOUS
 62
    7
 10
459.60044
 20
1942.9198
 11
459.60044
 21
2452.9198
  0
LINE
  8
0-8
  6
CONTINUOUS
 62
    7
 10
689.99996
 20
1793.0852
 11
1409.9998
 21
1793.0852
  0
LINE
  8
0-8
  6
CONTINUOUS
 62
    7
 10
611.94753
 20
1942.9198
 11
459.60044
 21
1942.9198
  0
LINE
  8
0-2
  6
CONTINUOUS
 62
    3
 10
689.99996
 20
1942.9198
 11
689.99996
 21
2002.9198
  0
LINE
  8
0-2
  6
CONTINUOUS
 62
    3
 10
689.99996
 20
1942.9198
 11
1409.9998
 21
1942.9198
  0
LINE
  8
0-2
  6
CONTINUOUS
 62
    3
 10
1409.9998
 20
1942.9198
 11
1409.9998
 21
2002.9198
  0
LINE
  8
0-2
  6
CONTINUOUS
 62
    3
 10
689.99996
 20
2002.9198
 11
1409.9998
 21
2002.9198
  0
LINE
  8
0-2
  6
CONTINUOUS
 62
    3
 10
689.99996
 20
2002.9198
 11
849.38585
 21
2106.1885
  0
LINE
  8
0-2
  6
CONTINUOUS
 62
    3
 10
849.38585
 20
2106.1885
 11
849.38585
 21
2002.9198
  0
LINE
  8
0-2
  6
CONTINUOUS
 62
    3
 10
794.77464
 20
2112.5698
 11
794.77464
 21
2074.659
  0
LINE
  8
0-3
  6
CONTINUOUS
 62
    3
 10
1068.1575
 20
2212.8757
 11
1072.9361
 21
2215.8123
  0
LINE
  8
0-3
  6
CONTINUOUS
 62
    3
 10
1072.9361
 20
2215.8123
 11
1077.6919
 21
2218.8073
  0
LINE
  8
0-3
  6
CONTINUOUS
 62
    3
 10
1077.6919
 20
2218.8073
 11
1082.4029
 21
2221.9147
  0
LINE
  8
0-3
  6
CONTINUOUS
 62
    3
 10
1082.4029
 20
2221.9147
 11
1087.0164
 21
2225.195
  0
LINE
  8
0-3
  6
CONTINUOUS
 62
    3
 10
1087.0164
 20
2225.195
 11
1091.4483
 21
2228.7141
  0
LINE
  8
0-3
  6
CONTINUOUS
 62
    3
 10
1091.4483
 20
2228.7141
 11
1095.6055
 21
2232.5291
  0
LINE
  8
0-3
  6
CONTINUOUS
 62
    3
 10
1095.6055
 20
2232.5291
 11
1099.3973
 21
2236.7086
  0
LINE
  8
0-3
  6
CONTINUOUS
 62
    3
 10
1099.3973
 20
2236.7086
 11
1102.733
 21
2241.3115
  0
LINE
  8
0-3
  6
CONTINUOUS
 62
    3
 10
1102.733
 20
2241.3115
 11
1105.6424
 21
2246.29
  0
LINE
  8
0-3
  6
CONTINUOUS
 62
    3
 10
1105.6424
 20
2246.29
 11
1108.391
 21
2251.3741
  0
LINE
  8
0-3
  6
CONTINUOUS
 62
    3
 10
1108.391
 20
2251.3741
 11
1111.2586
 21
2256.2766
  0
LINE
  8
0-3
  6
CONTINUOUS
 62
    3
 10
1111.2586
 20
2256.2766
 11
1114.5394
 21
2260.7105
  0
LINE
  8
0-3
  6
CONTINUOUS
 62
    3
 10
1114.5394
 20
2260.7105
 11
1118.5105
 21
2264.3865
  0
LINE
  8
0-3
  6
CONTINUOUS
 62
    3
 10
1118.5105
 20
2264.3865
 11
1123.2599
 21
2267.2293
  0
LINE
  8
0-3
  6
CONTINUOUS
 62
    3
 10
1123.2599
 20
2267.2293
 11
1128.4982
 21
2269.5513
  0
LINE
  8
0-3
  6
CONTINUOUS
 62
    3
 10
1128.4982
 20
2269.5513
 11
1130.978
 21
2270.5423
  0
LINE
  8
0-3
  6
CONTINUOUS
 62
    3
 10
1128.4982
 20
2269.5513
 11
1131.9475
 21
2270.0996
  0
LINE
  8
0-3
  6
CONTINUOUS
 62
    3
 10
1131.9475
 20
2270.0996
 11
1135.428
 21
2270.5762
  0
LINE
  8
0-3
  6
CONTINUOUS
 62
    3
 10
1135.428
 20
2270.5762
 11
1138.9659
 21
2270.9176
  0
LINE
  8
0-3
  6
CONTINUOUS
 62
    3
 10
1138.9659
 20
2270.9176
 11
1142.5906
 21
2271.0473
  0
LINE
  8
0-3
  6
CONTINUOUS
 62
    3
 10
1142.5906
 20
2271.0473
 11
1146.3257
 21
2270.9011
  0
LINE
  8
0-3
  6
CONTINUOUS
 62
    3
 10
1146.3257
 20
2270.9011
 11
1150.0631
 21
2270.3564
  0
LINE
  8
0-3
  6
CONTINUOUS
 62
    3
 10
1150.0631
 20
2270.3564
 11
1153.5495
 21
2269.264
  0
LINE
  8
0-3
  6
CONTINUOUS
 62
    3
 10
1153.5495
 20
2269.264
 11
1156.5212
 21
2267.454
  0
LINE
  8
0-3
  6
CONTINUOUS
 62
    3
 10
1156.5212
 20
2267.454
 11
1158.7643
 21
2264.8088
  0
LINE
  8
0-3
  6
CONTINUOUS
 62
    3
 10
1158.7643
 20
2264.8088
 11
1160.5132
 21
2261.6327
  0
LINE
  8
0-3
  6
CONTINUOUS
 62
    3
 10
1066.2814
 20
2199.7495
 11
1071.881
 21
2200.5806
  0
LINE
  8
0-3
  6
CONTINUOUS
 62
    3
 10
1071.881
 20
2200.5806
 11
1077.4464
 21
2201.5214
  0
LINE
  8
0-3
  6
CONTINUOUS
 62
    3
 10
1077.4464
 20
2201.5214
 11
1082.9505
 21
2202.671
  0
LINE
  8
0-3
  6
CONTINUOUS
 62
    3
 10
1082.9505
 20
2202.671
 11
1088.3555
 21
2204.1418
  0
LINE
  8
0-3
  6
CONTINUOUS
 62
    3
 10
1088.3555
 20
2204.1418
 11
1093.6339
 21
2206.0354
  0
LINE
  8
0-3
  6
CONTINUOUS
 62
    3
 10
1093.6339
 20
2206.0354
 11
1098.7557
 21
2208.3782
  0
LINE
  8
0-3
  6
CONTINUOUS
 62
    3
 10
1098.7557
 20
2208.3782
 11
1103.699
 21
2211.1233
  0
LINE
  8
0-3
  6
CONTINUOUS
 62
    3
 10
1103.699
 20
2211.1233
 11
1108.4373
 21
2214.2408
  0
LINE
  8
0-3
  6
CONTINUOUS
 62
    3
 10
1108.4373
 20
2214.2408
 11
1112.9471
 21
2217.6745
  0
LINE
  8
0-3
  6
CONTINUOUS
 62
    3
 10
1112.9471
 20
2217.6745
 11
1117.2078
 21
2221.3911
  0
LINE
  8
0-3
  6
CONTINUOUS
 62
    3
 10
1117.2078
 20
2221.3911
 11
1121.2512
 21
2225.3234
  0
LINE
  8
0-3
  6
CONTINUOUS
 62
    3
 10
1121.2512
 20
2225.3234
 11
1125.1597
 21
2229.3816
  0
LINE
  8
0-3
  6
CONTINUOUS
 62
    3
 10
1125.1597
 20
2229.3816
 11
1129.0183
 21
2233.4778
  0
LINE
  8
0-3
  6
CONTINUOUS
 62
    3
 10
1129.0183
 20
2233.4778
 11
1132.9093
 21
2237.5185
  0
LINE
  8
0-3
  6
CONTINUOUS
 62
    3
 10
1132.9093
 20
2237.5185
 11
1136.9213
 21
2241.4179
  0
LINE
  8
0-3
  6
CONTINUOUS
 62
    3
 10
1136.9213
 20
2241.4179
 11
1141.1312
 21
2245.0973
  0
LINE
  8
0-3
  6
CONTINUOUS
 62
    3
 10
1141.1312
 20
2245.0973
 11
1145.5334
 21
2248.5545
  0
LINE
  8
0-3
  6
CONTINUOUS
 62
    3
 10
1145.5334
 20
2248.5545
 11
1150.0923
 21
2251.842
  0
LINE
  8
0-3
  6
CONTINUOUS
 62
    3
 10
1150.0923
 20
2251.842
 11
1154.76
 21
2255.0013
  0
LINE
  8
0-3
  6
CONTINUOUS
 62
    3
 10
1154.76
 20
2255.0013
 11
1159.5009
 21
2258.0817
  0
LINE
  8
0-3
  6
CONTINUOUS
 62
    3
 10
1159.5009
 20
2258.0817
 11
1162.8577
 21
2260.227
  0
LINE
  8
0-3
  6
CONTINUOUS
 62
    3
 10
1162.8577
 20
2260.227
 11
1168.0952
 21
2262.3995
  0
LINE
  8
0-3
  6
CONTINUOUS
 62
    3
 10
1168.0952
 20
2262.3995
 11
1173.3625
 21
2264.4275
  0
LINE
  8
0-3
  6
CONTINUOUS
 62
    3
 10
1173.3625
 20
2264.4275
 11
1178.6923
 21
2266.169
  0
LINE
  8
0-3
  6
CONTINUOUS
 62
    3
 10
1178.6923
 20
2266.169
 11
1184.1155
 21
2267.4812
  0
LINE
  8
0-3
  6
CONTINUOUS
 62
    3
 10
1184.1155
 20
2267.4812
 11
1189.645
 21
2268.2849
  0
LINE
  8
0-3
  6
CONTINUOUS
 62
    3
 10
1189.645
 20
2268.2849
 11
1195.254
 21
2268.6377
  0
LINE
  8
0-3
  6
CONTINUOUS
 62
    3
 10
1195.254
 20
2268.6377
 11
1200.91
 21
2268.6172
  0
LINE
  8
0-3
  6
CONTINUOUS
 62
    3
 10
1200.91
 20
2268.6172
 11
1206.5825
 21
2268.2987
  0
LINE
  8
0-3
  6
CONTINUOUS
 62
    3
 10
1206.5825
 20
2268.2987
 11
1212.2452
 21
2267.7615
  0
LINE
  8
0-3
  6
CONTINUOUS
 62
    3
 10
1212.2452
 20
2267.7615
 11
1217.8641
 21
2267.0707
  0
LINE
  8
0-3
  6
CONTINUOUS
 62
    3
 10
1217.8641
 20
2267.0707
 11
1223.4342
 21
2266.2108
  0
LINE
  8
0-3
  6
CONTINUOUS
 62
    3
 10
1223.4342
 20
2266.2108
 11
1228.9558
 21
2265.1649
  0
LINE
  8
0-3
  6
CONTINUOUS
 62
    3
 10
1228.9558
 20
2265.1649
 11
1234.4222
 21
2263.8955
  0
LINE
  8
0-3
  6
CONTINUOUS
 62
    3
 10
1234.4222
 20
2263.8955
 11
1239.8367
 21
2262.382
  0
LINE
  8
0-3
  6
CONTINUOUS
 62
    3
 10
1239.8367
 20
2262.382
 11
1245.196
 21
2260.5897
  0
LINE
  8
0-3
  6
CONTINUOUS
 62
    3
 10
1245.196
 20
2260.5897
 11
1250.4796
 21
2258.4934
  0
LINE
  8
0-3
  6
CONTINUOUS
 62
    3
 10
1250.4796
 20
2258.4934
 11
1255.6375
 21
2256.0703
  0
LINE
  8
0-3
  6
CONTINUOUS
 62
    3
 10
1255.6375
 20
2256.0703
 11
1260.5944
 21
2253.3049
  0
LINE
  8
0-3
  6
CONTINUOUS
 62
    3
 10
1260.5944
 20
2253.3049
 11
1265.2866
 21
2250.1718
  0
LINE
  8
0-3
  6
CONTINUOUS
 62
    3
 10
1265.2866
 20
2250.1718
 11
1269.6453
 21
2246.6475
  0
LINE
  8
0-3
  6
CONTINUOUS
 62
    3
 10
1269.6453
 20
2246.6475
 11
1273.6105
 21
2242.7216
  0
LINE
  8
0-3
  6
CONTINUOUS
 62
    3
 10
1273.6105
 20
2242.7216
 11
1277.2333
 21
2238.4525
  0
LINE
  8
0-3
  6
CONTINUOUS
 62
    3
 10
1277.2333
 20
2238.4525
 11
1280.6034
 21
2233.9345
  0
LINE
  8
0-3
  6
CONTINUOUS
 62
    3
 10
1280.6034
 20
2233.9345
 11
1283.8172
 21
2229.2631
  0
LINE
  8
0-3
  6
CONTINUOUS
 62
    3
 10
1283.8172
 20
2229.2631
 11
1285.6848
 21
2226.473
  0
LINE
  8
0-3
  6
CONTINUOUS
 62
    3
 10
1283.8172
 20
2229.2631
 11
1286.3299
 21
2224.06
  0
LINE
  8
0-3
  6
CONTINUOUS
 62
    3
 10
1286.3299
 20
2224.06
 11
1288.709
 21
2218.833
  0
LINE
  8
0-3
  6
CONTINUOUS
 62
    3
 10
1288.709
 20
2218.833
 11
1290.8256
 21
2213.57
  0
LINE
  8
0-3
  6
CONTINUOUS
 62
    3
 10
1290.8256
 20
2213.57
 11
1292.5449
 21
2208.2411
  0
LINE
  8
0-3
  6
CONTINUOUS
 62
    3
 10
1292.5449
 20
2208.2411
 11
1293.7355
 21
2202.8328
  0
LINE
  8
0-3
  6
CONTINUOUS
 62
    3
 10
1293.7355
 20
2202.8328
 11
1294.2715
 21
2197.3224
  0
LINE
  8
0-3
  6
CONTINUOUS
 62
    3
 10
1294.2715
 20
2197.3224
 11
1294.1176
 21
2191.7337
  0
LINE
  8
0-3
  6
CONTINUOUS
 62
    3
 10
1294.1176
 20
2191.7337
 11
1293.3683
 21
2186.1198
  0
LINE
  8
0-3
  6
CONTINUOUS
 62
    3
 10
1293.3683
 20
2186.1198
 11
1292.1203
 21
2180.5462
  0
LINE
  8
0-3
  6
CONTINUOUS
 62
    3
 10
1292.1203
 20
2180.5462
 11
1290.4584
 21
2175.077
  0
LINE
  8
0-3
  6
CONTINUOUS
 62
    3
 10
1290.4584
 20
2175.077
 11
1288.4116
 21
2169.7872
  0
LINE
  8
0-3
  6
CONTINUOUS
 62
    3
 10
1288.4116
 20
2169.7872
 11
1285.9234
 21
2164.7516
  0
LINE
  8
0-3
  6
CONTINUOUS
 62
    3
 10
1285.9234
 20
2164.7516
 11
1282.934
 21
2160.0488
  0
LINE
  8
0-3
  6
CONTINUOUS
 62
    3
 10
1282.934
 20
2160.0488
 11
1279.4508
 21
2155.7059
  0
LINE
  8
0-3
  6
CONTINUOUS
 62
    3
 10
1279.4508
 20
2155.7059
 11
1275.5789
 21
2151.6427
  0
LINE
  8
0-3
  6
CONTINUOUS
 62
    3
 10
1275.5789
 20
2151.6427
 11
1271.44
 21
2147.7748
  0
LINE
  8
0-3
  6
CONTINUOUS
 62
    3
 10
1271.44
 20
2147.7748
 11
1267.1501
 21
2144.0191
  0
LINE
  8
0-3
  6
CONTINUOUS
 62
    3
 10
1267.1501
 20
2144.0191
 11
1265.9936
 21
2143.0254
  0
LINE
  8
0-3
  6
CONTINUOUS
 62
    3
 10
1267.1501
 20
2144.0191
 11
1262.2266
 21
2141.2594
  0
LINE
  8
0-3
  6
CONTINUOUS
 62
    3
 10
1262.2266
 20
2141.2594
 11
1257.2847
 21
2138.5497
  0
LINE
  8
0-3
  6
CONTINUOUS
 62
    3
 10
1257.2847
 20
2138.5497
 11
1252.3015
 21
2135.9392
  0
LINE
  8
0-3
  6
CONTINUOUS
 62
    3
 10
1252.3015
 20
2135.9392
 11
1247.2498
 21
2133.4767
  0
LINE
  8
0-3
  6
CONTINUOUS
 62
    3
 10
1247.2498
 20
2133.4767
 11
1242.1176
 21
2131.2109
  0
LINE
  8
0-3
  6
CONTINUOUS
 62
    3
 10
1242.1176
 20
2131.2109
 11
1236.8758
 21
2129.1903
  0
LINE
  8
0-3
  6
CONTINUOUS
 62
    3
 10
1236.8758
 20
2129.1903
 11
1231.5232
 21
2127.4439
  0
LINE
  8
0-3
  6
CONTINUOUS
 62
    3
 10
1231.5232
 20
2127.4439
 11
1226.082
 21
2125.9783
  0
LINE
  8
0-3
  6
CONTINUOUS
 62
    3
 10
1226.082
 20
2125.9783
 11
1220.573
 21
2124.7908
  0
LINE
  8
0-3
  6
CONTINUOUS
 62
    3
 10
1220.573
 20
2124.7908
 11
1215.0135
 21
2123.8827
  0
LINE
  8
0-3
  6
CONTINUOUS
 62
    3
 10
1215.0135
 20
2123.8827
 11
1209.4296
 21
2123.2473
  0
LINE
  8
0-3
  6
CONTINUOUS
 62
    3
 10
1209.4296
 20
2123.2473
 11
1203.8275
 21
2122.836
  0
LINE
  8
0-3
  6
CONTINUOUS
 62
    3
 10
1203.8275
 20
2122.836
 11
1198.2109
 21
2122.596
  0
LINE
  8
0-3
  6
CONTINUOUS
 62
    3
 10
1198.2109
 20
2122.596
 11
1192.5816
 21
2122.4659
  0
LINE
  8
0-3
  6
CONTINUOUS
 62
    3
 10
1192.5816
 20
2122.4659
 11
1187.7021
 21
2122.3976
  0
LINE
  8
0-3
  6
CONTINUOUS
 62
    3
 10
1124.8037
 20
2121.8802
 11
1130.0682
 21
2119.7495
  0
LINE
  8
0-3
  6
CONTINUOUS
 62
    3
 10
1130.0682
 20
2119.7495
 11
1135.3641
 21
2117.6428
  0
LINE
  8
0-3
  6
CONTINUOUS
 62
    3
 10
1135.3641
 20
2117.6428
 11
1140.7091
 21
2115.7014
  0
LINE
  8
0-3
  6
CONTINUOUS
 62
    3
 10
1140.7091
 20
2115.7014
 11
1146.1055
 21
2114.0831
  0
LINE
  8
0-3
  6
CONTINUOUS
 62
    3
 10
1146.1055
 20
2114.0831
 11
1151.568
 21
2112.9417
  0
LINE
  8
0-3
  6
CONTINUOUS
 62
    3
 10
1151.568
 20
2112.9417
 11
1157.1082
 21
2112.4302
  0
LINE
  8
0-3
  6
CONTINUOUS
 62
    3
 10
1157.1082
 20
2112.4302
 11
1162.7129
 21
2112.5101
  0
LINE
  8
0-3
  6
CONTINUOUS
 62
    3
 10
1162.7129
 20
2112.5101
 11
1168.3585
 21
2112.9266
  0
LINE
  8
0-3
  6
CONTINUOUS
 62
    3
 10
1168.3585
 20
2112.9266
 11
1169.419
 21
2113.0203
  0
LINE
  8
0-3
  6
CONTINUOUS
 62
    3
 10
1168.3585
 20
2112.9266
 11
1172.9745
 21
2113.9562
  0
LINE
  8
0-3
  6
CONTINUOUS
 62
    3
 10
1172.9745
 20
2113.9562
 11
1177.4054
 21
2115.3807
  0
LINE
  8
0-3
  6
CONTINUOUS
 62
    3
 10
1177.4054
 20
2115.3807
 11
1181.4706
 21
2117.5987
  0
LINE
  8
0-3
  6
CONTINUOUS
 62
    3
 10
1181.4706
 20
2117.5987
 11
1184.9365
 21
2120.7813
  0
LINE
  8
0-3
  6
CONTINUOUS
 62
    3
 10
1184.9365
 20
2120.7813
 11
1187.5064
 21
2124.7703
  0
LINE
  8
0-3
  6
CONTINUOUS
 62
    3
 10
1187.5064
 20
2124.7703
 11
1188.9057
 21
2129.3318
  0
LINE
  8
0-3
  6
CONTINUOUS
 62
    3
 10
1188.9057
 20
2129.3318
 11
1189.0091
 21
2134.049
  0
LINE
  8
0-3
  6
CONTINUOUS
 62
    3
 10
1189.0091
 20
2134.049
 11
1187.7608
 21
2138.469
  0
LINE
  8
0-3
  6
CONTINUOUS
 62
    3
 10
1187.7608
 20
2138.469
 11
1185.4277
 21
2142.4894
  0
LINE
  8
0-3
  6
CONTINUOUS
 62
    3
 10
1185.4277
 20
2142.4894
 11
1182.546
 21
2146.3064
  0
LINE
  8
0-3
  6
CONTINUOUS
 62
    3
 10
1074.3819
 20
2192.4728
 11
1080.0557
 21
2191.507
  0
LINE
  8
0-3
  6
CONTINUOUS
 62
    3
 10
1080.0557
 20
2191.507
 11
1085.7106
 21
2190.7041
  0
LINE
  8
0-3
  6
CONTINUOUS
 62
    3
 10
1085.7106
 20
2190.7041
 11
1091.3241
 21
2190.2275
  0
LINE
  8
0-3
  6
CONTINUOUS
 62
    3
 10
1091.3241
 20
2190.2275
 11
1096.8771
 21
2190.2359
  0
LINE
  8
0-3
  6
CONTINUOUS
 62
    3
 10
1096.8771
 20
2190.2359
 11
1102.3483
 21
2190.8892
  0
LINE
  8
0-3
  6
CONTINUOUS
 62
    3
 10
1102.3483
 20
2190.8892
 11
1107.7395
 21
2192.2164
  0
LINE
  8
0-3
  6
CONTINUOUS
 62
    3
 10
1107.7395
 20
2192.2164
 11
1113.0617
 21
2194.0381
  0
LINE
  8
0-3
  6
CONTINUOUS
 62
    3
 10
1113.0617
 20
2194.0381
 11
1118.341
 21
2196.1742
  0
LINE
  8
0-3
  6
CONTINUOUS
 62
    3
 10
1118.341
 20
2196.1742
 11
1123.5875
 21
2198.4314
  0
LINE
  8
0-3
  6
CONTINUOUS
 62
    3
 10
1123.5875
 20
2198.4314
 11
1128.828
 21
2200.6477
  0
LINE
  8
0-3
  6
CONTINUOUS
 62
    3
 10
1128.828
 20
2200.6477
 11
1134.0631
 21
2202.7809
  0
LINE
  8
0-3
  6
CONTINUOUS
 62
    3
 10
1134.0631
 20
2202.7809
 11
1139.2979
 21
2204.8505
  0
LINE
  8
0-3
  6
CONTINUOUS
 62
    3
 10
1139.2979
 20
2204.8505
 11
1144.5271
 21
2206.8686
  0
LINE
  8
0-3
  6
CONTINUOUS
 62
    3
 10
1144.5271
 20
2206.8686
 11
1149.756
 21
2208.8496
  0
LINE
  8
0-3
  6
CONTINUOUS
 62
    3
 10
1149.756
 20
2208.8496
 11
1154.9864
 21
2210.8118
  0
LINE
  8
0-3
  6
CONTINUOUS
 62
    3
 10
1154.9864
 20
2210.8118
 11
1154.9134
 21
2205.9949
  0
LINE
  8
0-3
  6
CONTINUOUS
 62
    3
 10
1154.9134
 20
2205.9949
 11
1154.8441
 21
2201.1834
  0
LINE
  8
0-3
  6
CONTINUOUS
 62
    3
 10
1154.8441
 20
2201.1834
 11
1154.7746
 21
2196.366
  0
LINE
  8
0-3
  6
CONTINUOUS
 62
    3
 10
1154.7746
 20
2196.366
 11
1154.7021
 21
2191.5535
  0
LINE
  8
0-3
  6
CONTINUOUS
 62
    3
 10
1154.7021
 20
2191.5535
 11
1154.6333
 21
2186.7416
  0
LINE
  8
0-3
  6
CONTINUOUS
 62
    3
 10
1154.6333
 20
2186.7416
 11
1154.5637
 21
2181.9242
  0
LINE
  8
0-3
  6
CONTINUOUS
 62
    3
 10
1154.5637
 20
2181.9242
 11
1154.4912
 21
2177.1127
  0
LINE
  8
0-3
  6
CONTINUOUS
 62
    3
 10
1154.4912
 20
2177.1127
 11
1154.4222
 21
2172.2958
  0
LINE
  8
0-3
  6
CONTINUOUS
 62
    3
 10
1154.4222
 20
2172.2958
 11
1154.3505
 21
2167.4828
  0
LINE
  8
0-3
  6
CONTINUOUS
 62
    3
 10
1154.3505
 20
2167.4828
 11
1154.2804
 21
2162.6669
  0
LINE
  8
0-3
  6
CONTINUOUS
 62
    3
 10
1182.546
 20
2146.3064
 11
1181.3951
 21
2147.3207
  0
LINE
  8
0-3
  6
CONTINUOUS
 62
    3
 10
1181.3951
 20
2147.3207
 11
1179.7408
 21
2148.548
  0
LINE
  8
0-3
  6
CONTINUOUS
 62
    3
 10
1179.7408
 20
2148.548
 11
1177.6486
 21
2149.9517
  0
LINE
  8
0-3
  6
CONTINUOUS
 62
    3
 10
1177.6486
 20
2149.9517
 11
1175.1752
 21
2151.4982
  0
LINE
  8
0-3
  6
CONTINUOUS
 62
    3
 10
1175.1752
 20
2151.4982
 11
1172.3557
 21
2153.1568
  0
LINE
  8
0-3
  6
CONTINUOUS
 62
    3
 10
1172.3557
 20
2153.1568
 11
1169.2401
 21
2154.9057
  0
LINE
  8
0-3
  6
CONTINUOUS
 62
    3
 10
1169.2401
 20
2154.9057
 11
1165.8581
 21
2156.7237
  0
LINE
  8
0-3
  6
CONTINUOUS
 62
    3
 10
1165.8581
 20
2156.7237
 11
1162.2356
 21
2158.5908
  0
LINE
  8
0-3
  6
CONTINUOUS
 62
    3
 10
1162.2356
 20
2158.5908
 11
1158.4053
 21
2160.4932
  0
LINE
  8
0-3
  6
CONTINUOUS
 62
    3
 10
1158.4053
 20
2160.4932
 11
1154.3878
 21
2162.416
  0
LINE
  8
0-3
  6
CONTINUOUS
 62
    3
 10
1154.3878
 20
2162.416
 11
1150.1982
 21
2164.3465
  0
LINE
  8
0-3
  6
CONTINUOUS
 62
    3
 10
1150.1982
 20
2164.3465
 11
1145.8623
 21
2166.2798
  0
LINE
  8
0-3
  6
CONTINUOUS
 62
    3
 10
1145.8623
 20
2166.2798
 11
1141.393
 21
2168.2031
  0
LINE
  8
0-3
  6
CONTINUOUS
 62
    3
 10
1141.393
 20
2168.2031
 11
1136.8119
 21
2170.1109
  0
LINE
  8
0-3
  6
CONTINUOUS
 62
    3
 10
1136.8119
 20
2170.1109
 11
1132.1316
 21
2171.9989
  0
LINE
  8
0-3
  6
CONTINUOUS
 62
    3
 10
1132.1316
 20
2171.9989
 11
1127.3706
 21
2173.8579
  0
LINE
  8
0-3
  6
CONTINUOUS
 62
    3
 10
1127.3706
 20
2173.8579
 11
1122.5465
 21
2175.686
  0
LINE
  8
0-3
  6
CONTINUOUS
 62
    3
 10
1122.5465
 20
2175.686
 11
1117.6784
 21
2177.4799
  0
LINE
  8
0-3
  6
CONTINUOUS
 62
    3
 10
1117.6784
 20
2177.4799
 11
1112.787
 21
2179.2375
  0
LINE
  8
0-3
  6
CONTINUOUS
 62
    3
 10
1112.787
 20
2179.2375
 11
1107.8907
 21
2180.9483
  0
LINE
  8
0-3
  6
CONTINUOUS
 62
    3
 10
1107.8907
 20
2180.9483
 11
1103.0087
 21
2182.6125
  0
LINE
  8
0-3
  6
CONTINUOUS
 62
    3
 10
1103.0087
 20
2182.6125
 11
1098.1655
 21
2184.2298
  0
LINE
  8
0-3
  6
CONTINUOUS
 62
    3
 10
1098.1655
 20
2184.2298
 11
1093.3877
 21
2185.7897
  0
LINE
  8
0-3
  6
CONTINUOUS
 62
    3
 10
1093.3877
 20
2185.7897
 11
1088.6928
 21
2187.2929
  0
LINE
  8
0-3
  6
CONTINUOUS
 62
    3
 10
1088.6928
 20
2187.2929
 11
1084.1117
 21
2188.733
  0
LINE
  8
0-3
  6
CONTINUOUS
 62
    3
 10
1084.1117
 20
2188.733
 11
1079.6682
 21
2190.1028
  0
LINE
  8
0-3
  6
CONTINUOUS
 62
    3
 10
1079.6682
 20
2190.1028
 11
1075.387
 21
2191.3969
  0
LINE
  8
0-3
  6
CONTINUOUS
 62
    3
 10
1075.387
 20
2191.3969
 11
1071.2916
 21
2192.6128
  0
LINE
  8
0-3
  6
CONTINUOUS
 62
    3
 10
1071.2916
 20
2192.6128
 11
1067.407
 21
2193.7394
  0
LINE
  8
0-3
  6
CONTINUOUS
 62
    3
 10
1154.9864
 20
2210.8118
 11
1155.0532
 21
2210.8345
  0
LINE
  8
0-3
  6
CONTINUOUS
 62
    3
 10
1078.4357
 20
2117.1766
 11
1078.4357
 21
2106.1222
  0
LINE
  8
0-3
  6
CONTINUOUS
 62
    3
 10
1078.4357
 20
2106.1222
 11
1112.0276
 21
2106.1222
  0
LINE
  8
0-3
  6
CONTINUOUS
 62
    3
 10
1112.0276
 20
2117.1766
 11
1112.0276
 21
2106.1222
  0
LINE
  8
0-3
  6
CONTINUOUS
 62
    3
 10
1078.4357
 20
2117.1766
 11
1112.0276
 21
2117.1766
  0
LINE
  8
0-3
  6
CONTINUOUS
 62
    3
 10
1062.8712
 20
2223.7499
 11
1062.8712
 21
2187.4809
  0
LINE
  8
0-3
  6
CONTINUOUS
 62
    3
 10
1068.1575
 20
2212.8757
 11
1067.6087
 21
2212.5651
  0
LINE
  8
0-3
  6
CONTINUOUS
 62
    3
 10
1067.6087
 20
2212.5651
 11
1067.047
 21
2212.239
  0
LINE
  8
0-3
  6
CONTINUOUS
 62
    3
 10
1067.047
 20
2212.239
 11
1066.4786
 21
2211.8978
  0
LINE
  8
0-3
  6
CONTINUOUS
 62
    3
 10
1066.4786
 20
2211.8978
 11
1065.8976
 21
2211.54
  0
LINE
  8
0-3
  6
CONTINUOUS
 62
    3
 10
1065.8976
 20
2211.54
 11
1065.3055
 21
2211.1706
  0
LINE
  8
0-3
  6
CONTINUOUS
 62
    3
 10
1065.3055
 20
2211.1706
 11
1064.7032
 21
2210.7823
  0
LINE
  8
0-3
  6
CONTINUOUS
 62
    3
 10
1064.7032
 20
2210.7823
 11
1064.0906
 21
2210.381
  0
LINE
  8
0-3
  6
CONTINUOUS
 62
    3
 10
1064.0906
 20
2210.381
 11
1063.4661
 21
2209.9618
  0
LINE
  8
0-3
  6
CONTINUOUS
 62
    3
 10
1063.4661
 20
2209.9618
 11
1062.8329
 21
2209.5303
  0
LINE
  8
0-3
  6
CONTINUOUS
 62
    3
 10
1066.2814
 20
2199.7495
 11
1065.8746
 21
2199.6713
  0
LINE
  8
0-3
  6
CONTINUOUS
 62
    3
 10
1065.8746
 20
2199.6713
 11
1065.4733
 21
2199.5988
  0
LINE
  8
0-3
  6
CONTINUOUS
 62
    3
 10
1065.4733
 20
2199.5988
 11
1065.0791
 21
2199.527
  0
LINE
  8
0-3
  6
CONTINUOUS
 62
    3
 10
1065.0791
 20
2199.527
 11
1064.6889
 21
2199.4565
  0
LINE
  8
0-3
  6
CONTINUOUS
 62
    3
 10
1064.6889
 20
2199.4565
 11
1064.3071
 21
2199.3897
  0
LINE
  8
0-3
  6
CONTINUOUS
 62
    3
 10
1064.3071
 20
2199.3897
 11
1063.929
 21
2199.3271
  0
LINE
  8
0-3
  6
CONTINUOUS
 62
    3
 10
1063.929
 20
2199.3271
 11
1063.5579
 21
2199.2687
  0
LINE
  8
0-3
  6
CONTINUOUS
 62
    3
 10
1063.5579
 20
2199.2687
 11
1063.1911
 21
2199.2113
  0
LINE
  8
0-3
  6
CONTINUOUS
 62
    3
 10
1063.1911
 20
2199.2113
 11
1062.8329
 21
2199.1556
  0
LINE
  8
0-3
  6
CONTINUOUS
 62
    3
 10
1074.3819
 20
2192.4728
 11
1072.8356
 21
2192.8009
  0
LINE
  8
0-3
  6
CONTINUOUS
 62
    3
 10
1072.8356
 20
2192.8009
 11
1071.3517
 21
2193.1179
  0
LINE
  8
0-3
  6
CONTINUOUS
 62
    3
 10
1071.3517
 20
2193.1179
 11
1069.9359
 21
2193.4244
  0
LINE
  8
0-3
  6
CONTINUOUS
 62
    3
 10
1069.9359
 20
2193.4244
 11
1068.5863
 21
2193.7219
  0
LINE
  8
0-3
  6
CONTINUOUS
 62
    3
 10
1068.5863
 20
2193.7219
 11
1067.3021
 21
2194.0079
  0
LINE
  8
0-3
  6
CONTINUOUS
 62
    3
 10
1067.3021
 20
2194.0079
 11
1066.0857
 21
2194.2858
  0
LINE
  8
0-3
  6
CONTINUOUS
 62
    3
 10
1066.0857
 20
2194.2858
 11
1064.9349
 21
2194.552
  0
LINE
  8
0-3
  6
CONTINUOUS
 62
    3
 10
1064.9349
 20
2194.552
 11
1063.8506
 21
2194.8094
  0
LINE
  8
0-3
  6
CONTINUOUS
 62
    3
 10
1063.8506
 20
2194.8094
 11
1062.8329
 21
2195.0541
  0
LINE
  8
0-3
  6
CONTINUOUS
 62
    3
 10
1067.407
 20
2193.7394
 11
1066.802
 21
2193.9037
  0
LINE
  8
0-3
  6
CONTINUOUS
 62
    3
 10
1066.802
 20
2193.9037
 11
1066.2213
 21
2194.0628
  0
LINE
  8
0-3
  6
CONTINUOUS
 62
    3
 10
1066.2213
 20
2194.0628
 11
1065.6658
 21
2194.2187
  0
LINE
  8
0-3
  6
CONTINUOUS
 62
    3
 10
1065.6658
 20
2194.2187
 11
1065.1363
 21
2194.3694
  0
LINE
  8
0-3
  6
CONTINUOUS
 62
    3
 10
1065.1363
 20
2194.3694
 11
1064.634
 21
2194.5142
  0
LINE
  8
0-3
  6
CONTINUOUS
 62
    3
 10
1064.634
 20
2194.5142
 11
1064.1542
 21
2194.652
  0
LINE
  8
0-3
  6
CONTINUOUS
 62
    3
 10
1064.1542
 20
2194.652
 11
1063.7006
 21
2194.7873
  0
LINE
  8
0-3
  6
CONTINUOUS
 62
    3
 10
1063.7006
 20
2194.7873
 11
1063.2733
 21
2194.9185
  0
LINE
  8
0-3
  6
CONTINUOUS
 62
    3
 10
1063.2733
 20
2194.9185
 11
1062.8712
 21
2195.0464
  0
LINE
  8
0-3
  6
CONTINUOUS
 62
    3
 10
1057.9165
 20
2228.7076
 11
1050.0006
 21
2228.7076
  0
LINE
  8
0-3
  6
CONTINUOUS
 62
    3
 10
1057.9165
 20
2152.5543
 11
1050.0006
 21
2152.5543
  0
LINE
  8
0-3
  6
CONTINUOUS
 62
    3
 10
1054.1353
 20
2178.3746
 11
1057.0064
 21
2175.1337
  0
LINE
  8
0-3
  6
CONTINUOUS
 62
    3
 10
1057.0064
 20
2175.1337
 11
1060.162
 21
2171.767
  0
LINE
  8
0-3
  6
CONTINUOUS
 62
    3
 10
1060.162
 20
2171.767
 11
1063.5559
 21
2168.3135
  0
LINE
  8
0-3
  6
CONTINUOUS
 62
    3
 10
1063.5559
 20
2168.3135
 11
1067.145
 21
2164.8093
  0
LINE
  8
0-3
  6
CONTINUOUS
 62
    3
 10
1067.145
 20
2164.8093
 11
1070.8875
 21
2161.2877
  0
LINE
  8
0-3
  6
CONTINUOUS
 62
    3
 10
1070.8875
 20
2161.2877
 11
1074.7463
 21
2157.7797
  0
LINE
  8
0-3
  6
CONTINUOUS
 62
    3
 10
1074.7463
 20
2157.7797
 11
1078.6853
 21
2154.3129
  0
LINE
  8
0-3
  6
CONTINUOUS
 62
    3
 10
1078.6853
 20
2154.3129
 11
1082.6713
 21
2150.9128
  0
LINE
  8
0-3
  6
CONTINUOUS
 62
    3
 10
1082.6713
 20
2150.9128
 11
1086.6742
 21
2147.6025
  0
LINE
  8
0-3
  6
CONTINUOUS
 62
    3
 10
1086.6742
 20
2147.6025
 11
1090.6666
 21
2144.4024
  0
LINE
  8
0-3
  6
CONTINUOUS
 62
    3
 10
1090.6666
 20
2144.4024
 11
1094.6229
 21
2141.3304
  0
LINE
  8
0-3
  6
CONTINUOUS
 62
    3
 10
1094.6229
 20
2141.3304
 11
1098.5211
 21
2138.4007
  0
LINE
  8
0-3
  6
CONTINUOUS
 62
    3
 10
1098.5211
 20
2138.4007
 11
1102.3408
 21
2135.6269
  0
LINE
  8
0-3
  6
CONTINUOUS
 62
    3
 10
1102.3408
 20
2135.6269
 11
1106.0653
 21
2133.0177
  0
LINE
  8
0-3
  6
CONTINUOUS
 62
    3
 10
1106.0653
 20
2133.0177
 11
1109.6804
 21
2130.5802
  0
LINE
  8
0-3
  6
CONTINUOUS
 62
    3
 10
1109.6804
 20
2130.5802
 11
1113.1735
 21
2128.3198
  0
LINE
  8
0-3
  6
CONTINUOUS
 62
    3
 10
1113.1735
 20
2128.3198
 11
1116.536
 21
2126.2378
  0
LINE
  8
0-3
  6
CONTINUOUS
 62
    3
 10
1116.536
 20
2126.2378
 11
1119.7606
 21
2124.334
  0
LINE
  8
0-3
  6
CONTINUOUS
 62
    3
 10
1119.7606
 20
2124.334
 11
1122.8437
 21
2122.6042
  0
LINE
  8
0-3
  6
CONTINUOUS
 62
    3
 10
1122.8437
 20
2122.6042
 11
1123.0706
 21
2122.505
  0
LINE
  8
0-3
  6
CONTINUOUS
 62
    3
 10
1123.0706
 20
2122.505
 11
1123.2953
 21
2122.4104
  0
LINE
  8
0-3
  6
CONTINUOUS
 62
    3
 10
1123.2953
 20
2122.4104
 11
1123.518
 21
2122.3204
  0
LINE
  8
0-3
  6
CONTINUOUS
 62
    3
 10
1123.518
 20
2122.3204
 11
1123.7377
 21
2122.2355
  0
LINE
  8
0-3
  6
CONTINUOUS
 62
    3
 10
1123.7377
 20
2122.2355
 11
1123.9554
 21
2122.1553
  0
LINE
  8
0-3
  6
CONTINUOUS
 62
    3
 10
1123.9554
 20
2122.1553
 11
1124.171
 21
2122.0794
  0
LINE
  8
0-3
  6
CONTINUOUS
 62
    3
 10
1124.171
 20
2122.0794
 11
1124.3845
 21
2122.0079
  0
LINE
  8
0-3
  6
CONTINUOUS
 62
    3
 10
1124.3845
 20
2122.0079
 11
1124.5951
 21
2121.9425
  0
LINE
  8
0-3
  6
CONTINUOUS
 62
    3
 10
1124.5951
 20
2121.9425
 11
1124.8037
 21
2121.8802
  0
LINE
  8
0-3
  6
CONTINUOUS
 62
    3
 10
1054.1353
 20
2178.3746
 11
1055.833
 21
2179.2177
  0
LINE
  8
0-3
  6
CONTINUOUS
 62
    3
 10
1055.833
 20
2179.2177
 11
1057.3481
 21
2180.1025
  0
LINE
  8
0-3
  6
CONTINUOUS
 62
    3
 10
1057.3481
 20
2180.1025
 11
1058.682
 21
2181.0302
  0
LINE
  8
0-3
  6
CONTINUOUS
 62
    3
 10
1058.682
 20
2181.0302
 11
1059.8344
 21
2181.9996
  0
LINE
  8
0-3
  6
CONTINUOUS
 62
    3
 10
1059.8344
 20
2181.9996
 11
1060.8051
 21
2183.0119
  0
LINE
  8
0-3
  6
CONTINUOUS
 62
    3
 10
1060.8051
 20
2183.0119
 11
1061.5942
 21
2184.0658
  0
LINE
  8
0-3
  6
CONTINUOUS
 62
    3
 10
1061.5942
 20
2184.0658
 11
1062.2014
 21
2185.1622
  0
LINE
  8
0-3
  6
CONTINUOUS
 62
    3
 10
1062.2014
 20
2185.1622
 11
1062.6272
 21
2186.3001
  0
LINE
  8
0-3
  6
CONTINUOUS
 62
    3
 10
1062.6272
 20
2186.3001
 11
1062.8712
 21
2187.4809
  0
LINE
  8
0-3
  6
CONTINUOUS
 62
    3
 10
1062.8727
 20
2157.5118
 11
1062.8727
 21
2169.0086
  0
LINE
  8
0-3
  6
CONTINUOUS
 62
    3
 10
1127.2417
 20
2200.2921
 11
1117.4819
 21
2221.8038
  0
LINE
  8
0-3
  6
CONTINUOUS
 62
    3
 10
1089.6655
 20
2083.4456
 11
1050.0006
 21
2083.4456
  0
LINE
  8
0-3
  6
CONTINUOUS
 62
    3
 10
1096.2959
 20
2090.076
 11
1096.2959
 21
2106.1222
  0
LINE
  8
0-3
  6
CONTINUOUS
 62
    3
 10
1086.3505
 20
2077.4835
 11
1050.0006
 21
2077.4835
  0
LINE
  8
0-3
  6
CONTINUOUS
 62
    3
 10
1089.6655
 20
2080.7992
 11
1089.6655
 21
2083.4456
  0
LINE
  8
0-3
  6
CONTINUOUS
 62
    3
 10
1096.2959
 20
2138.5165
 11
1096.2959
 21
2117.1766
  0
LINE
  8
0-3
  6
CONTINUOUS
 62
    3
 10
1088.1103
 20
2146.7021
 11
1050.0006
 21
2146.7021
  0
LINE
  8
0-2
  6
CONTINUOUS
 62
    3
 10
1049.9999
 20
2274.9296
 11
1305.2276
 21
2274.9296
  0
LINE
  8
0-2
  6
CONTINUOUS
 62
    3
 10
1305.2247
 20
2227.2658
 11
1449.7508
 21
2227.2658
  0
LINE
  8
0-2
  6
CONTINUOUS
 62
    3
 10
1305.2247
 20
2211.2762
 11
1449.7508
 21
2211.2762
  0
LINE
  8
0-2
  6
CONTINUOUS
 62
    3
 10
1305.2247
 20
2183.9094
 11
1449.7508
 21
2183.9094
  0
LINE
  8
0-2
  6
CONTINUOUS
 62
    3
 10
1305.2247
 20
2167.9198
 11
1449.7508
 21
2167.9198
  0
LINE
  8
0-2
  6
CONTINUOUS
 62
    3
 10
650.24974
 20
2227.2658
 11
1049.9999
 21
2227.2658
  0
LINE
  8
0-2
  6
CONTINUOUS
 62
    3
 10
650.24974
 20
2211.2762
 11
1049.9999
 21
2211.2762
  0
LINE
  8
0-2
  6
CONTINUOUS
 62
    3
 10
650.24974
 20
2183.9094
 11
1049.9999
 21
2183.9094
  0
LINE
  8
0-2
  6
CONTINUOUS
 62
    3
 10
650.24974
 20
2167.9198
 11
1049.9999
 21
2167.9198
  0
LINE
  8
0-2
  6
CONTINUOUS
 62
    3
 10
1305.2247
 20
2112.5698
 11
1305.2247
 21
2074.659
  0
LINE
  8
0-2
  6
CONTINUOUS
 62
    3
 10
1305.2247
 20
2274.9296
 11
1305.2247
 21
2128.5593
  0
LINE
  8
0-2
  6
CONTINUOUS
 62
    3
 10
1234.9421
 20
2128.5593
 11
1305.2262
 21
2128.5593
  0
LINE
  8
0-2
  6
CONTINUOUS
 62
    3
 10
794.77464
 20
2128.5593
 11
1049.9999
 21
2128.5593
  0
LINE
  8
0-2
  6
CONTINUOUS
 62
    3
 10
794.77464
 20
2112.5698
 11
1049.9999
 21
2112.5698
  0
LINE
  8
0-2
  6
CONTINUOUS
 62
    3
 10
1112.0276
 20
2112.5698
 11
1305.2262
 21
2112.5698
  0
LINE
  8
0-2
  6
CONTINUOUS
 62
    3
 10
631.74322
 20
2358.6479
 11
1049.9999
 21
2452.9198
  0
LINE
  8
0-2
  6
CONTINUOUS
 62
    3
 10
1467.3809
 20
2358.8498
 11
1049.9999
 21
2452.9198
  0
LINE
  8
0-2
  6
CONTINUOUS
 62
    3
 10
1049.9999
 20
2405.9691
 11
1250.0933
 21
2405.9691
  0
LINE
  8
0-2
  6
CONTINUOUS
 62
    3
 10
650.24974
 20
2362.919
 11
1049.5617
 21
2362.919
  0
LINE
  8
0-8
  6
CONTINUOUS
 62
    7
 10
1615.1891
 20
1942.9198
 11
1615.1891
 21
2002.9198
  0
LINE
  8
0-8
  6
CONTINUOUS
 62
    7
 10
1483.8243
 20
1942.9198
 11
1615.1891
 21
1942.9198
  0
LINE
  8
0-8
  6
CONTINUOUS
 62
    7
 10
1483.8243
 20
2002.9198
 11
1615.1891
 21
2002.9198
  0
LINE
  8
0-8
  6
CONTINUOUS
 62
    7
 10
1615.1891
 20
2002.9198
 11
1615.1891
 21
2167.9198
  0
LINE
  8
0-8
  6
CONTINUOUS
 62
    7
 10
1483.8243
 20
2167.9198
 11
1615.1891
 21
2167.9198
  0
LINE
  8
0-8
  6
CONTINUOUS
 62
    7
 10
1615.1891
 20
2167.9198
 11
1615.1891
 21
2362.9197
  0
LINE
  8
0-8
  6
CONTINUOUS
 62
    7
 10
1483.8243
 20
2362.9197
 11
1615.1891
 21
2362.9197
  0
LINE
  8
0-8
  6
CONTINUOUS
 62
    7
 10
1615.1891
 20
2362.9197
 11
1615.1891
 21
2452.9198
  0
LINE
  8
0-8
  6
CONTINUOUS
 62
    7
 10
1376.2301
 20
2002.9198
 11
1376.2301
 21
2290.9194
  0
LINE
  8
0-8
  6
CONTINUOUS
 62
    7
 10
1328.1807
 20
2002.9198
 11
1376.2301
 21
2002.9198
  0
LINE
  8
0-8
  6
CONTINUOUS
 62
    7
 10
1328.1807
 20
2290.9194
 11
1376.2301
 21
2290.9194
  0
LINE
  8
0-2
  6
CONTINUOUS
 62
    3
 10
1049.9999
 20
2290.9194
 11
1305.2262
 21
2290.9194
  0
LINE
  8
0-8
  6
CONTINUOUS
 62
    7
 10
730.28341
 20
2452.9198
 11
459.60044
 21
2452.9198
  0
LINE
  8
0-2
  6
CONTINUOUS
 62
    3
 10
1250.0933
 20
2405.9691
 11
1049.9999
 21
2305.8156
  0
LINE
  8
0-2
  6
CONTINUOUS
 62
    3
 10
1165.604
 20
2362.919
 11
1449.7498
 21
2362.919
  0
LINE
  8
0-1
  6
CENTER2
 62
    7
 10
1049.9999
 20
2452.9198
 11
1049.9999
 21
1942.9198
  0
LINE
  8
0-8
  6
CONTINUOUS
 62
    7
 10
1483.8243
 20
2452.9198
 11
1615.1891
 21
2452.9198
  0
LINE
  8
0-2
  6
CONTINUOUS
 62
    3
 10
1305.2247
 20
2112.5698
 11
1305.2247
 21
2002.9198
  0
LINE
  8
0-2
  6
CONTINUOUS
 62
    3
 10
1409.9998
 20
2002.9198
 11
1303.4661
 21
2071.9447
  0
LINE
  8
0-2
  6
CONTINUOUS
 62
    3
 10
1049.9999
 20
2290.9194
 11
1305.2262
 21
2290.9194
  0
LINE
  8
0-4
  6
CONTINUOUS
 62
    6
 10
1049.9999
 20
2290.9194
 11
1280.2548
 21
2401.0247
  0
ARC
  8
0-2
  6
CONTINUOUS
 62
    3
 10
794.77464
 20
2120.5643
 40
7.9946302
 50
90
 51
270
  0
ARC
  8
0-2
  6
CONTINUOUS
 62
    3
 10
1305.2247
 20
2120.5643
 40
7.9946302
 50
270
 51
90
  0
ARC
  8
0-2
  6
CONTINUOUS
 62
    3
 10
650.24974
 20
2219.2713
 40
7.9946302
 50
90
 51
270
  0
ARC
  8
0-2
  6
CONTINUOUS
 62
    3
 10
650.24974
 20
2175.9144
 40
7.9946302
 50
90
 51
270
  0
ARC
  8
0-2
  6
CONTINUOUS
 62
    3
 10
1449.7498
 20
2219.2713
 40
7.9946302
 50
270
 51
90
  0
ARC
  8
0-2
  6
CONTINUOUS
 62
    3
 10
1449.7498
 20
2175.9144
 40
7.9946302
 50
270
 51
90
  0
ARC
  8
0-3
  6
CONTINUOUS
 62
    3
 10
1057.9165
 20
2157.5118
 40
4.956173
 50
270
 51
0
  0
ARC
  8
0-3
  6
CONTINUOUS
 62
    3
 10
1057.9165
 20
2223.7499
 40
4.956173
 50
0
 51
90
  0
ARC
  8
0-3
  6
CONTINUOUS
 62
    3
 10
1089.6655
 20
2090.076
 40
6.6303755
 50
270
 51
0
  0
ARC
  8
0-3
  6
CONTINUOUS
 62
    3
 10
1086.3505
 20
2080.7992
 40
3.3151878
 50
270
 51
0
  0
ARC
  8
0-2
  6
CONTINUOUS
 62
    3
 10
1305.2262
 20
2282.9247
 40
7.9946302
 50
270
 51
90
  0
ARC
  8
0-4
  6
DASHED3
 62
    7
 10
1049.9999
 20
2290.9194
 40
255.22627
 50
359.99993
 51
25.55661
  0
TEXT
  8
0-d
 10
254.9998
 20
157.4999
 40
25
 41
1
 50
0
  1
図
  0
TEXT
  8
0-d
 10
254.9998
 20
97.499963
 40
25
 41
1
 50
0
  1
番
  0
TEXT
  8
0-d
 10
655.00046
 20
157.4999
 40
25
 41
1
 50
0
  1
承
  0
TEXT
  8
0-d
 10
655.00046
 20
97.499963
 40
25
 41
1
 50
0
  1
認
  0
TEXT
  8
0-d
 10
1020.0003
 20
237.49994
 40
25
 41
1
 50
0
  1
尺
  0
TEXT
  8
0-d
 10
1020.0003
 20
197.49978
 40
25
 41
1
 50
0.0000762
  1
度
  0
TEXT
  8
0-d
 10
855.00014
 20
157.4999
 40
25
 41
1
 50
0
  1
製
  0
TEXT
  8
0-d
 10
855.00014
 20
97.499963
 40
25
 41
1
 50
0
  1
図
  0
TEXT
  8
0-d
 10
1555.0001
 20
237.49994
 40
25
 41
1
 50
0
  1
日
  0
TEXT
  8
0-d
 10
1555.0001
 20
197.49978
 40
25
 41
1
 50
0.0000762
  1
付
  0
TEXT
  8
0-d
 10
1111.4263
 20
163.48226
 40
20
 41
1
 50
0
  1
株式
  0
TEXT
  8
0-d
 10
1111.4263
 20
141.85179
 40
20
 41
1
 50
0.0000152
  1
会社
  0
TEXT
  8
0-d
 10
1174.2247
 20
143.24712
 40
40
 41
1
 50
0
  1
スズキベンチレーター
  0
TEXT
  8
0-d
 10
1237.9182
 20
94.024183
 40
20
 41
1
 50
0
  1
TEL(054)296-7000  FAX(054)296-7001
  0
TEXT
  8
0-d
 10
1084.349
 20
210.10065
 40
40
 41
1
 50
0
  1
１／１０
  0
TEXT
  8
0-8
 10
1028.3212
 20
2584.2505
 40
30
 41
1
 50
359.99971
  1
800
  0
TEXT
  8
0-8
 10
1014.3297
 20
1809.0754
 40
30
 41
1
 50
359.99987
  1
720*720
  0
TEXT
  8
0-8
 10
435.61547
 20
2187.5982
 40
30
 41
1
 50
90
  1
510
  0
TEXT
  8
0-8
 10
1368.85
 20
2130.7118
 40
30
 41
1
 50
90
  1
285
  0
TEXT
  8
0-8
 10
1607.8094
 20
2398.8967
 40
30
 41
1
 50
90
  1
90
  0
TEXT
  8
0-8
 10
1607.8094
 20
2250.6372
 40
30
 41
1
 50
90
  1
195
  0
TEXT
  8
0-8
 10
1607.8094
 20
2069.2121
 40
30
 41
1
 50
90
  1
165
  0
TEXT
  8
0-8
 10
1607.8094
 20
1955.8724
 40
30
 41
1
 50
90
  1
60
  0
TEXT
  8
0-d
 10
255.00005
 20
2792.7014
 40
50
 41
1
 50
0
  1
ＳＴ－５０　架台型（ダンパー付）断面
  0
TEXT
  8
0-d
 10
280.67567
 20
215.81082
 40
30
 41
1
 50
0
  1
ＳＴ－５０　架台型（ダンパー付）断面
  0
TEXT
  8
0-d
 10
308.45927
 20
140.30214
 40
30
 41
1
 50
0
  1
50-C03b
  0
TEXT
  8
0-d
 10
1235.6792
 20
118.64593
 40
20
 41
1
 50
0
  1
〒421-2114　静岡市葵区安倍口新田１５２番地
  0
POINT
  8
0-8
 62
    2
 10
459.60044
 20
2452.9198
  0
POINT
  8
0-8
 62
    2
 10
650.24974
 20
2560.2644
  0
POINT
  8
0-8
 62
    2
 10
1449.7508
 20
2560.2644
  0
POINT
  8
0-8
 62
    2
 10
689.99996
 20
1793.0852
  0
POINT
  8
0-8
 62
    2
 10
1409.9998
 20
1793.0852
  0
POINT
  8
0-8
 62
    2
 10
459.60044
 20
1942.9198
  0
POINT
  8
0-8
 62
    2
 10
1615.1891
 20
1942.9198
  0
POINT
  8
0-8
 62
    2
 10
1615.1891
 20
2002.9198
  0
POINT
  8
0-8
 62
    2
 10
1615.1891
 20
2167.9198
  0
POINT
  8
0-8
 62
    2
 10
1615.1891
 20
2362.9197
  0
POINT
  8
0-8
 62
    2
 10
1615.1891
 20
2452.9198
  0
POINT
  8
0-8
 62
    2
 10
1376.2301
 20
2002.9198
  0
POINT
  8
0-8
 62
    2
 10
1376.2301
 20
2290.9194
  0
ENDSEC
  0
EOF
