  0
SECTION
  2
HEADER
  9
$EXTMIN
 10
0
 20
0
  9
$EXTMAX
 10
4200
 20
2970
  0
ENDSEC
  0
SECTION
  2
TABLES
  0
TABLE
  2
LTYPE
 70
     9
  0
LTYPE
  2
CONTINUOUS
 70
    64
  3
実線
 72
    65
 73
     0
 40
0.0
  0
LTYPE
  2
DASHED1
 70
    64
  3
--  --  --  --  --  --  --  --  
 72
    65
 73
     2
 40
2.5
 49
1.25
 49
-1.25
  0
LTYPE
  2
DASHED2
 70
    64
  3
----    ----    ----    ----    
 72
    65
 73
     2
 40
5.0
 49
2.5
 49
-2.5
  0
LTYPE
  2
DASHED3
 70
    64
  3
------  ------  ------  ------  
 72
    65
 73
     2
 40
5.0
 49
3.75
 49
-1.25
  0
LTYPE
  2
CENTER1
 70
    64
  3
----- - ----- - ----- - ----- - 
 72
    65
 73
     4
 40
10.0
 49
6.25
 49
-1.25
 49
1.25
 49
-1.25
  0
LTYPE
  2
CENTER2
 70
    64
  3
----------  --  ----------  --  
 72
    65
 73
     4
 40
20.0
 49
12.5
 49
-2.5
 49
2.5
 49
-2.5
  0
LTYPE
  2
PHANTOM1
 70
    64
  3
--- - - --- - - --- - - --- - - 
 72
    65
 73
     6
 40
10.0
 49
3.25
 49
-1.25
 49
1.25
 49
-1.25
 49
1.25
 49
-1.25
  0
LTYPE
  2
PHANTOM2
 70
    64
  3
--------  -  -  --------  -  -  
 72
    65
 73
     6
 40
20.0
 49
10.0
 49
-2.5
 49
1.25
 49
-2.5
 49
1.25
 49
-2.5
  0
LTYPE
  2
DOT
 70
    64
  3
-   -   -   -   -   -   -   -   
 72
    65
 73
     2
 40
2.5
 49
0.625
 49
-1.875
  0
ENDTAB
  0
TABLE
  2
STYLE
 70
    1
  0
STYLE
  2
STANDARD
 70
    64
 40
0.0
 41
1.0
 42
0.0
 50
0.0
 71
     0
  3
TXT
  4
BIGFONT
  0
ENDTAB
  0
TABLE
  2
LAYER
 70
    4
  0
LAYER
  2
0-2
 70
   64
 62
    7
  6
CONTINUOUS
  0
LAYER
  2
0-8
 70
   64
 62
    7
  6
CONTINUOUS
  0
LAYER
  2
0-d
 70
   64
 62
    7
  6
CONTINUOUS
  0
LAYER
  2
ADD_LINE
 70
   64
 62
    7
  6
CONTINUOUS
  0
ENDTAB
  0
ENDSEC
  0
SECTION
  2
ENTITIES
  0
LINE
  8
0-d
  6
CONTINUOUS
 62
    7
 10
250.00004
 20
2757.7013
 11
1850.0001
 21
2757.7013
  0
LINE
  8
0-d
  6
CONTINUOUS
 62
    7
 10
250.00004
 20
2767.7016
 11
1850.0001
 21
2767.7016
  0
LINE
  8
0-d
  6
CONTINUOUS
 62
    7
 10
249.99967
 20
189.99989
 11
1850.0003
 21
189.99989
  0
LINE
  8
0-d
  6
CONTINUOUS
 62
    7
 10
249.99967
 20
89.999806
 11
249.99967
 21
269.99991
  0
LINE
  8
0-d
  6
CONTINUOUS
 62
    7
 10
249.99967
 20
89.999806
 11
1850.0003
 21
89.999806
  0
LINE
  8
0-d
  6
CONTINUOUS
 62
    7
 10
1850.0003
 20
269.99991
 11
1850.0003
 21
89.999806
  0
LINE
  8
0-d
  6
CONTINUOUS
 62
    7
 10
249.99967
 20
269.99991
 11
1850.0003
 21
269.99991
  0
LINE
  8
0-d
  6
CONTINUOUS
 62
    7
 10
1050
 20
269.99991
 11
1050
 21
89.999806
  0
LINE
  8
0-d
  6
CONTINUOUS
 62
    7
 10
650.00019
 20
89.999806
 11
650.00019
 21
189.99989
  0
LINE
  8
0-d
  6
CONTINUOUS
 62
    7
 10
1050
 20
189.99989
 11
1050
 21
269.99991
  0
LINE
  8
0-d
  6
CONTINUOUS
 62
    7
 10
849.99975
 20
89.999806
 11
849.99975
 21
189.99989
  0
LINE
  8
0-d
  6
CONTINUOUS
 62
    7
 10
285.00002
 20
89.999806
 11
285.00002
 21
189.99989
  0
LINE
  8
0-d
  6
CONTINUOUS
 62
    7
 10
685.00006
 20
89.999806
 11
685.00006
 21
189.99989
  0
LINE
  8
0-d
  6
CONTINUOUS
 62
    7
 10
885.00011
 20
89.999806
 11
885.00011
 21
189.99989
  0
LINE
  8
0-d
  6
CONTINUOUS
 62
    7
 10
1015
 20
189.99989
 11
1015
 21
269.99991
  0
LINE
  8
0-d
  6
CONTINUOUS
 62
    7
 10
1550.0004
 20
189.99989
 11
1550.0004
 21
269.99991
  0
LINE
  8
0-d
  6
CONTINUOUS
 62
    7
 10
1585.0002
 20
189.99989
 11
1585.0002
 21
269.99991
  0
LINE
  8
0-8
  6
CONTINUOUS
 62
    7
 10
650.24974
 20
2560.2644
 11
1449.7508
 21
2560.2644
  0
LINE
  8
0-2
  6
CONTINUOUS
 62
    3
 10
650.24974
 20
2362.919
 11
650.24974
 21
2227.2658
  0
LINE
  8
0-2
  6
CONTINUOUS
 62
    3
 10
650.24974
 20
2211.2762
 11
650.24974
 21
2183.9089
  0
LINE
  8
0-2
  6
CONTINUOUS
 62
    3
 10
794.77464
 20
2167.9198
 11
794.77464
 21
2128.5593
  0
LINE
  8
0-8
  6
CONTINUOUS
 62
    7
 10
650.24974
 20
2410.0469
 11
650.24974
 21
2560.2644
  0
LINE
  8
0-8
  6
CONTINUOUS
 62
    7
 10
1449.7508
 20
2410.0469
 11
1449.7508
 21
2560.2644
  0
LINE
  8
0-8
  6
CONTINUOUS
 62
    7
 10
689.99996
 20
1859.2076
 11
689.99996
 21
1793.0852
  0
LINE
  8
0-8
  6
CONTINUOUS
 62
    7
 10
1409.9998
 20
1859.2076
 11
1409.9998
 21
1793.0852
  0
LINE
  8
0-8
  6
CONTINUOUS
 62
    7
 10
459.60044
 20
1942.9198
 11
459.60044
 21
2452.9198
  0
LINE
  8
0-8
  6
CONTINUOUS
 62
    7
 10
689.99996
 20
1793.0852
 11
1409.9998
 21
1793.0852
  0
LINE
  8
0-8
  6
CONTINUOUS
 62
    7
 10
611.94753
 20
1942.9198
 11
459.60044
 21
1942.9198
  0
LINE
  8
0-2
  6
CONTINUOUS
 62
    3
 10
689.99996
 20
1942.9198
 11
689.99996
 21
2002.9198
  0
LINE
  8
0-2
  6
CONTINUOUS
 62
    3
 10
689.99996
 20
1942.9198
 11
1409.9998
 21
1942.9198
  0
LINE
  8
0-2
  6
CONTINUOUS
 62
    3
 10
689.99996
 20
2002.9198
 11
849.38585
 21
2106.1885
  0
LINE
  8
0-2
  6
CONTINUOUS
 62
    3
 10
849.38585
 20
2106.1885
 11
849.38585
 21
2002.9198
  0
LINE
  8
0-2
  6
CONTINUOUS
 62
    3
 10
650.24974
 20
2227.2658
 11
1049.9999
 21
2227.2658
  0
LINE
  8
0-2
  6
CONTINUOUS
 62
    3
 10
650.24974
 20
2211.2762
 11
1049.9999
 21
2211.2762
  0
LINE
  8
0-2
  6
CONTINUOUS
 62
    3
 10
650.24974
 20
2183.9094
 11
1049.9999
 21
2183.9094
  0
LINE
  8
0-2
  6
CONTINUOUS
 62
    3
 10
650.24974
 20
2167.9198
 11
1049.9999
 21
2167.9198
  0
LINE
  8
0-2
  6
CONTINUOUS
 62
    3
 10
794.77464
 20
2128.5593
 11
1049.9999
 21
2128.5593
  0
LINE
  8
0-2
  6
CONTINUOUS
 62
    3
 10
794.77464
 20
2112.5698
 11
1049.9999
 21
2112.5698
  0
LINE
  8
0-2
  6
CONTINUOUS
 62
    3
 10
631.74322
 20
2358.6479
 11
1049.9999
 21
2452.9198
  0
LINE
  8
0-2
  6
CONTINUOUS
 62
    3
 10
650.24974
 20
2362.919
 11
1049.5617
 21
2362.919
  0
LINE
  8
0-8
  6
CONTINUOUS
 62
    7
 10
1615.1891
 20
1942.9198
 11
1615.1891
 21
2002.9198
  0
LINE
  8
0-8
  6
CONTINUOUS
 62
    7
 10
1483.8243
 20
1942.9198
 11
1615.1891
 21
1942.9198
  0
LINE
  8
0-8
  6
CONTINUOUS
 62
    7
 10
1483.8243
 20
2002.9198
 11
1615.1891
 21
2002.9198
  0
LINE
  8
0-8
  6
CONTINUOUS
 62
    7
 10
1615.1891
 20
2002.9198
 11
1615.1891
 21
2167.9198
  0
LINE
  8
0-8
  6
CONTINUOUS
 62
    7
 10
1483.8243
 20
2167.9198
 11
1615.1891
 21
2167.9198
  0
LINE
  8
0-8
  6
CONTINUOUS
 62
    7
 10
1615.1891
 20
2167.9198
 11
1615.1891
 21
2362.9197
  0
LINE
  8
0-8
  6
CONTINUOUS
 62
    7
 10
1483.8243
 20
2362.9197
 11
1615.1891
 21
2362.9197
  0
LINE
  8
0-8
  6
CONTINUOUS
 62
    7
 10
1615.1891
 20
2362.9197
 11
1615.1891
 21
2452.9198
  0
LINE
  8
0-8
  6
CONTINUOUS
 62
    7
 10
730.28341
 20
2452.9198
 11
459.60044
 21
2452.9198
  0
LINE
  8
0-8
  6
CONTINUOUS
 62
    7
 10
1483.8243
 20
2452.9198
 11
1615.1891
 21
2452.9198
  0
LINE
  8
0-2
  6
CENTER2
 62
    7
 10
1049.9999
 20
2526.0722
 11
1049.9999
 21
1872.0916
  0
LINE
  8
0-2
  6
CONTINUOUS
 62
    3
 10
1449.7501
 20
2362.919
 11
1449.7501
 21
2227.2658
  0
LINE
  8
0-2
  6
CONTINUOUS
 62
    3
 10
1449.7501
 20
2211.2762
 11
1449.7501
 21
2183.9089
  0
LINE
  8
0-2
  6
CONTINUOUS
 62
    3
 10
1305.2252
 20
2167.9198
 11
1305.2252
 21
2128.5593
  0
LINE
  8
0-2
  6
CONTINUOUS
 62
    3
 10
1409.9998
 20
1942.9198
 11
1409.9998
 21
2002.9198
  0
LINE
  8
0-2
  6
CONTINUOUS
 62
    3
 10
1409.9998
 20
2002.9198
 11
1250.614
 21
2106.1885
  0
LINE
  8
0-2
  6
CONTINUOUS
 62
    3
 10
1250.614
 20
2106.1885
 11
1250.614
 21
2002.9198
  0
LINE
  8
0-2
  6
CONTINUOUS
 62
    3
 10
1449.7501
 20
2227.2658
 11
1049.9999
 21
2227.2658
  0
LINE
  8
0-2
  6
CONTINUOUS
 62
    3
 10
1449.7501
 20
2211.2762
 11
1049.9999
 21
2211.2762
  0
LINE
  8
0-2
  6
CONTINUOUS
 62
    3
 10
1449.7501
 20
2183.9094
 11
1049.9999
 21
2183.9094
  0
LINE
  8
0-2
  6
CONTINUOUS
 62
    3
 10
1449.7501
 20
2167.9198
 11
1049.9999
 21
2167.9198
  0
LINE
  8
0-2
  6
CONTINUOUS
 62
    3
 10
1305.2252
 20
2128.5593
 11
1049.9999
 21
2128.5593
  0
LINE
  8
0-2
  6
CONTINUOUS
 62
    3
 10
1305.2252
 20
2112.5698
 11
1049.9999
 21
2112.5698
  0
LINE
  8
0-2
  6
CONTINUOUS
 62
    3
 10
1468.2566
 20
2358.6479
 11
1049.9999
 21
2452.9198
  0
LINE
  8
0-2
  6
CONTINUOUS
 62
    3
 10
1449.7501
 20
2362.919
 11
1050.4381
 21
2362.919
  0
LINE
  8
0-2
  6
CONTINUOUS
 62
    3
 10
794.77464
 20
2112.5698
 11
794.77464
 21
2070.805
  0
LINE
  8
0-2
  6
CONTINUOUS
 62
    3
 10
1305.2252
 20
2112.5698
 11
1305.2252
 21
2070.805
  0
LINE
  8
0-2
  6
CONTINUOUS
 62
    3
 10
689.99996
 20
2002.9198
 11
1409.9998
 21
2002.9198
  0
ARC
  8
0-2
  6
CONTINUOUS
 62
    3
 10
794.77464
 20
2120.5643
 40
7.9946302
 50
90
 51
270
  0
ARC
  8
0-2
  6
CONTINUOUS
 62
    3
 10
650.24974
 20
2219.2713
 40
7.9946302
 50
90
 51
270
  0
ARC
  8
0-2
  6
CONTINUOUS
 62
    3
 10
650.24974
 20
2175.9144
 40
7.9946302
 50
90
 51
270
  0
ARC
  8
0-2
  6
CONTINUOUS
 62
    3
 10
1305.2252
 20
2120.5643
 40
7.9946302
 50
270
 51
90
  0
ARC
  8
0-2
  6
CONTINUOUS
 62
    3
 10
1449.7501
 20
2219.2713
 40
7.9946302
 50
270
 51
90
  0
ARC
  8
0-2
  6
CONTINUOUS
 62
    3
 10
1449.7501
 20
2175.9144
 40
7.9946302
 50
270
 51
90
  0
TEXT
  8
0-d
 10
254.9998
 20
157.4999
 40
25
 41
1
 50
0
  1
図
  0
TEXT
  8
0-d
 10
254.9998
 20
97.499963
 40
25
 41
1
 50
0
  1
番
  0
TEXT
  8
0-d
 10
655.00046
 20
157.4999
 40
25
 41
1
 50
0
  1
承
  0
TEXT
  8
0-d
 10
655.00046
 20
97.499963
 40
25
 41
1
 50
0
  1
認
  0
TEXT
  8
0-d
 10
1020.0003
 20
237.49994
 40
25
 41
1
 50
0
  1
尺
  0
TEXT
  8
0-d
 10
1020.0003
 20
197.49978
 40
25
 41
1
 50
0.0000762
  1
度
  0
TEXT
  8
0-d
 10
855.00014
 20
157.4999
 40
25
 41
1
 50
0
  1
製
  0
TEXT
  8
0-d
 10
855.00014
 20
97.499963
 40
25
 41
1
 50
0
  1
図
  0
TEXT
  8
0-d
 10
1555.0001
 20
237.49994
 40
25
 41
1
 50
0
  1
日
  0
TEXT
  8
0-d
 10
1555.0001
 20
197.49978
 40
25
 41
1
 50
0.0000762
  1
付
  0
TEXT
  8
0-d
 10
1111.4263
 20
163.48226
 40
20
 41
1
 50
0
  1
株式
  0
TEXT
  8
0-d
 10
1111.4263
 20
141.85179
 40
20
 41
1
 50
0.0000152
  1
会社
  0
TEXT
  8
0-d
 10
1174.2247
 20
143.24712
 40
40
 41
1
 50
0
  1
スズキベンチレーター
  0
TEXT
  8
0-d
 10
1237.9182
 20
94.024183
 40
20
 41
1
 50
0
  1
TEL(054)296-7000  FAX(054)296-7001
  0
TEXT
  8
0-d
 10
1084.349
 20
210.10065
 40
40
 41
1
 50
0
  1
１／１０
  0
TEXT
  8
0-8
 10
1028.3212
 20
2584.2505
 40
30
 41
1
 50
359.99971
  1
800
  0
TEXT
  8
0-8
 10
1014.3297
 20
1809.0754
 40
30
 41
1
 50
359.99987
  1
720*720
  0
TEXT
  8
0-8
 10
435.61547
 20
2187.5982
 40
30
 41
1
 50
90
  1
510
  0
TEXT
  8
0-8
 10
1607.8094
 20
2398.8967
 40
30
 41
1
 50
90
  1
90
  0
TEXT
  8
0-8
 10
1607.8094
 20
2250.6372
 40
30
 41
1
 50
90
  1
195
  0
TEXT
  8
0-8
 10
1607.8094
 20
2069.2121
 40
30
 41
1
 50
90
  1
165
  0
TEXT
  8
0-8
 10
1607.8094
 20
1955.8724
 40
30
 41
1
 50
90
  1
60
  0
TEXT
  8
0-d
 10
255.00005
 20
2792.7014
 40
50
 41
1
 50
0
  1
ＳＴ－５０　架台型立面
  0
TEXT
  8
0-d
 10
280.67567
 20
215.81082
 40
30
 41
1
 50
0
  1
ＳＴ－５０　架台型立面
  0
TEXT
  8
0-d
 10
308.45927
 20
140.30214
 40
30
 41
1
 50
0
  1
50-C01b
  0
TEXT
  8
0-d
 10
1235.6792
 20
118.64593
 40
20
 41
1
 50
0
  1
〒421-2114　静岡市葵区安倍口新田１５２番地
  0
POINT
  8
0-8
 62
    2
 10
459.60044
 20
2452.9198
  0
POINT
  8
0-8
 62
    2
 10
650.24974
 20
2560.2644
  0
POINT
  8
0-8
 62
    2
 10
1449.7508
 20
2560.2644
  0
POINT
  8
0-8
 62
    2
 10
689.99996
 20
1793.0852
  0
POINT
  8
0-8
 62
    2
 10
1409.9998
 20
1793.0852
  0
POINT
  8
0-8
 62
    2
 10
459.60044
 20
1942.9198
  0
POINT
  8
0-8
 62
    2
 10
1615.1891
 20
1942.9198
  0
POINT
  8
0-8
 62
    2
 10
1615.1891
 20
2002.9198
  0
POINT
  8
0-8
 62
    2
 10
1615.1891
 20
2167.9198
  0
POINT
  8
0-8
 62
    2
 10
1615.1891
 20
2362.9197
  0
POINT
  8
0-8
 62
    2
 10
1615.1891
 20
2452.9198
  0
ENDSEC
  0
EOF
