  0
SECTION
  2
HEADER
  9
$EXTMIN
 10
0
 20
0
  9
$EXTMAX
 10
4200
 20
2970
  0
ENDSEC
  0
SECTION
  2
TABLES
  0
TABLE
  2
LTYPE
 70
     9
  0
LTYPE
  2
CONTINUOUS
 70
    64
  3
実線
 72
    65
 73
     0
 40
0.0
  0
LTYPE
  2
DASHED1
 70
    64
  3
--  --  --  --  --  --  --  --  
 72
    65
 73
     2
 40
2.5
 49
1.25
 49
-1.25
  0
LTYPE
  2
DASHED2
 70
    64
  3
----    ----    ----    ----    
 72
    65
 73
     2
 40
5.0
 49
2.5
 49
-2.5
  0
LTYPE
  2
DASHED3
 70
    64
  3
------  ------  ------  ------  
 72
    65
 73
     2
 40
5.0
 49
3.75
 49
-1.25
  0
LTYPE
  2
CENTER1
 70
    64
  3
----- - ----- - ----- - ----- - 
 72
    65
 73
     4
 40
10.0
 49
6.25
 49
-1.25
 49
1.25
 49
-1.25
  0
LTYPE
  2
CENTER2
 70
    64
  3
----------  --  ----------  --  
 72
    65
 73
     4
 40
20.0
 49
12.5
 49
-2.5
 49
2.5
 49
-2.5
  0
LTYPE
  2
PHANTOM1
 70
    64
  3
--- - - --- - - --- - - --- - - 
 72
    65
 73
     6
 40
10.0
 49
3.25
 49
-1.25
 49
1.25
 49
-1.25
 49
1.25
 49
-1.25
  0
LTYPE
  2
PHANTOM2
 70
    64
  3
--------  -  -  --------  -  -  
 72
    65
 73
     6
 40
20.0
 49
10.0
 49
-2.5
 49
1.25
 49
-2.5
 49
1.25
 49
-2.5
  0
LTYPE
  2
DOT
 70
    64
  3
-   -   -   -   -   -   -   -   
 72
    65
 73
     2
 40
2.5
 49
0.625
 49
-1.875
  0
ENDTAB
  0
TABLE
  2
STYLE
 70
    1
  0
STYLE
  2
STANDARD
 70
    64
 40
0.0
 41
1.0
 42
0.0
 50
0.0
 71
     0
  3
TXT
  4
BIGFONT
  0
ENDTAB
  0
TABLE
  2
LAYER
 70
    4
  0
LAYER
  2
0-2
 70
   64
 62
    7
  6
CONTINUOUS
  0
LAYER
  2
0-8
 70
   64
 62
    7
  6
CONTINUOUS
  0
LAYER
  2
0-d
 70
   64
 62
    7
  6
CONTINUOUS
  0
LAYER
  2
ADD_LINE
 70
   64
 62
    7
  6
CONTINUOUS
  0
ENDTAB
  0
ENDSEC
  0
SECTION
  2
ENTITIES
  0
LINE
  8
0-d
  6
CONTINUOUS
 62
    7
 10
250.00004
 20
2757.7013
 11
1850.0001
 21
2757.7013
  0
LINE
  8
0-d
  6
CONTINUOUS
 62
    7
 10
250.00004
 20
2767.7016
 11
1850.0001
 21
2767.7016
  0
LINE
  8
0-d
  6
CONTINUOUS
 62
    7
 10
249.99967
 20
189.99989
 11
1850.0003
 21
189.99989
  0
LINE
  8
0-d
  6
CONTINUOUS
 62
    7
 10
249.99967
 20
89.999806
 11
249.99967
 21
269.99991
  0
LINE
  8
0-d
  6
CONTINUOUS
 62
    7
 10
249.99967
 20
89.999806
 11
1850.0003
 21
89.999806
  0
LINE
  8
0-d
  6
CONTINUOUS
 62
    7
 10
1850.0003
 20
269.99991
 11
1850.0003
 21
89.999806
  0
LINE
  8
0-d
  6
CONTINUOUS
 62
    7
 10
249.99967
 20
269.99991
 11
1850.0003
 21
269.99991
  0
LINE
  8
0-d
  6
CONTINUOUS
 62
    7
 10
1050
 20
269.99991
 11
1050
 21
89.999806
  0
LINE
  8
0-d
  6
CONTINUOUS
 62
    7
 10
650.00019
 20
89.999806
 11
650.00019
 21
189.99989
  0
LINE
  8
0-d
  6
CONTINUOUS
 62
    7
 10
1050
 20
189.99989
 11
1050
 21
269.99991
  0
LINE
  8
0-d
  6
CONTINUOUS
 62
    7
 10
849.99975
 20
89.999806
 11
849.99975
 21
189.99989
  0
LINE
  8
0-d
  6
CONTINUOUS
 62
    7
 10
285.00002
 20
89.999806
 11
285.00002
 21
189.99989
  0
LINE
  8
0-d
  6
CONTINUOUS
 62
    7
 10
685.00006
 20
89.999806
 11
685.00006
 21
189.99989
  0
LINE
  8
0-d
  6
CONTINUOUS
 62
    7
 10
885.00011
 20
89.999806
 11
885.00011
 21
189.99989
  0
LINE
  8
0-d
  6
CONTINUOUS
 62
    7
 10
1015
 20
189.99989
 11
1015
 21
269.99991
  0
LINE
  8
0-d
  6
CONTINUOUS
 62
    7
 10
1550.0004
 20
189.99989
 11
1550.0004
 21
269.99991
  0
LINE
  8
0-d
  6
CONTINUOUS
 62
    7
 10
1585.0002
 20
189.99989
 11
1585.0002
 21
269.99991
  0
LINE
  8
0-2
  6
CONTINUOUS
 62
    3
 10
632.37208
 20
2520.9395
 11
1050
 21
2615.1691
  0
LINE
  8
0-2
  6
CONTINUOUS
 62
    3
 10
1467.6272
 20
2520.6008
 11
1050
 21
2615.1691
  0
LINE
  8
0-8
  6
CONTINUOUS
 62
    7
 10
609.30154
 20
2145.169
 11
234.00063
 21
2145.169
  0
LINE
  8
0-2
  6
CONTINUOUS
 62
    3
 10
649.99995
 20
2525.169
 11
1450.0001
 21
2524.8303
  0
LINE
  8
0-2
  6
CONTINUOUS
 62
    3
 10
649.99995
 20
2367.4682
 11
1450.0001
 21
2367.4682
  0
LINE
  8
0-2
  6
CONTINUOUS
 62
    3
 10
649.99995
 20
2383.068
 11
1450.0001
 21
2383.068
  0
LINE
  8
0-2
  6
CONTINUOUS
 62
    3
 10
649.99995
 20
2340.7689
 11
1450.0001
 21
2340.7689
  0
LINE
  8
0-2
  6
CONTINUOUS
 62
    3
 10
649.99995
 20
2525.169
 11
649.99995
 21
2383.068
  0
LINE
  8
0-2
  6
CONTINUOUS
 62
    3
 10
649.99995
 20
2367.4682
 11
649.99995
 21
2340.7684
  0
LINE
  8
0-2
  6
CONTINUOUS
 62
    3
 10
1450.0001
 20
2524.8303
 11
1450.0001
 21
2383.068
  0
LINE
  8
0-2
  6
CONTINUOUS
 62
    3
 10
792.50005
 20
2215.3686
 11
1307.501
 21
2215.3686
  0
LINE
  8
0-2
  6
CONTINUOUS
 62
    3
 10
792.50005
 20
2230.9682
 11
1307.501
 21
2230.9682
  0
LINE
  8
0-2
  6
CONTINUOUS
 62
    3
 10
792.50005
 20
2160.7686
 11
1307.501
 21
2160.7686
  0
LINE
  8
0-2
  6
CONTINUOUS
 62
    3
 10
792.50005
 20
2145.169
 11
1307.501
 21
2145.169
  0
LINE
  8
0-2
  6
CONTINUOUS
 62
    3
 10
792.50005
 20
2215.3686
 11
792.50005
 21
2160.7683
  0
LINE
  8
0-2
  6
CONTINUOUS
 62
    3
 10
1307.5
 20
2215.3686
 11
1307.5
 21
2160.7683
  0
LINE
  8
0-2
  6
CONTINUOUS
 62
    3
 10
792.50005
 20
2325.1688
 11
792.50005
 21
2230.9682
  0
LINE
  8
0-2
  6
CONTINUOUS
 62
    3
 10
1307.5
 20
2325.1688
 11
1307.5
 21
2230.9682
  0
LINE
  8
0-8
  6
CONTINUOUS
 62
    7
 10
650.00007
 20
2571.1475
 11
650.00007
 21
2697.7011
  0
LINE
  8
0-8
  6
CONTINUOUS
 62
    7
 10
738.0816
 20
2615.1691
 11
234.00063
 21
2615.1691
  0
LINE
  8
0-2
  6
CONTINUOUS
 62
    3
 10
1307.5
 20
2215.3686
 11
1307.5
 21
2160.7683
  0
LINE
  8
0-2
  6
CONTINUOUS
 62
    3
 10
1449.9989
 20
2367.4682
 11
1449.9989
 21
2340.7684
  0
LINE
  8
0-2
  6
CONTINUOUS
 62
    3
 10
649.99995
 20
2325.1691
 11
1450.0001
 21
2325.1691
  0
LINE
  8
0-8
  6
CONTINUOUS
 62
    7
 10
234.00063
 20
1617.9469
 11
234.00063
 21
1929.9464
  0
LINE
  8
0-8
  6
CONTINUOUS
 62
    7
 10
609.30154
 20
1617.9469
 11
234.00063
 21
1617.9469
  0
LINE
  8
0-8
  6
CONTINUOUS
 62
    7
 10
609.30154
 20
1857.9469
 11
234.00063
 21
1857.9469
  0
LINE
  8
0-8
  6
CONTINUOUS
 62
    7
 10
609.30154
 20
1929.9464
 11
234.00063
 21
1929.9464
  0
LINE
  8
0-2
  6
CONTINUOUS
 62
    3
 10
749.99979
 20
577
 11
749.99979
 21
1176.9999
  0
LINE
  8
0-2
  6
CONTINUOUS
 62
    3
 10
749.99979
 20
1176.9999
 11
1350.0003
 21
1176.9999
  0
LINE
  8
0-2
  6
CONTINUOUS
 62
    3
 10
1350.0003
 20
1176.9999
 11
1350.0003
 21
576.99994
  0
LINE
  8
0-2
  6
CONTINUOUS
 62
    3
 10
1350.0003
 20
576.99994
 11
749.99979
 21
577
  0
LINE
  8
0-8
  6
CONTINUOUS
 62
    7
 10
749.99979
 20
1513.6989
 11
1350.0003
 21
1513.6989
  0
LINE
  8
0-2
  6
CONTINUOUS
 62
    3
 10
749.99979
 20
1176.9999
 11
832.73154
 21
1094.2681
  0
LINE
  8
0-2
  6
CONTINUOUS
 62
    3
 10
1350.0003
 20
1176.9999
 11
1267.2685
 21
1094.2681
  0
LINE
  8
0-2
  6
CONTINUOUS
 62
    3
 10
749.99979
 20
577
 11
832.73154
 21
659.7312
  0
LINE
  8
0-2
  6
CONTINUOUS
 62
    3
 10
1350.0003
 20
576.99994
 11
1267.2685
 21
659.73114
  0
LINE
  8
0-2
  6
CONTINUOUS
 62
    3
 10
797.50007
 20
1857.9469
 11
1302.4997
 21
1857.9469
  0
LINE
  8
0-8
  6
CONTINUOUS
 62
    7
 10
749.99979
 20
1589.412
 11
749.99979
 21
1513.6989
  0
LINE
  8
0-8
  6
CONTINUOUS
 62
    7
 10
1350.0003
 20
1589.412
 11
1350.0003
 21
1513.6989
  0
LINE
  8
0-2
  6
CONTINUOUS
 62
    3
 10
797.50007
 20
1914.3463
 11
1302.4997
 21
1914.3463
  0
LINE
  8
0-2
  6
CONTINUOUS
 62
    3
 10
797.50007
 20
1898.7462
 11
797.50007
 21
1857.9469
  0
LINE
  8
0-2
  6
CONTINUOUS
 62
    3
 10
797.50007
 20
1898.7462
 11
1302.4997
 21
1898.7462
  0
LINE
  8
0-2
  6
CONTINUOUS
 62
    3
 10
1302.4997
 20
1898.7462
 11
1302.4997
 21
1857.9469
  0
LINE
  8
0-2
  6
CONTINUOUS
 62
    3
 10
1302.5
 20
1929.9464
 11
1302.5
 21
1914.3463
  0
LINE
  8
0-8
  6
CONTINUOUS
 62
    7
 10
525.50554
 20
1705.7236
 11
634.39392
 21
1705.7236
  0
LINE
  8
0-8
  6
CONTINUOUS
 62
    7
 10
525.50554
 20
1705.7236
 11
634.39392
 21
1738.3888
  0
LINE
  8
0-8
  6
CONTINUOUS
 62
    7
 10
634.39392
 20
1705.7236
 11
634.39392
 21
1738.3888
  0
LINE
  8
0-8
  6
CONTINUOUS
 62
    7
 10
792.50005
 20
2114.2313
 11
792.50005
 21
2069.7217
  0
LINE
  8
0-8
  6
CONTINUOUS
 62
    7
 10
1307.501
 20
2114.2313
 11
1307.501
 21
2069.7217
  0
LINE
  8
0-8
  6
CONTINUOUS
 62
    7
 10
797.50007
 20
1954.4996
 11
797.50007
 21
1986.3215
  0
LINE
  8
0-8
  6
CONTINUOUS
 62
    7
 10
1302.5
 20
1954.4996
 11
1302.5
 21
1986.3215
  0
LINE
  8
0-8
  6
CONTINUOUS
 62
    7
 10
792.50005
 20
2069.7217
 11
1307.501
 21
2069.7217
  0
LINE
  8
0-2
  6
CONTINUOUS
 62
    3
 10
797.50007
 20
1857.9469
 11
750.00003
 21
1616.8322
  0
LINE
  8
0-2
  6
CONTINUOUS
 62
    3
 10
1302.4997
 20
1857.9469
 11
1350
 21
1616.6451
  0
LINE
  8
0-2
  6
CONTINUOUS
 62
    3
 10
499.99994
 20
1426.9997
 11
1600.0001
 21
1426.9997
  0
LINE
  8
0-8
  6
CONTINUOUS
 62
    7
 10
811.69569
 20
793.52915
 11
1288.3044
 21
960.47013
  0
LINE
  8
0-2
  6
CONTINUOUS
 62
    3
 10
797.50007
 20
1929.9464
 11
797.50007
 21
1914.3463
  0
LINE
  8
0-2
  6
CONTINUOUS
 62
    3
 10
797.50007
 20
1929.9464
 11
1302.5
 21
1929.9464
  0
LINE
  8
0-8
  6
CONTINUOUS
 62
    7
 10
234.00063
 20
326.99969
 11
234.00063
 21
1426.9997
  0
LINE
  8
0-8
  6
CONTINUOUS
 62
    7
 10
440.13335
 20
326.99969
 11
234.00063
 21
326.99969
  0
LINE
  8
0-8
  6
CONTINUOUS
 62
    7
 10
440.13335
 20
1426.9997
 11
234.00063
 21
1426.9997
  0
LINE
  8
0-8
  6
CONTINUOUS
 62
    7
 10
1818.5118
 20
576.99994
 11
1818.5118
 21
1176.9999
  0
LINE
  8
0-8
  6
CONTINUOUS
 62
    7
 10
1688.782
 20
576.99994
 11
1818.5118
 21
576.99994
  0
LINE
  8
0-8
  6
CONTINUOUS
 62
    7
 10
1688.782
 20
1176.9999
 11
1818.5118
 21
1176.9999
  0
LINE
  8
0-8
  6
CENTER2
 62
    7
 10
1050
 20
316.99968
 11
1050
 21
2615.1688
  0
LINE
  8
0-8
  6
CENTER2
 62
    7
 10
499.99994
 20
876.99989
 11
1600.0001
 21
876.99989
  0
LINE
  8
0-8
  6
CONTINUOUS
 62
    7
 10
797.50007
 20
1986.3215
 11
1302.5
 21
1986.3215
  0
LINE
  8
0-8
  6
CONTINUOUS
 62
    7
 10
650.00007
 20
2697.7011
 11
1450
 21
2697.7011
  0
LINE
  8
0-8
  6
CONTINUOUS
 62
    7
 10
1450
 20
2571.1475
 11
1450
 21
2697.7011
  0
LINE
  8
0-2
  6
CONTINUOUS
 62
    3
 10
1600
 20
1426.9996
 11
1600
 21
326.99969
  0
LINE
  8
0-2
  6
CONTINUOUS
 62
    3
 10
500.00006
 20
1426.9996
 11
500.00006
 21
326.99969
  0
LINE
  8
0-2
  6
CONTINUOUS
 62
    3
 10
499.99994
 20
326.99993
 11
1600
 21
326.99993
  0
LINE
  8
0-2
  6
CONTINUOUS
 62
    3
 10
1600
 20
1541.4925
 11
1050
 21
1706.8286
  0
LINE
  8
0-2
  6
CONTINUOUS
 62
    3
 10
1050
 20
1706.8286
 11
500.00006
 21
1541.8354
  0
LINE
  8
0-8
  6
CONTINUOUS
 62
    7
 10
234.00063
 20
2145.169
 11
234.00063
 21
2615.1691
  0
ARC
  8
0-2
  6
CONTINUOUS
 62
    3
 10
792.50005
 20
2152.9685
 40
7.7996399
 50
90
 51
270
  0
ARC
  8
0-2
  6
CONTINUOUS
 62
    3
 10
792.50005
 20
2223.1682
 40
7.7996399
 50
90
 51
270
  0
ARC
  8
0-2
  6
CONTINUOUS
 62
    3
 10
1307.5
 20
2152.9685
 40
7.7996399
 50
270
 51
90
  0
ARC
  8
0-2
  6
CONTINUOUS
 62
    3
 10
1307.5
 20
2223.1682
 40
7.7996399
 50
270
 51
90
  0
ARC
  8
0-2
  6
CONTINUOUS
 62
    3
 10
649.99995
 20
2375.2682
 40
7.7996399
 50
90
 51
270
  0
ARC
  8
0-2
  6
CONTINUOUS
 62
    3
 10
649.99995
 20
2332.9689
 40
7.7996399
 50
90
 51
270
  0
ARC
  8
0-2
  6
CONTINUOUS
 62
    3
 10
1449.9989
 20
2375.2682
 40
7.7996399
 50
270
 51
90
  0
ARC
  8
0-2
  6
CONTINUOUS
 62
    3
 10
1449.9989
 20
2332.9689
 40
7.7996399
 50
270
 51
90
  0
ARC
  8
0-2
  6
CONTINUOUS
 62
    3
 10
1302.5
 20
1906.5463
 40
7.7996399
 50
90
 51
270
  0
ARC
  8
0-2
  6
CONTINUOUS
 62
    3
 10
797.49982
 20
1906.5463
 40
7.7996399
 50
270
 51
90
  0
CIRCLE
  8
0-2
  6
CONTINUOUS
 62
    3
 10
1050
 20
876.99977
 40
252.49999
  0
TEXT
  8
0-d
 10
254.9998
 20
157.4999
 40
25
 41
1
 50
0
  1
図
  0
TEXT
  8
0-d
 10
254.9998
 20
97.499963
 40
25
 41
1
 50
0
  1
番
  0
TEXT
  8
0-d
 10
655.00046
 20
157.4999
 40
25
 41
1
 50
0
  1
承
  0
TEXT
  8
0-d
 10
655.00046
 20
97.499963
 40
25
 41
1
 50
0
  1
認
  0
TEXT
  8
0-d
 10
1020.0003
 20
237.49994
 40
25
 41
1
 50
0
  1
尺
  0
TEXT
  8
0-d
 10
1020.0003
 20
197.49978
 40
25
 41
1
 50
0.0000762
  1
度
  0
TEXT
  8
0-d
 10
855.00014
 20
157.4999
 40
25
 41
1
 50
0
  1
製
  0
TEXT
  8
0-d
 10
855.00014
 20
97.499963
 40
25
 41
1
 50
0
  1
図
  0
TEXT
  8
0-d
 10
1555.0001
 20
237.49994
 40
25
 41
1
 50
0
  1
日
  0
TEXT
  8
0-d
 10
1555.0001
 20
197.49978
 40
25
 41
1
 50
0.0000762
  1
付
  0
TEXT
  8
0-d
 10
1111.4263
 20
163.48226
 40
20
 41
1
 50
0
  1
株式
  0
TEXT
  8
0-d
 10
1111.4263
 20
141.85179
 40
20
 41
1
 50
0.0000152
  1
会社
  0
TEXT
  8
0-d
 10
1174.2247
 20
143.24712
 40
40
 41
1
 50
0
  1
スズキベンチレーター
  0
TEXT
  8
0-d
 10
1237.9182
 20
94.024183
 40
20
 41
1
 50
0
  1
TEL(054)296-7000  FAX(054)296-7001
  0
TEXT
  8
0-d
 10
1084.349
 20
210.10065
 40
40
 41
1
 50
0
  1
１／１０
  0
TEXT
  8
0-8
 10
654.34103
 20
1706.0214
 40
30
 41
1
 50
0
  1
3
  0
TEXT
  8
0-8
 10
566.74906
 20
1663.126
 40
30
 41
1
 50
0.0002136
  1
10
  0
TEXT
  8
0-8
 10
1016.85
 20
2721.102
 40
30
 41
1
 50
0
  1
800
  0
TEXT
  8
0-8
 10
210.60049
 20
2340.3676
 40
30
 41
1
 50
90
  1
470
  0
TEXT
  8
0-8
 10
995.39997
 20
2085.3217
 40
30
 41
1
 50
0
  1
515φ
  0
TEXT
  8
0-8
 10
995.39997
 20
2001.9216
 40
30
 41
1
 50
0
  1
505φ
  0
TEXT
  8
0-8
 10
210.60049
 20
1875.4967
 40
30
 41
1
 50
90
  1
70
  0
TEXT
  8
0-8
 10
210.60049
 20
1712.6699
 40
30
 41
1
 50
90
  1
240
  0
TEXT
  8
0-8
 10
1016.824
 20
1529.2989
 40
30
 41
1
 50
0
  1
600
  0
TEXT
  8
0-8
 10
1808.5117
 20
855.74988
 40
30
 41
1
 50
90
  1
600
  0
TEXT
  8
0-8
 10
993.31307
 20
873.67312
 40
30
 41
1
 50
19.303787
  1
505φ
  0
TEXT
  8
0-d
 10
255.00005
 20
2792.7014
 40
50
 41
1
 50
0
  1
ＳＴ－５０　直付型立面、直付袴立面・平面
  0
TEXT
  8
0-d
 10
280.67567
 20
215.81082
 40
30
 41
1
 50
0
  1
ＳＴ－５０　直付型立面、直付袴立面・平面
  0
TEXT
  8
0-d
 10
308.45927
 20
140.30214
 40
30
 41
1
 50
0
  1
50-C01
  0
TEXT
  8
0-8
 10
224.0006
 20
840.74964
 40
30
 41
1
 50
90
  1
≒ 1,100
  0
TEXT
  8
0-d
 10
1235.6792
 20
118.64593
 40
20
 41
1
 50
0
  1
〒421-2114　静岡市葵区安倍口新田１５２番地
  0
POINT
  8
0-8
 62
    2
 10
234.00063
 20
2145.169
  0
POINT
  8
0-8
 62
    2
 10
234.00063
 20
2615.1691
  0
POINT
  8
0-8
 62
    2
 10
650.00007
 20
2697.7011
  0
POINT
  8
0-8
 62
    2
 10
1450
 20
2697.7011
  0
POINT
  8
0-8
 62
    2
 10
792.50005
 20
2069.7217
  0
POINT
  8
0-8
 62
    2
 10
1307.501
 20
2069.7217
  0
POINT
  8
0-8
 62
    2
 10
234.00063
 20
1617.9469
  0
POINT
  8
0-8
 62
    2
 10
234.00063
 20
1857.9469
  0
POINT
  8
0-8
 62
    2
 10
234.00063
 20
1929.9464
  0
POINT
  8
0-8
 62
    2
 10
749.99979
 20
1513.6989
  0
POINT
  8
0-8
 62
    2
 10
1350.0003
 20
1513.6989
  0
POINT
  8
0-8
 62
    2
 10
811.69569
 20
793.52915
  0
POINT
  8
0-8
 62
    2
 10
1288.3044
 20
960.47013
  0
POINT
  8
0-8
 62
    2
 10
797.50007
 20
1986.3215
  0
POINT
  8
0-8
 62
    2
 10
1302.5
 20
1986.3215
  0
POINT
  8
0-8
 62
    2
 10
234.00063
 20
326.99969
  0
POINT
  8
0-8
 62
    2
 10
234.00063
 20
1426.9997
  0
POINT
  8
0-8
 62
    2
 10
1818.5118
 20
576.99994
  0
POINT
  8
0-8
 62
    2
 10
1818.5118
 20
1176.9999
  0
ENDSEC
  0
EOF
