  0
SECTION
  2
HEADER
  9
$EXTMIN
 10
0
 20
0
  9
$EXTMAX
 10
4200
 20
2970
  0
ENDSEC
  0
SECTION
  2
TABLES
  0
TABLE
  2
LTYPE
 70
     9
  0
LTYPE
  2
CONTINUOUS
 70
    64
  3
実線
 72
    65
 73
     0
 40
0.0
  0
LTYPE
  2
DASHED1
 70
    64
  3
--  --  --  --  --  --  --  --  
 72
    65
 73
     2
 40
2.5
 49
1.25
 49
-1.25
  0
LTYPE
  2
DASHED2
 70
    64
  3
----    ----    ----    ----    
 72
    65
 73
     2
 40
5.0
 49
2.5
 49
-2.5
  0
LTYPE
  2
DASHED3
 70
    64
  3
------  ------  ------  ------  
 72
    65
 73
     2
 40
5.0
 49
3.75
 49
-1.25
  0
LTYPE
  2
CENTER1
 70
    64
  3
----- - ----- - ----- - ----- - 
 72
    65
 73
     4
 40
10.0
 49
6.25
 49
-1.25
 49
1.25
 49
-1.25
  0
LTYPE
  2
CENTER2
 70
    64
  3
----------  --  ----------  --  
 72
    65
 73
     4
 40
20.0
 49
12.5
 49
-2.5
 49
2.5
 49
-2.5
  0
LTYPE
  2
PHANTOM1
 70
    64
  3
--- - - --- - - --- - - --- - - 
 72
    65
 73
     6
 40
10.0
 49
3.25
 49
-1.25
 49
1.25
 49
-1.25
 49
1.25
 49
-1.25
  0
LTYPE
  2
PHANTOM2
 70
    64
  3
--------  -  -  --------  -  -  
 72
    65
 73
     6
 40
20.0
 49
10.0
 49
-2.5
 49
1.25
 49
-2.5
 49
1.25
 49
-2.5
  0
LTYPE
  2
DOT
 70
    64
  3
-   -   -   -   -   -   -   -   
 72
    65
 73
     2
 40
2.5
 49
0.625
 49
-1.875
  0
ENDTAB
  0
TABLE
  2
STYLE
 70
    1
  0
STYLE
  2
STANDARD
 70
    64
 40
0.0
 41
1.0
 42
0.0
 50
0.0
 71
     0
  3
TXT
  4
BIGFONT
  0
ENDTAB
  0
TABLE
  2
LAYER
 70
    6
  0
LAYER
  2
0-2
 70
   64
 62
    7
  6
CONTINUOUS
  0
LAYER
  2
0-3
 70
   64
 62
    7
  6
CONTINUOUS
  0
LAYER
  2
0-5
 70
   64
 62
    7
  6
CONTINUOUS
  0
LAYER
  2
0-8
 70
   64
 62
    7
  6
CONTINUOUS
  0
LAYER
  2
0-d
 70
   64
 62
    7
  6
CONTINUOUS
  0
LAYER
  2
ADD_LINE
 70
   64
 62
    7
  6
CONTINUOUS
  0
ENDTAB
  0
ENDSEC
  0
SECTION
  2
ENTITIES
  0
LINE
  8
0-d
  6
CONTINUOUS
 62
    7
 10
250.00004
 20
2757.7013
 11
1850.0001
 21
2757.7013
  0
LINE
  8
0-d
  6
CONTINUOUS
 62
    7
 10
250.00004
 20
2767.7016
 11
1850.0001
 21
2767.7016
  0
LINE
  8
0-d
  6
CONTINUOUS
 62
    7
 10
249.99967
 20
189.99989
 11
1850.0003
 21
189.99989
  0
LINE
  8
0-d
  6
CONTINUOUS
 62
    7
 10
249.99967
 20
89.999806
 11
249.99967
 21
269.99991
  0
LINE
  8
0-d
  6
CONTINUOUS
 62
    7
 10
249.99967
 20
89.999806
 11
1850.0003
 21
89.999806
  0
LINE
  8
0-d
  6
CONTINUOUS
 62
    7
 10
1850.0003
 20
269.99991
 11
1850.0003
 21
89.999806
  0
LINE
  8
0-d
  6
CONTINUOUS
 62
    7
 10
249.99967
 20
269.99991
 11
1850.0003
 21
269.99991
  0
LINE
  8
0-d
  6
CONTINUOUS
 62
    7
 10
1050
 20
269.99991
 11
1050
 21
89.999806
  0
LINE
  8
0-d
  6
CONTINUOUS
 62
    7
 10
650.00019
 20
89.999806
 11
650.00019
 21
189.99989
  0
LINE
  8
0-d
  6
CONTINUOUS
 62
    7
 10
1050
 20
189.99989
 11
1050
 21
269.99991
  0
LINE
  8
0-d
  6
CONTINUOUS
 62
    7
 10
849.99975
 20
89.999806
 11
849.99975
 21
189.99989
  0
LINE
  8
0-d
  6
CONTINUOUS
 62
    7
 10
285.00002
 20
89.999806
 11
285.00002
 21
189.99989
  0
LINE
  8
0-d
  6
CONTINUOUS
 62
    7
 10
685.00006
 20
89.999806
 11
685.00006
 21
189.99989
  0
LINE
  8
0-d
  6
CONTINUOUS
 62
    7
 10
885.00011
 20
89.999806
 11
885.00011
 21
189.99989
  0
LINE
  8
0-d
  6
CONTINUOUS
 62
    7
 10
1015
 20
189.99989
 11
1015
 21
269.99991
  0
LINE
  8
0-d
  6
CONTINUOUS
 62
    7
 10
1550.0004
 20
189.99989
 11
1550.0004
 21
269.99991
  0
LINE
  8
0-d
  6
CONTINUOUS
 62
    7
 10
1585.0002
 20
189.99989
 11
1585.0002
 21
269.99991
  0
LINE
  8
0-8
  6
CONTINUOUS
 62
    7
 10
710.00002
 20
2537.037
 11
1390
 21
2537.037
  0
LINE
  8
0-8
  6
CONTINUOUS
 62
    7
 10
1390
 20
2389.2028
 11
1390
 21
2537.037
  0
LINE
  8
0-8
  6
CONTINUOUS
 62
    7
 10
710.00002
 20
2537.037
 11
710.00002
 21
2389.2028
  0
LINE
  8
0-2
  6
CONTINUOUS
 62
    3
 10
710.00101
 20
1942.4331
 11
710.00027
 21
1867.8703
  0
LINE
  8
0-2
  6
CONTINUOUS
 62
    3
 10
839.99922
 20
1651.6435
 11
1260.0001
 21
1651.6433
  0
LINE
  8
0-2
  6
CONTINUOUS
 62
    3
 10
839.99922
 20
1666.5555
 11
1260.0001
 21
1666.5552
  0
LINE
  8
0-2
  6
CONTINUOUS
 62
    3
 10
840.00021
 20
1621.8181
 11
1260.0011
 21
1621.8181
  0
LINE
  8
0-2
  6
CONTINUOUS
 62
    3
 10
839.99922
 20
1651.6435
 11
840.00021
 21
1621.8179
  0
LINE
  8
0-2
  6
CONTINUOUS
 62
    3
 10
1259.9991
 20
1651.6433
 11
1260.0001
 21
1621.8179
  0
LINE
  8
0-2
  6
CONTINUOUS
 62
    3
 10
840.00021
 20
1778.3971
 11
839.99922
 21
1666.5555
  0
LINE
  8
0-2
  6
CONTINUOUS
 62
    3
 10
1259.9991
 20
1651.6433
 11
1260.0001
 21
1621.8179
  0
LINE
  8
0-2
  6
CONTINUOUS
 62
    3
 10
710.00002
 20
2255.5902
 11
710.00002
 21
2181.0282
  0
LINE
  8
0-8
  6
CONTINUOUS
 62
    7
 10
718.63196
 20
1606.9059
 11
580.00033
 21
1606.9059
  0
LINE
  8
0-2
  6
CONTINUOUS
 62
    3
 10
710.00027
 20
1852.9586
 11
776.66675
 21
1778.3971
  0
LINE
  8
0-2
  6
CONTINUOUS
 62
    3
 10
1050.0001
 20
2456.9063
 11
882.88648
 21
2348.9978
  0
LINE
  8
0-2
  6
CONTINUOUS
 62
    3
 10
710.00002
 20
2270.5024
 11
776.6665
 21
2345.064
  0
LINE
  8
0-2
  6
CONTINUOUS
 62
    3
 10
990.76852
 20
2338.9012
 11
991.31734
 21
2339.065
  0
LINE
  8
0-2
  6
CONTINUOUS
 62
    3
 10
991.31734
 20
2339.065
 11
991.83276
 21
2339.2887
  0
LINE
  8
0-2
  6
CONTINUOUS
 62
    3
 10
991.83276
 20
2339.2887
 11
992.31527
 21
2339.5669
  0
LINE
  8
0-2
  6
CONTINUOUS
 62
    3
 10
992.31527
 20
2339.5669
 11
992.76561
 21
2339.8959
  0
LINE
  8
0-2
  6
CONTINUOUS
 62
    3
 10
992.76561
 20
2339.8959
 11
993.18427
 21
2340.2725
  0
LINE
  8
0-2
  6
CONTINUOUS
 62
    3
 10
993.18427
 20
2340.2725
 11
993.57201
 21
2340.6912
  0
LINE
  8
0-2
  6
CONTINUOUS
 62
    3
 10
993.57201
 20
2340.6912
 11
993.92932
 21
2341.1475
  0
LINE
  8
0-2
  6
CONTINUOUS
 62
    3
 10
993.92932
 20
2341.1475
 11
994.25693
 21
2341.6384
  0
LINE
  8
0-2
  6
CONTINUOUS
 62
    3
 10
994.25693
 20
2341.6384
 11
994.55509
 21
2342.159
  0
LINE
  8
0-2
  6
CONTINUOUS
 62
    3
 10
994.55509
 20
2342.159
 11
994.8248
 21
2342.7054
  0
LINE
  8
0-2
  6
CONTINUOUS
 62
    3
 10
994.8248
 20
2342.7054
 11
995.06655
 21
2343.273
  0
LINE
  8
0-2
  6
CONTINUOUS
 62
    3
 10
995.06655
 20
2343.273
 11
995.28108
 21
2343.8584
  0
LINE
  8
0-2
  6
CONTINUOUS
 62
    3
 10
995.28108
 20
2343.8584
 11
995.46864
 21
2344.4568
  0
LINE
  8
0-2
  6
CONTINUOUS
 62
    3
 10
995.46864
 20
2344.4568
 11
995.62997
 21
2345.064
  0
LINE
  8
0-2
  6
CONTINUOUS
 62
    3
 10
987.7547
 20
2338.8681
 11
987.12002
 21
2339.0962
  0
LINE
  8
0-2
  6
CONTINUOUS
 62
    3
 10
987.12002
 20
2339.0962
 11
986.52468
 21
2339.3654
  0
LINE
  8
0-2
  6
CONTINUOUS
 62
    3
 10
986.52468
 20
2339.3654
 11
985.96794
 21
2339.6742
  0
LINE
  8
0-2
  6
CONTINUOUS
 62
    3
 10
985.96794
 20
2339.6742
 11
985.4498
 21
2340.0202
  0
LINE
  8
0-2
  6
CONTINUOUS
 62
    3
 10
985.4498
 20
2340.0202
 11
984.96952
 21
2340.4007
  0
LINE
  8
0-2
  6
CONTINUOUS
 62
    3
 10
984.96952
 20
2340.4007
 11
984.5266
 21
2340.8149
  0
LINE
  8
0-2
  6
CONTINUOUS
 62
    3
 10
984.5266
 20
2340.8149
 11
984.1208
 21
2341.2598
  0
LINE
  8
0-2
  6
CONTINUOUS
 62
    3
 10
984.1208
 20
2341.2598
 11
983.75187
 21
2341.7339
  0
LINE
  8
0-2
  6
CONTINUOUS
 62
    3
 10
983.75187
 20
2341.7339
 11
983.41881
 21
2342.2343
  0
LINE
  8
0-2
  6
CONTINUOUS
 62
    3
 10
983.41881
 20
2342.2343
 11
983.12189
 21
2342.7588
  0
LINE
  8
0-2
  6
CONTINUOUS
 62
    3
 10
983.12189
 20
2342.7588
 11
982.86009
 21
2343.3067
  0
LINE
  8
0-2
  6
CONTINUOUS
 62
    3
 10
982.86009
 20
2343.3067
 11
982.63344
 21
2343.8748
  0
LINE
  8
0-2
  6
CONTINUOUS
 62
    3
 10
982.63344
 20
2343.8748
 11
982.44143
 21
2344.4612
  0
LINE
  8
0-2
  6
CONTINUOUS
 62
    3
 10
982.44143
 20
2344.4612
 11
982.28331
 21
2345.064
  0
LINE
  8
0-2
  6
CONTINUOUS
 62
    3
 10
956.11135
 20
2345.064
 11
955.49671
 21
2344.0628
  0
LINE
  8
0-2
  6
CONTINUOUS
 62
    3
 10
955.49671
 20
2344.0628
 11
954.8749
 21
2343.173
  0
LINE
  8
0-2
  6
CONTINUOUS
 62
    3
 10
954.8749
 20
2343.173
 11
954.24863
 21
2342.3867
  0
LINE
  8
0-2
  6
CONTINUOUS
 62
    3
 10
954.24863
 20
2342.3867
 11
953.61988
 21
2341.6993
  0
LINE
  8
0-2
  6
CONTINUOUS
 62
    3
 10
953.61988
 20
2341.6993
 11
952.99138
 21
2341.103
  0
LINE
  8
0-2
  6
CONTINUOUS
 62
    3
 10
952.99138
 20
2341.103
 11
952.36561
 21
2340.5935
  0
LINE
  8
0-2
  6
CONTINUOUS
 62
    3
 10
952.36561
 20
2340.5935
 11
951.74478
 21
2340.1637
  0
LINE
  8
0-2
  6
CONTINUOUS
 62
    3
 10
951.74478
 20
2340.1637
 11
951.13163
 21
2339.8074
  0
LINE
  8
0-2
  6
CONTINUOUS
 62
    3
 10
951.13163
 20
2339.8074
 11
950.52837
 21
2339.5179
  0
LINE
  8
0-2
  6
CONTINUOUS
 62
    3
 10
950.52837
 20
2339.5179
 11
949.93748
 21
2339.2902
  0
LINE
  8
0-2
  6
CONTINUOUS
 62
    3
 10
949.93748
 20
2339.2902
 11
949.36144
 21
2339.1175
  0
LINE
  8
0-2
  6
CONTINUOUS
 62
    3
 10
949.36144
 20
2339.1175
 11
948.80272
 21
2338.9938
  0
LINE
  8
0-2
  6
CONTINUOUS
 62
    3
 10
948.80272
 20
2338.9938
 11
948.2638
 21
2338.9126
  0
LINE
  8
0-2
  6
CONTINUOUS
 62
    3
 10
948.2638
 20
2338.9126
 11
947.7469
 21
2338.8681
  0
LINE
  8
0-2
  6
CONTINUOUS
 62
    3
 10
943.3489
 20
2345.064
 11
943.36746
 21
2344.3439
  0
LINE
  8
0-2
  6
CONTINUOUS
 62
    3
 10
943.36746
 20
2344.3439
 11
943.42313
 21
2343.6783
  0
LINE
  8
0-2
  6
CONTINUOUS
 62
    3
 10
943.42313
 20
2343.6783
 11
943.51766
 21
2343.0652
  0
LINE
  8
0-2
  6
CONTINUOUS
 62
    3
 10
943.51766
 20
2343.0652
 11
943.654
 21
2342.5
  0
LINE
  8
0-2
  6
CONTINUOUS
 62
    3
 10
943.654
 20
2342.5
 11
943.83364
 21
2341.9804
  0
LINE
  8
0-2
  6
CONTINUOUS
 62
    3
 10
943.83364
 20
2341.9804
 11
944.05881
 21
2341.5043
  0
LINE
  8
0-2
  6
CONTINUOUS
 62
    3
 10
944.05881
 20
2341.5043
 11
944.33149
 21
2341.0673
  0
LINE
  8
0-2
  6
CONTINUOUS
 62
    3
 10
944.33149
 20
2341.0673
 11
944.6539
 21
2340.667
  0
LINE
  8
0-2
  6
CONTINUOUS
 62
    3
 10
944.6539
 20
2340.667
 11
945.02778
 21
2340.3005
  0
LINE
  8
0-2
  6
CONTINUOUS
 62
    3
 10
945.02778
 20
2340.3005
 11
945.4556
 21
2339.9647
  0
LINE
  8
0-2
  6
CONTINUOUS
 62
    3
 10
945.4556
 20
2339.9647
 11
945.9396
 21
2339.6569
  0
LINE
  8
0-2
  6
CONTINUOUS
 62
    3
 10
945.9396
 20
2339.6569
 11
946.48124
 21
2339.3729
  0
LINE
  8
0-2
  6
CONTINUOUS
 62
    3
 10
946.48124
 20
2339.3729
 11
947.08326
 21
2339.1111
  0
LINE
  8
0-2
  6
CONTINUOUS
 62
    3
 10
947.08326
 20
2339.1111
 11
947.7469
 21
2338.8681
  0
LINE
  8
0-2
  6
CONTINUOUS
 62
    3
 10
906.72335
 20
2345.064
 11
907.03686
 21
2344.2187
  0
LINE
  8
0-2
  6
CONTINUOUS
 62
    3
 10
907.03686
 20
2344.2187
 11
907.36323
 21
2343.4512
  0
LINE
  8
0-2
  6
CONTINUOUS
 62
    3
 10
907.36323
 20
2343.4512
 11
907.70247
 21
2342.7588
  0
LINE
  8
0-2
  6
CONTINUOUS
 62
    3
 10
907.70247
 20
2342.7588
 11
908.05408
 21
2342.1373
  0
LINE
  8
0-2
  6
CONTINUOUS
 62
    3
 10
908.05408
 20
2342.1373
 11
908.41757
 21
2341.5835
  0
LINE
  8
0-2
  6
CONTINUOUS
 62
    3
 10
908.41757
 20
2341.5835
 11
908.79294
 21
2341.0931
  0
LINE
  8
0-2
  6
CONTINUOUS
 62
    3
 10
908.79294
 20
2341.0931
 11
909.17944
 21
2340.662
  0
LINE
  8
0-2
  6
CONTINUOUS
 62
    3
 10
909.17944
 20
2340.662
 11
909.57732
 21
2340.2874
  0
LINE
  8
0-2
  6
CONTINUOUS
 62
    3
 10
909.57732
 20
2340.2874
 11
909.9856
 21
2339.9642
  0
LINE
  8
0-2
  6
CONTINUOUS
 62
    3
 10
909.9856
 20
2339.9642
 11
910.40451
 21
2339.6901
  0
LINE
  8
0-2
  6
CONTINUOUS
 62
    3
 10
910.40451
 20
2339.6901
 11
910.83358
 21
2339.46
  0
LINE
  8
0-2
  6
CONTINUOUS
 62
    3
 10
910.83358
 20
2339.46
 11
911.27229
 21
2339.2709
  0
LINE
  8
0-2
  6
CONTINUOUS
 62
    3
 10
911.27229
 20
2339.2709
 11
911.7204
 21
2339.119
  0
LINE
  8
0-2
  6
CONTINUOUS
 62
    3
 10
911.7204
 20
2339.119
 11
912.17767
 21
2339.0002
  0
LINE
  8
0-2
  6
CONTINUOUS
 62
    3
 10
913.18326
 20
2339.0002
 11
913.66033
 21
2339.1012
  0
LINE
  8
0-2
  6
CONTINUOUS
 62
    3
 10
913.66033
 20
2339.1012
 11
914.13343
 21
2339.263
  0
LINE
  8
0-2
  6
CONTINUOUS
 62
    3
 10
914.13343
 20
2339.263
 11
914.60258
 21
2339.4837
  0
LINE
  8
0-2
  6
CONTINUOUS
 62
    3
 10
914.60258
 20
2339.4837
 11
915.06801
 21
2339.7643
  0
LINE
  8
0-2
  6
CONTINUOUS
 62
    3
 10
915.06801
 20
2339.7643
 11
915.52924
 21
2340.1048
  0
LINE
  8
0-2
  6
CONTINUOUS
 62
    3
 10
915.52924
 20
2340.1048
 11
915.987
 21
2340.5051
  0
LINE
  8
0-2
  6
CONTINUOUS
 62
    3
 10
915.987
 20
2340.5051
 11
916.44056
 21
2340.9654
  0
LINE
  8
0-2
  6
CONTINUOUS
 62
    3
 10
916.44056
 20
2340.9654
 11
916.89066
 21
2341.486
  0
LINE
  8
0-2
  6
CONTINUOUS
 62
    3
 10
916.89066
 20
2341.486
 11
917.33654
 21
2342.065
  0
LINE
  8
0-2
  6
CONTINUOUS
 62
    3
 10
873.19921
 20
2345.064
 11
873.29002
 21
2344.4191
  0
LINE
  8
0-2
  6
CONTINUOUS
 62
    3
 10
873.29002
 20
2344.4191
 11
873.41869
 21
2343.8194
  0
LINE
  8
0-2
  6
CONTINUOUS
 62
    3
 10
873.41869
 20
2343.8194
 11
873.5825
 21
2343.2616
  0
LINE
  8
0-2
  6
CONTINUOUS
 62
    3
 10
873.5825
 20
2343.2616
 11
873.77822
 21
2342.7455
  0
LINE
  8
0-2
  6
CONTINUOUS
 62
    3
 10
873.77822
 20
2342.7455
 11
874.00315
 21
2342.2679
  0
LINE
  8
0-2
  6
CONTINUOUS
 62
    3
 10
874.00315
 20
2342.2679
 11
874.25479
 21
2341.8285
  0
LINE
  8
0-2
  6
CONTINUOUS
 62
    3
 10
874.25479
 20
2341.8285
 11
874.53019
 21
2341.4246
  0
LINE
  8
0-2
  6
CONTINUOUS
 62
    3
 10
874.53019
 20
2341.4246
 11
874.82737
 21
2341.0554
  0
LINE
  8
0-2
  6
CONTINUOUS
 62
    3
 10
874.82737
 20
2341.0554
 11
875.14384
 21
2340.7199
  0
LINE
  8
0-2
  6
CONTINUOUS
 62
    3
 10
875.14384
 20
2340.7199
 11
875.47764
 21
2340.4166
  0
LINE
  8
0-2
  6
CONTINUOUS
 62
    3
 10
875.47764
 20
2340.4166
 11
875.82702
 21
2340.1444
  0
LINE
  8
0-2
  6
CONTINUOUS
 62
    3
 10
875.82702
 20
2340.1444
 11
876.18977
 21
2339.9029
  0
LINE
  8
0-2
  6
CONTINUOUS
 62
    3
 10
876.18977
 20
2339.9029
 11
876.56464
 21
2339.6901
  0
LINE
  8
0-2
  6
CONTINUOUS
 62
    3
 10
876.56464
 20
2339.6901
 11
876.94991
 21
2339.5065
  0
LINE
  8
0-2
  6
CONTINUOUS
 62
    3
 10
876.94991
 20
2339.5065
 11
877.34457
 21
2339.3506
  0
LINE
  8
0-2
  6
CONTINUOUS
 62
    3
 10
877.34457
 20
2339.3506
 11
877.74716
 21
2339.2224
  0
LINE
  8
0-2
  6
CONTINUOUS
 62
    3
 10
877.74716
 20
2339.2224
 11
878.15642
 21
2339.1215
  0
LINE
  8
0-2
  6
CONTINUOUS
 62
    3
 10
878.15642
 20
2339.1215
 11
878.57212
 21
2339.0477
  0
LINE
  8
0-2
  6
CONTINUOUS
 62
    3
 10
878.57212
 20
2339.0477
 11
878.99302
 21
2339.0002
  0
LINE
  8
0-2
  6
CONTINUOUS
 62
    3
 10
879.09917
 20
2339.0057
 11
879.33622
 21
2339.0319
  0
LINE
  8
0-2
  6
CONTINUOUS
 62
    3
 10
879.33622
 20
2339.0319
 11
879.5693
 21
2339.0695
  0
LINE
  8
0-2
  6
CONTINUOUS
 62
    3
 10
879.5693
 20
2339.0695
 11
879.79794
 21
2339.119
  0
LINE
  8
0-2
  6
CONTINUOUS
 62
    3
 10
879.79794
 20
2339.119
 11
880.02286
 21
2339.1794
  0
LINE
  8
0-2
  6
CONTINUOUS
 62
    3
 10
880.02286
 20
2339.1794
 11
880.24358
 21
2339.2511
  0
LINE
  8
0-2
  6
CONTINUOUS
 62
    3
 10
880.24358
 20
2339.2511
 11
880.46009
 21
2339.3348
  0
LINE
  8
0-2
  6
CONTINUOUS
 62
    3
 10
880.46009
 20
2339.3348
 11
880.67264
 21
2339.4293
  0
LINE
  8
0-2
  6
CONTINUOUS
 62
    3
 10
880.67264
 20
2339.4293
 11
880.88098
 21
2339.5357
  0
LINE
  8
0-2
  6
CONTINUOUS
 62
    3
 10
880.88098
 20
2339.5357
 11
881.08537
 21
2339.6535
  0
LINE
  8
0-2
  6
CONTINUOUS
 62
    3
 10
783.30779
 20
2345.064
 11
783.38895
 21
2344.386
  0
LINE
  8
0-2
  6
CONTINUOUS
 62
    3
 10
783.38895
 20
2344.386
 11
783.47456
 21
2343.7659
  0
LINE
  8
0-2
  6
CONTINUOUS
 62
    3
 10
783.47456
 20
2343.7659
 11
783.56537
 21
2343.2052
  0
LINE
  8
0-2
  6
CONTINUOUS
 62
    3
 10
783.56537
 20
2343.2052
 11
783.66063
 21
2342.7024
  0
LINE
  8
0-2
  6
CONTINUOUS
 62
    3
 10
783.66063
 20
2342.7024
 11
783.7606
 21
2342.2585
  0
LINE
  8
0-2
  6
CONTINUOUS
 62
    3
 10
783.7606
 20
2342.2585
 11
783.86527
 21
2341.873
  0
LINE
  8
0-2
  6
CONTINUOUS
 62
    3
 10
783.86527
 20
2341.873
 11
783.97464
 21
2341.5454
  0
LINE
  8
0-2
  6
CONTINUOUS
 62
    3
 10
783.97464
 20
2341.5454
 11
784.08871
 21
2341.2772
  0
LINE
  8
0-2
  6
CONTINUOUS
 62
    3
 10
784.08871
 20
2341.2772
 11
784.20748
 21
2341.0673
  0
LINE
  8
0-2
  6
CONTINUOUS
 62
    3
 10
798.06485
 20
2345.064
 11
798.10964
 21
2344.527
  0
LINE
  8
0-2
  6
CONTINUOUS
 62
    3
 10
798.10964
 20
2344.527
 11
798.18387
 21
2344.0193
  0
LINE
  8
0-2
  6
CONTINUOUS
 62
    3
 10
798.18387
 20
2344.0193
 11
798.28408
 21
2343.5407
  0
LINE
  8
0-2
  6
CONTINUOUS
 62
    3
 10
798.28408
 20
2343.5407
 11
798.40755
 21
2343.0914
  0
LINE
  8
0-2
  6
CONTINUOUS
 62
    3
 10
798.40755
 20
2343.0914
 11
798.55156
 21
2342.6722
  0
LINE
  8
0-2
  6
CONTINUOUS
 62
    3
 10
798.55156
 20
2342.6722
 11
798.71339
 21
2342.2828
  0
LINE
  8
0-2
  6
CONTINUOUS
 62
    3
 10
798.71339
 20
2342.2828
 11
798.88957
 21
2341.9225
  0
LINE
  8
0-2
  6
CONTINUOUS
 62
    3
 10
798.88957
 20
2341.9225
 11
799.07762
 21
2341.5934
  0
LINE
  8
0-2
  6
CONTINUOUS
 62
    3
 10
799.07762
 20
2341.5934
 11
799.27458
 21
2341.293
  0
LINE
  8
0-2
  6
CONTINUOUS
 62
    3
 10
799.27458
 20
2341.293
 11
799.47773
 21
2341.0243
  0
LINE
  8
0-2
  6
CONTINUOUS
 62
    3
 10
799.47773
 20
2341.0243
 11
799.68385
 21
2340.7857
  0
LINE
  8
0-2
  6
CONTINUOUS
 62
    3
 10
799.68385
 20
2340.7857
 11
799.89021
 21
2340.5779
  0
LINE
  8
0-2
  6
CONTINUOUS
 62
    3
 10
799.89021
 20
2340.5779
 11
800.0941
 21
2340.4007
  0
LINE
  8
0-2
  6
CONTINUOUS
 62
    3
 10
800.0941
 20
2340.4007
 11
800.29255
 21
2340.2542
  0
LINE
  8
0-2
  6
CONTINUOUS
 62
    3
 10
818.27549
 20
2345.064
 11
818.4096
 21
2344.4662
  0
LINE
  8
0-2
  6
CONTINUOUS
 62
    3
 10
818.4096
 20
2344.4662
 11
818.57266
 21
2343.9069
  0
LINE
  8
0-2
  6
CONTINUOUS
 62
    3
 10
818.57266
 20
2343.9069
 11
818.76393
 21
2343.3848
  0
LINE
  8
0-2
  6
CONTINUOUS
 62
    3
 10
818.76393
 20
2343.3848
 11
818.98168
 21
2342.9004
  0
LINE
  8
0-2
  6
CONTINUOUS
 62
    3
 10
818.98168
 20
2342.9004
 11
819.22516
 21
2342.453
  0
LINE
  8
0-2
  6
CONTINUOUS
 62
    3
 10
819.22516
 20
2342.453
 11
819.49314
 21
2342.0422
  0
LINE
  8
0-2
  6
CONTINUOUS
 62
    3
 10
819.49314
 20
2342.0422
 11
819.78413
 21
2341.6686
  0
LINE
  8
0-2
  6
CONTINUOUS
 62
    3
 10
819.78413
 20
2341.6686
 11
820.09739
 21
2341.3306
  0
LINE
  8
0-2
  6
CONTINUOUS
 62
    3
 10
820.09739
 20
2341.3306
 11
820.43168
 21
2341.0297
  0
LINE
  8
0-2
  6
CONTINUOUS
 62
    3
 10
820.43168
 20
2341.0297
 11
820.78552
 21
2340.7635
  0
LINE
  8
0-2
  6
CONTINUOUS
 62
    3
 10
820.78552
 20
2340.7635
 11
821.15816
 21
2340.5329
  0
LINE
  8
0-2
  6
CONTINUOUS
 62
    3
 10
821.15816
 20
2340.5329
 11
821.54813
 21
2340.3374
  0
LINE
  8
0-2
  6
CONTINUOUS
 62
    3
 10
821.54813
 20
2340.3374
 11
821.95418
 21
2340.1775
  0
LINE
  8
0-2
  6
CONTINUOUS
 62
    3
 10
821.95418
 20
2340.1775
 11
822.37557
 21
2340.0513
  0
LINE
  8
0-2
  6
CONTINUOUS
 62
    3
 10
843.49109
 20
2345.064
 11
843.69375
 21
2344.4375
  0
LINE
  8
0-2
  6
CONTINUOUS
 62
    3
 10
843.69375
 20
2344.4375
 11
843.93104
 21
2343.857
  0
LINE
  8
0-2
  6
CONTINUOUS
 62
    3
 10
843.93104
 20
2343.857
 11
844.20025
 21
2343.322
  0
LINE
  8
0-2
  6
CONTINUOUS
 62
    3
 10
844.20025
 20
2343.322
 11
844.49867
 21
2342.8336
  0
LINE
  8
0-2
  6
CONTINUOUS
 62
    3
 10
844.49867
 20
2342.8336
 11
844.82281
 21
2342.3911
  0
LINE
  8
0-2
  6
CONTINUOUS
 62
    3
 10
844.82281
 20
2342.3911
 11
845.17022
 21
2341.9942
  0
LINE
  8
0-2
  6
CONTINUOUS
 62
    3
 10
845.17022
 20
2341.9942
 11
845.53742
 21
2341.6429
  0
LINE
  8
0-2
  6
CONTINUOUS
 62
    3
 10
845.53742
 20
2341.6429
 11
845.92145
 21
2341.337
  0
LINE
  8
0-2
  6
CONTINUOUS
 62
    3
 10
845.92145
 20
2341.337
 11
846.31933
 21
2341.0752
  0
LINE
  8
0-2
  6
CONTINUOUS
 62
    3
 10
846.31933
 20
2341.0752
 11
846.72711
 21
2340.858
  0
LINE
  8
0-2
  6
CONTINUOUS
 62
    3
 10
846.72711
 20
2340.858
 11
847.14207
 21
2340.6838
  0
LINE
  8
0-2
  6
CONTINUOUS
 62
    3
 10
847.14207
 20
2340.6838
 11
847.56024
 21
2340.5502
  0
LINE
  8
0-2
  6
CONTINUOUS
 62
    3
 10
847.56024
 20
2340.5502
 11
847.97817
 21
2340.4576
  0
LINE
  8
0-2
  6
CONTINUOUS
 62
    3
 10
847.97817
 20
2340.4576
 11
848.39263
 21
2340.4047
  0
LINE
  8
0-2
  6
CONTINUOUS
 62
    3
 10
848.39263
 20
2340.4047
 11
848.79917
 21
2340.3884
  0
LINE
  8
0-2
  6
CONTINUOUS
 62
    3
 10
848.79917
 20
2340.3884
 11
849.19458
 21
2340.4081
  0
LINE
  8
0-2
  6
CONTINUOUS
 62
    3
 10
849.19458
 20
2340.4081
 11
849.57514
 21
2340.4616
  0
LINE
  8
0-2
  6
CONTINUOUS
 62
    3
 10
849.57514
 20
2340.4616
 11
849.9364
 21
2340.5462
  0
LINE
  8
0-2
  6
CONTINUOUS
 62
    3
 10
849.9364
 20
2340.5462
 11
850.27441
 21
2340.6605
  0
LINE
  8
0-2
  6
CONTINUOUS
 62
    3
 10
783.30779
 20
2345.064
 11
776.6665
 21
2345.064
  0
LINE
  8
0-2
  6
CONTINUOUS
 62
    3
 10
718.2608
 20
2270.5024
 11
783.30779
 21
2345.064
  0
LINE
  8
0-2
  6
CONTINUOUS
 62
    3
 10
787.59864
 20
2345.064
 11
723.59808
 21
2270.5024
  0
LINE
  8
0-2
  6
CONTINUOUS
 62
    3
 10
736.61713
 20
2270.5024
 11
798.06485
 21
2345.064
  0
LINE
  8
0-2
  6
CONTINUOUS
 62
    3
 10
798.06485
 20
2345.064
 11
787.59864
 21
2345.064
  0
LINE
  8
0-2
  6
CONTINUOUS
 62
    3
 10
804.21497
 20
2345.064
 11
744.26722
 21
2270.5024
  0
LINE
  8
0-2
  6
CONTINUOUS
 62
    3
 10
818.27549
 20
2345.064
 11
804.21497
 21
2345.064
  0
LINE
  8
0-2
  6
CONTINUOUS
 62
    3
 10
761.75726
 20
2270.5024
 11
818.27549
 21
2345.064
  0
LINE
  8
0-2
  6
CONTINUOUS
 62
    3
 10
826.15199
 20
2345.064
 11
771.55489
 21
2270.5024
  0
LINE
  8
0-2
  6
CONTINUOUS
 62
    3
 10
843.50223
 20
2345.064
 11
826.15199
 21
2345.064
  0
LINE
  8
0-2
  6
CONTINUOUS
 62
    3
 10
793.13709
 20
2270.5024
 11
843.50223
 21
2345.064
  0
LINE
  8
0-2
  6
CONTINUOUS
 62
    3
 10
852.93463
 20
2345.064
 11
804.86969
 21
2270.5024
  0
LINE
  8
0-2
  6
CONTINUOUS
 62
    3
 10
873.19921
 20
2345.064
 11
852.93463
 21
2345.064
  0
LINE
  8
0-2
  6
CONTINUOUS
 62
    3
 10
830.07713
 20
2270.5024
 11
873.19921
 21
2345.064
  0
LINE
  8
0-2
  6
CONTINUOUS
 62
    3
 10
883.98314
 20
2345.064
 11
843.49109
 21
2270.5024
  0
LINE
  8
0-2
  6
CONTINUOUS
 62
    3
 10
906.72335
 20
2345.064
 11
883.98314
 21
2345.064
  0
LINE
  8
0-2
  6
CONTINUOUS
 62
    3
 10
871.77792
 20
2270.5024
 11
906.72335
 21
2345.064
  0
LINE
  8
0-2
  6
CONTINUOUS
 62
    3
 10
918.62521
 20
2345.064
 11
886.58249
 21
2270.5024
  0
LINE
  8
0-2
  6
CONTINUOUS
 62
    3
 10
943.3489
 20
2345.064
 11
918.62521
 21
2345.064
  0
LINE
  8
0-2
  6
CONTINUOUS
 62
    3
 10
917.33654
 20
2270.5024
 11
943.3489
 21
2345.064
  0
LINE
  8
0-2
  6
CONTINUOUS
 62
    3
 10
933.21154
 20
2270.5024
 11
956.11135
 21
2345.064
  0
LINE
  8
0-2
  6
CONTINUOUS
 62
    3
 10
982.28331
 20
2345.064
 11
956.11135
 21
2345.064
  0
LINE
  8
0-2
  6
CONTINUOUS
 62
    3
 10
982.28331
 20
2345.064
 11
965.76695
 21
2270.5024
  0
LINE
  8
0-2
  6
CONTINUOUS
 62
    3
 10
982.36868
 20
2270.5024
 11
995.62997
 21
2345.064
  0
LINE
  8
0-2
  6
CONTINUOUS
 62
    3
 10
1022.6835
 20
2345.064
 11
995.62997
 21
2345.064
  0
LINE
  8
0-2
  6
CONTINUOUS
 62
    3
 10
1022.6835
 20
2345.064
 11
1016.0209
 21
2270.5024
  0
LINE
  8
0-2
  6
CONTINUOUS
 62
    3
 10
1050.0001
 20
2345.064
 11
1036.3254
 21
2345.064
  0
LINE
  8
0-2
  6
CONTINUOUS
 62
    3
 10
1016.0209
 20
2166.1165
 11
1016.0209
 21
1957.3448
  0
LINE
  8
0-2
  6
CONTINUOUS
 62
    3
 10
982.36893
 20
2166.1165
 11
982.36893
 21
1957.3448
  0
LINE
  8
0-2
  6
CONTINUOUS
 62
    3
 10
917.33654
 20
2166.1165
 11
917.33654
 21
1957.3448
  0
LINE
  8
0-2
  6
CONTINUOUS
 62
    3
 10
886.58249
 20
2166.1165
 11
886.58249
 21
1957.3448
  0
LINE
  8
0-2
  6
CONTINUOUS
 62
    3
 10
830.07713
 20
2166.1165
 11
830.07713
 21
1957.3448
  0
LINE
  8
0-2
  6
CONTINUOUS
 62
    3
 10
804.86969
 20
2166.1165
 11
804.86969
 21
1957.3448
  0
LINE
  8
0-2
  6
CONTINUOUS
 62
    3
 10
761.75726
 20
2166.1165
 11
761.75726
 21
1957.3448
  0
LINE
  8
0-2
  6
CONTINUOUS
 62
    3
 10
982.36893
 20
1957.3448
 11
917.33654
 21
1975.4195
  0
LINE
  8
0-2
  6
CONTINUOUS
 62
    3
 10
804.86969
 20
1957.3448
 11
761.75726
 21
1975.4195
  0
LINE
  8
0-2
  6
CONTINUOUS
 62
    3
 10
841.48361
 20
2166.1165
 11
841.48361
 21
1957.3448
  0
LINE
  8
0-2
  6
CONTINUOUS
 62
    3
 10
854.81691
 20
2166.1165
 11
854.81691
 21
1957.3448
  0
LINE
  8
0-2
  6
CONTINUOUS
 62
    3
 10
886.58249
 20
1957.3448
 11
854.81691
 21
1967.5057
  0
LINE
  8
0-2
  6
CONTINUOUS
 62
    3
 10
841.48361
 20
1971.771
 11
830.07713
 21
1975.4195
  0
LINE
  8
0-2
  6
CONTINUOUS
 62
    3
 10
710.00002
 20
1867.8711
 11
710.00002
 21
1942.4333
  0
LINE
  8
0-2
  6
CONTINUOUS
 62
    3
 10
710.00002
 20
1852.9586
 11
776.6665
 21
1778.3971
  0
LINE
  8
0-2
  6
CONTINUOUS
 62
    3
 10
990.76852
 20
1784.56
 11
991.31734
 21
1784.3957
  0
LINE
  8
0-2
  6
CONTINUOUS
 62
    3
 10
991.31734
 20
1784.3957
 11
991.83276
 21
1784.1726
  0
LINE
  8
0-2
  6
CONTINUOUS
 62
    3
 10
991.83276
 20
1784.1726
 11
992.31527
 21
1783.8939
  0
LINE
  8
0-2
  6
CONTINUOUS
 62
    3
 10
992.31527
 20
1783.8939
 11
992.76561
 21
1783.5648
  0
LINE
  8
0-2
  6
CONTINUOUS
 62
    3
 10
992.76561
 20
1783.5648
 11
993.18427
 21
1783.1887
  0
LINE
  8
0-2
  6
CONTINUOUS
 62
    3
 10
993.18427
 20
1783.1887
 11
993.57201
 21
1782.7703
  0
LINE
  8
0-2
  6
CONTINUOUS
 62
    3
 10
993.57201
 20
1782.7703
 11
993.92932
 21
1782.3135
  0
LINE
  8
0-2
  6
CONTINUOUS
 62
    3
 10
993.92932
 20
1782.3135
 11
994.25693
 21
1781.8229
  0
LINE
  8
0-2
  6
CONTINUOUS
 62
    3
 10
994.25693
 20
1781.8229
 11
994.55509
 21
1781.3023
  0
LINE
  8
0-2
  6
CONTINUOUS
 62
    3
 10
994.55509
 20
1781.3023
 11
994.8248
 21
1780.7562
  0
LINE
  8
0-2
  6
CONTINUOUS
 62
    3
 10
994.8248
 20
1780.7562
 11
995.06655
 21
1780.1878
  0
LINE
  8
0-2
  6
CONTINUOUS
 62
    3
 10
995.06655
 20
1780.1878
 11
995.28108
 21
1779.6026
  0
LINE
  8
0-2
  6
CONTINUOUS
 62
    3
 10
995.28108
 20
1779.6026
 11
995.46864
 21
1779.0045
  0
LINE
  8
0-2
  6
CONTINUOUS
 62
    3
 10
995.46864
 20
1779.0045
 11
995.62997
 21
1778.3971
  0
LINE
  8
0-2
  6
CONTINUOUS
 62
    3
 10
987.7547
 20
1784.5932
 11
987.12002
 21
1784.3651
  0
LINE
  8
0-2
  6
CONTINUOUS
 62
    3
 10
987.12002
 20
1784.3651
 11
986.52468
 21
1784.0954
  0
LINE
  8
0-2
  6
CONTINUOUS
 62
    3
 10
986.52468
 20
1784.0954
 11
985.96794
 21
1783.787
  0
LINE
  8
0-2
  6
CONTINUOUS
 62
    3
 10
985.96794
 20
1783.787
 11
985.4498
 21
1783.4409
  0
LINE
  8
0-2
  6
CONTINUOUS
 62
    3
 10
985.4498
 20
1783.4409
 11
984.96952
 21
1783.0601
  0
LINE
  8
0-2
  6
CONTINUOUS
 62
    3
 10
984.96952
 20
1783.0601
 11
984.5266
 21
1782.6461
  0
LINE
  8
0-2
  6
CONTINUOUS
 62
    3
 10
984.5266
 20
1782.6461
 11
984.1208
 21
1782.201
  0
LINE
  8
0-2
  6
CONTINUOUS
 62
    3
 10
984.1208
 20
1782.201
 11
983.75187
 21
1781.7276
  0
LINE
  8
0-2
  6
CONTINUOUS
 62
    3
 10
983.75187
 20
1781.7276
 11
983.41881
 21
1781.2273
  0
LINE
  8
0-2
  6
CONTINUOUS
 62
    3
 10
983.41881
 20
1781.2273
 11
983.12189
 21
1780.7022
  0
LINE
  8
0-2
  6
CONTINUOUS
 62
    3
 10
983.12189
 20
1780.7022
 11
982.86009
 21
1780.1544
  0
LINE
  8
0-2
  6
CONTINUOUS
 62
    3
 10
982.86009
 20
1780.1544
 11
982.63344
 21
1779.5865
  0
LINE
  8
0-2
  6
CONTINUOUS
 62
    3
 10
982.63344
 20
1779.5865
 11
982.44143
 21
1779.0001
  0
LINE
  8
0-2
  6
CONTINUOUS
 62
    3
 10
982.44143
 20
1779.0001
 11
982.28331
 21
1778.3971
  0
LINE
  8
0-2
  6
CONTINUOUS
 62
    3
 10
956.11135
 20
1778.3971
 11
955.49671
 21
1779.3982
  0
LINE
  8
0-2
  6
CONTINUOUS
 62
    3
 10
955.49671
 20
1779.3982
 11
954.8749
 21
1780.2885
  0
LINE
  8
0-2
  6
CONTINUOUS
 62
    3
 10
954.8749
 20
1780.2885
 11
954.24863
 21
1781.0746
  0
LINE
  8
0-2
  6
CONTINUOUS
 62
    3
 10
954.24863
 20
1781.0746
 11
953.61988
 21
1781.7622
  0
LINE
  8
0-2
  6
CONTINUOUS
 62
    3
 10
953.61988
 20
1781.7622
 11
952.99138
 21
1782.3578
  0
LINE
  8
0-2
  6
CONTINUOUS
 62
    3
 10
952.99138
 20
1782.3578
 11
952.36561
 21
1782.8676
  0
LINE
  8
0-2
  6
CONTINUOUS
 62
    3
 10
952.36561
 20
1782.8676
 11
951.74478
 21
1783.2975
  0
LINE
  8
0-2
  6
CONTINUOUS
 62
    3
 10
951.74478
 20
1783.2975
 11
951.13163
 21
1783.6542
  0
LINE
  8
0-2
  6
CONTINUOUS
 62
    3
 10
951.13163
 20
1783.6542
 11
950.52837
 21
1783.9432
  0
LINE
  8
0-2
  6
CONTINUOUS
 62
    3
 10
950.52837
 20
1783.9432
 11
949.93748
 21
1784.1708
  0
LINE
  8
0-2
  6
CONTINUOUS
 62
    3
 10
949.93748
 20
1784.1708
 11
949.36144
 21
1784.3438
  0
LINE
  8
0-2
  6
CONTINUOUS
 62
    3
 10
949.36144
 20
1784.3438
 11
948.80272
 21
1784.4675
  0
LINE
  8
0-2
  6
CONTINUOUS
 62
    3
 10
948.80272
 20
1784.4675
 11
948.2638
 21
1784.5489
  0
LINE
  8
0-2
  6
CONTINUOUS
 62
    3
 10
948.2638
 20
1784.5489
 11
947.7469
 21
1784.5932
  0
LINE
  8
0-2
  6
CONTINUOUS
 62
    3
 10
943.3489
 20
1778.3971
 11
943.36746
 21
1779.1171
  0
LINE
  8
0-2
  6
CONTINUOUS
 62
    3
 10
943.36746
 20
1779.1171
 11
943.42313
 21
1779.7827
  0
LINE
  8
0-2
  6
CONTINUOUS
 62
    3
 10
943.42313
 20
1779.7827
 11
943.51766
 21
1780.3964
  0
LINE
  8
0-2
  6
CONTINUOUS
 62
    3
 10
943.51766
 20
1780.3964
 11
943.654
 21
1780.9613
  0
LINE
  8
0-2
  6
CONTINUOUS
 62
    3
 10
943.654
 20
1780.9613
 11
943.83364
 21
1781.4804
  0
LINE
  8
0-2
  6
CONTINUOUS
 62
    3
 10
943.83364
 20
1781.4804
 11
944.05881
 21
1781.9572
  0
LINE
  8
0-2
  6
CONTINUOUS
 62
    3
 10
944.05881
 20
1781.9572
 11
944.33149
 21
1782.3937
  0
LINE
  8
0-2
  6
CONTINUOUS
 62
    3
 10
944.33149
 20
1782.3937
 11
944.6539
 21
1782.7939
  0
LINE
  8
0-2
  6
CONTINUOUS
 62
    3
 10
944.6539
 20
1782.7939
 11
945.02778
 21
1783.1605
  0
LINE
  8
0-2
  6
CONTINUOUS
 62
    3
 10
945.02778
 20
1783.1605
 11
945.4556
 21
1783.4963
  0
LINE
  8
0-2
  6
CONTINUOUS
 62
    3
 10
945.4556
 20
1783.4963
 11
945.9396
 21
1783.8046
  0
LINE
  8
0-2
  6
CONTINUOUS
 62
    3
 10
945.9396
 20
1783.8046
 11
946.48124
 21
1784.0882
  0
LINE
  8
0-2
  6
CONTINUOUS
 62
    3
 10
946.48124
 20
1784.0882
 11
947.08326
 21
1784.3503
  0
LINE
  8
0-2
  6
CONTINUOUS
 62
    3
 10
947.08326
 20
1784.3503
 11
947.7469
 21
1784.5932
  0
LINE
  8
0-2
  6
CONTINUOUS
 62
    3
 10
906.72335
 20
1778.3971
 11
907.03686
 21
1779.2428
  0
LINE
  8
0-2
  6
CONTINUOUS
 62
    3
 10
907.03686
 20
1779.2428
 11
907.36323
 21
1780.0101
  0
LINE
  8
0-2
  6
CONTINUOUS
 62
    3
 10
907.36323
 20
1780.0101
 11
907.70247
 21
1780.7022
  0
LINE
  8
0-2
  6
CONTINUOUS
 62
    3
 10
907.70247
 20
1780.7022
 11
908.05408
 21
1781.3235
  0
LINE
  8
0-2
  6
CONTINUOUS
 62
    3
 10
908.05408
 20
1781.3235
 11
908.41757
 21
1781.8775
  0
LINE
  8
0-2
  6
CONTINUOUS
 62
    3
 10
908.41757
 20
1781.8775
 11
908.79294
 21
1782.3682
  0
LINE
  8
0-2
  6
CONTINUOUS
 62
    3
 10
908.79294
 20
1782.3682
 11
909.17944
 21
1782.7993
  0
LINE
  8
0-2
  6
CONTINUOUS
 62
    3
 10
909.17944
 20
1782.7993
 11
909.57732
 21
1783.1741
  0
LINE
  8
0-2
  6
CONTINUOUS
 62
    3
 10
909.57732
 20
1783.1741
 11
909.9856
 21
1783.497
  0
LINE
  8
0-2
  6
CONTINUOUS
 62
    3
 10
909.9856
 20
1783.497
 11
910.40451
 21
1783.7715
  0
LINE
  8
0-2
  6
CONTINUOUS
 62
    3
 10
910.40451
 20
1783.7715
 11
910.83358
 21
1784.0011
  0
LINE
  8
0-2
  6
CONTINUOUS
 62
    3
 10
910.83358
 20
1784.0011
 11
911.27229
 21
1784.1904
  0
LINE
  8
0-2
  6
CONTINUOUS
 62
    3
 10
911.27229
 20
1784.1904
 11
911.7204
 21
1784.342
  0
LINE
  8
0-2
  6
CONTINUOUS
 62
    3
 10
911.7204
 20
1784.342
 11
912.17767
 21
1784.4608
  0
LINE
  8
0-2
  6
CONTINUOUS
 62
    3
 10
913.18326
 20
1784.4608
 11
913.66033
 21
1784.3595
  0
LINE
  8
0-2
  6
CONTINUOUS
 62
    3
 10
913.66033
 20
1784.3595
 11
914.13343
 21
1784.1983
  0
LINE
  8
0-2
  6
CONTINUOUS
 62
    3
 10
914.13343
 20
1784.1983
 11
914.60258
 21
1783.9773
  0
LINE
  8
0-2
  6
CONTINUOUS
 62
    3
 10
914.60258
 20
1783.9773
 11
915.06801
 21
1783.6965
  0
LINE
  8
0-2
  6
CONTINUOUS
 62
    3
 10
915.06801
 20
1783.6965
 11
915.52924
 21
1783.3565
  0
LINE
  8
0-2
  6
CONTINUOUS
 62
    3
 10
915.52924
 20
1783.3565
 11
915.987
 21
1782.9561
  0
LINE
  8
0-2
  6
CONTINUOUS
 62
    3
 10
915.987
 20
1782.9561
 11
916.44056
 21
1782.4954
  0
LINE
  8
0-2
  6
CONTINUOUS
 62
    3
 10
916.44056
 20
1782.4954
 11
916.89066
 21
1781.9755
  0
LINE
  8
0-2
  6
CONTINUOUS
 62
    3
 10
916.89066
 20
1781.9755
 11
917.33654
 21
1781.396
  0
LINE
  8
0-2
  6
CONTINUOUS
 62
    3
 10
873.19921
 20
1778.3971
 11
873.29002
 21
1779.0419
  0
LINE
  8
0-2
  6
CONTINUOUS
 62
    3
 10
873.29002
 20
1779.0419
 11
873.41869
 21
1779.6417
  0
LINE
  8
0-2
  6
CONTINUOUS
 62
    3
 10
873.41869
 20
1779.6417
 11
873.5825
 21
1780.1994
  0
LINE
  8
0-2
  6
CONTINUOUS
 62
    3
 10
873.5825
 20
1780.1994
 11
873.77822
 21
1780.7157
  0
LINE
  8
0-2
  6
CONTINUOUS
 62
    3
 10
873.77822
 20
1780.7157
 11
874.00315
 21
1781.1929
  0
LINE
  8
0-2
  6
CONTINUOUS
 62
    3
 10
874.00315
 20
1781.1929
 11
874.25479
 21
1781.6328
  0
LINE
  8
0-2
  6
CONTINUOUS
 62
    3
 10
874.25479
 20
1781.6328
 11
874.53019
 21
1782.0369
  0
LINE
  8
0-2
  6
CONTINUOUS
 62
    3
 10
874.53019
 20
1782.0369
 11
874.82737
 21
1782.4056
  0
LINE
  8
0-2
  6
CONTINUOUS
 62
    3
 10
874.82737
 20
1782.4056
 11
875.14384
 21
1782.7414
  0
LINE
  8
0-2
  6
CONTINUOUS
 62
    3
 10
875.14384
 20
1782.7414
 11
875.47764
 21
1783.0445
  0
LINE
  8
0-2
  6
CONTINUOUS
 62
    3
 10
875.47764
 20
1783.0445
 11
875.82702
 21
1783.3164
  0
LINE
  8
0-2
  6
CONTINUOUS
 62
    3
 10
875.82702
 20
1783.3164
 11
876.18977
 21
1783.5587
  0
LINE
  8
0-2
  6
CONTINUOUS
 62
    3
 10
876.18977
 20
1783.5587
 11
876.56464
 21
1783.7712
  0
LINE
  8
0-2
  6
CONTINUOUS
 62
    3
 10
876.56464
 20
1783.7712
 11
876.94991
 21
1783.9548
  0
LINE
  8
0-2
  6
CONTINUOUS
 62
    3
 10
876.94991
 20
1783.9548
 11
877.34457
 21
1784.1102
  0
LINE
  8
0-2
  6
CONTINUOUS
 62
    3
 10
877.34457
 20
1784.1102
 11
877.74716
 21
1784.2386
  0
LINE
  8
0-2
  6
CONTINUOUS
 62
    3
 10
877.74716
 20
1784.2386
 11
878.15642
 21
1784.3393
  0
LINE
  8
0-2
  6
CONTINUOUS
 62
    3
 10
878.15642
 20
1784.3393
 11
878.57212
 21
1784.4136
  0
LINE
  8
0-2
  6
CONTINUOUS
 62
    3
 10
878.57212
 20
1784.4136
 11
878.99302
 21
1784.4608
  0
LINE
  8
0-2
  6
CONTINUOUS
 62
    3
 10
879.09917
 20
1784.4556
 11
879.33622
 21
1784.4289
  0
LINE
  8
0-2
  6
CONTINUOUS
 62
    3
 10
879.33622
 20
1784.4289
 11
879.5693
 21
1784.3913
  0
LINE
  8
0-2
  6
CONTINUOUS
 62
    3
 10
879.5693
 20
1784.3913
 11
879.79794
 21
1784.3423
  0
LINE
  8
0-2
  6
CONTINUOUS
 62
    3
 10
879.79794
 20
1784.3423
 11
880.02286
 21
1784.2819
  0
LINE
  8
0-2
  6
CONTINUOUS
 62
    3
 10
880.02286
 20
1784.2819
 11
880.24358
 21
1784.2099
  0
LINE
  8
0-2
  6
CONTINUOUS
 62
    3
 10
880.24358
 20
1784.2099
 11
880.46009
 21
1784.1265
  0
LINE
  8
0-2
  6
CONTINUOUS
 62
    3
 10
880.46009
 20
1784.1265
 11
880.67264
 21
1784.0315
  0
LINE
  8
0-2
  6
CONTINUOUS
 62
    3
 10
880.67264
 20
1784.0315
 11
880.88098
 21
1783.9254
  0
LINE
  8
0-2
  6
CONTINUOUS
 62
    3
 10
880.88098
 20
1783.9254
 11
881.08537
 21
1783.8076
  0
LINE
  8
0-2
  6
CONTINUOUS
 62
    3
 10
783.30779
 20
1778.3971
 11
783.38895
 21
1779.0753
  0
LINE
  8
0-2
  6
CONTINUOUS
 62
    3
 10
783.38895
 20
1779.0753
 11
783.47456
 21
1779.6949
  0
LINE
  8
0-2
  6
CONTINUOUS
 62
    3
 10
783.47456
 20
1779.6949
 11
783.56537
 21
1780.2561
  0
LINE
  8
0-2
  6
CONTINUOUS
 62
    3
 10
783.56537
 20
1780.2561
 11
783.66063
 21
1780.7586
  0
LINE
  8
0-2
  6
CONTINUOUS
 62
    3
 10
783.66063
 20
1780.7586
 11
783.7606
 21
1781.203
  0
LINE
  8
0-2
  6
CONTINUOUS
 62
    3
 10
783.7606
 20
1781.203
 11
783.86527
 21
1781.5885
  0
LINE
  8
0-2
  6
CONTINUOUS
 62
    3
 10
783.86527
 20
1781.5885
 11
783.97464
 21
1781.9154
  0
LINE
  8
0-2
  6
CONTINUOUS
 62
    3
 10
783.97464
 20
1781.9154
 11
784.08871
 21
1782.1841
  0
LINE
  8
0-2
  6
CONTINUOUS
 62
    3
 10
784.08871
 20
1782.1841
 11
784.20748
 21
1782.3937
  0
LINE
  8
0-2
  6
CONTINUOUS
 62
    3
 10
798.06485
 20
1778.3971
 11
798.10964
 21
1778.9345
  0
LINE
  8
0-2
  6
CONTINUOUS
 62
    3
 10
798.10964
 20
1778.9345
 11
798.18387
 21
1779.4422
  0
LINE
  8
0-2
  6
CONTINUOUS
 62
    3
 10
798.18387
 20
1779.4422
 11
798.28408
 21
1779.9203
  0
LINE
  8
0-2
  6
CONTINUOUS
 62
    3
 10
798.28408
 20
1779.9203
 11
798.40755
 21
1780.3699
  0
LINE
  8
0-2
  6
CONTINUOUS
 62
    3
 10
798.40755
 20
1780.3699
 11
798.55156
 21
1780.7893
  0
LINE
  8
0-2
  6
CONTINUOUS
 62
    3
 10
798.55156
 20
1780.7893
 11
798.71339
 21
1781.1785
  0
LINE
  8
0-2
  6
CONTINUOUS
 62
    3
 10
798.71339
 20
1781.1785
 11
798.88957
 21
1781.5383
  0
LINE
  8
0-2
  6
CONTINUOUS
 62
    3
 10
798.88957
 20
1781.5383
 11
799.07762
 21
1781.8679
  0
LINE
  8
0-2
  6
CONTINUOUS
 62
    3
 10
799.07762
 20
1781.8679
 11
799.27458
 21
1782.1678
  0
LINE
  8
0-2
  6
CONTINUOUS
 62
    3
 10
799.27458
 20
1782.1678
 11
799.47773
 21
1782.4368
  0
LINE
  8
0-2
  6
CONTINUOUS
 62
    3
 10
799.47773
 20
1782.4368
 11
799.68385
 21
1782.6755
  0
LINE
  8
0-2
  6
CONTINUOUS
 62
    3
 10
799.68385
 20
1782.6755
 11
799.89021
 21
1782.8836
  0
LINE
  8
0-2
  6
CONTINUOUS
 62
    3
 10
799.89021
 20
1782.8836
 11
800.0941
 21
1783.0608
  0
LINE
  8
0-2
  6
CONTINUOUS
 62
    3
 10
800.0941
 20
1783.0608
 11
800.29255
 21
1783.207
  0
LINE
  8
0-2
  6
CONTINUOUS
 62
    3
 10
818.27549
 20
1778.3971
 11
818.4096
 21
1778.9949
  0
LINE
  8
0-2
  6
CONTINUOUS
 62
    3
 10
818.4096
 20
1778.9949
 11
818.57266
 21
1779.5543
  0
LINE
  8
0-2
  6
CONTINUOUS
 62
    3
 10
818.57266
 20
1779.5543
 11
818.76393
 21
1780.0764
  0
LINE
  8
0-2
  6
CONTINUOUS
 62
    3
 10
818.76393
 20
1780.0764
 11
818.98168
 21
1780.5609
  0
LINE
  8
0-2
  6
CONTINUOUS
 62
    3
 10
818.98168
 20
1780.5609
 11
819.22516
 21
1781.0085
  0
LINE
  8
0-2
  6
CONTINUOUS
 62
    3
 10
819.22516
 20
1781.0085
 11
819.49314
 21
1781.4188
  0
LINE
  8
0-2
  6
CONTINUOUS
 62
    3
 10
819.49314
 20
1781.4188
 11
819.78413
 21
1781.7927
  0
LINE
  8
0-2
  6
CONTINUOUS
 62
    3
 10
819.78413
 20
1781.7927
 11
820.09739
 21
1782.1302
  0
LINE
  8
0-2
  6
CONTINUOUS
 62
    3
 10
820.09739
 20
1782.1302
 11
820.43168
 21
1782.4316
  0
LINE
  8
0-2
  6
CONTINUOUS
 62
    3
 10
820.43168
 20
1782.4316
 11
820.78552
 21
1782.6978
  0
LINE
  8
0-2
  6
CONTINUOUS
 62
    3
 10
820.78552
 20
1782.6978
 11
821.15816
 21
1782.9279
  0
LINE
  8
0-2
  6
CONTINUOUS
 62
    3
 10
821.15816
 20
1782.9279
 11
821.54813
 21
1783.1234
  0
LINE
  8
0-2
  6
CONTINUOUS
 62
    3
 10
821.54813
 20
1783.1234
 11
821.95418
 21
1783.284
  0
LINE
  8
0-2
  6
CONTINUOUS
 62
    3
 10
821.95418
 20
1783.284
 11
822.37557
 21
1783.4102
  0
LINE
  8
0-2
  6
CONTINUOUS
 62
    3
 10
843.49109
 20
1778.3971
 11
843.69375
 21
1779.0238
  0
LINE
  8
0-2
  6
CONTINUOUS
 62
    3
 10
843.69375
 20
1779.0238
 11
843.93104
 21
1779.6041
  0
LINE
  8
0-2
  6
CONTINUOUS
 62
    3
 10
843.93104
 20
1779.6041
 11
844.20025
 21
1780.1388
  0
LINE
  8
0-2
  6
CONTINUOUS
 62
    3
 10
844.20025
 20
1780.1388
 11
844.49867
 21
1780.6277
  0
LINE
  8
0-2
  6
CONTINUOUS
 62
    3
 10
844.49867
 20
1780.6277
 11
844.82281
 21
1781.0704
  0
LINE
  8
0-2
  6
CONTINUOUS
 62
    3
 10
844.82281
 20
1781.0704
 11
845.17022
 21
1781.467
  0
LINE
  8
0-2
  6
CONTINUOUS
 62
    3
 10
845.17022
 20
1781.467
 11
845.53742
 21
1781.8182
  0
LINE
  8
0-2
  6
CONTINUOUS
 62
    3
 10
845.53742
 20
1781.8182
 11
845.92145
 21
1782.1242
  0
LINE
  8
0-2
  6
CONTINUOUS
 62
    3
 10
845.92145
 20
1782.1242
 11
846.31933
 21
1782.3855
  0
LINE
  8
0-2
  6
CONTINUOUS
 62
    3
 10
846.31933
 20
1782.3855
 11
846.72711
 21
1782.6028
  0
LINE
  8
0-2
  6
CONTINUOUS
 62
    3
 10
846.72711
 20
1782.6028
 11
847.14207
 21
1782.7777
  0
LINE
  8
0-2
  6
CONTINUOUS
 62
    3
 10
847.14207
 20
1782.7777
 11
847.56024
 21
1782.9111
  0
LINE
  8
0-2
  6
CONTINUOUS
 62
    3
 10
847.56024
 20
1782.9111
 11
847.97817
 21
1783.0032
  0
LINE
  8
0-2
  6
CONTINUOUS
 62
    3
 10
847.97817
 20
1783.0032
 11
848.39263
 21
1783.0568
  0
LINE
  8
0-2
  6
CONTINUOUS
 62
    3
 10
848.39263
 20
1783.0568
 11
848.79917
 21
1783.0727
  0
LINE
  8
0-2
  6
CONTINUOUS
 62
    3
 10
848.79917
 20
1783.0727
 11
849.19458
 21
1783.0531
  0
LINE
  8
0-2
  6
CONTINUOUS
 62
    3
 10
849.19458
 20
1783.0531
 11
849.57514
 21
1782.9999
  0
LINE
  8
0-2
  6
CONTINUOUS
 62
    3
 10
849.57514
 20
1782.9999
 11
849.9364
 21
1782.9146
  0
LINE
  8
0-2
  6
CONTINUOUS
 62
    3
 10
849.9364
 20
1782.9146
 11
850.27441
 21
1782.8003
  0
LINE
  8
0-2
  6
CONTINUOUS
 62
    3
 10
783.30779
 20
1778.3971
 11
776.6665
 21
1778.3971
  0
LINE
  8
0-2
  6
CONTINUOUS
 62
    3
 10
718.2608
 20
1852.9586
 11
783.30779
 21
1778.3971
  0
LINE
  8
0-2
  6
CONTINUOUS
 62
    3
 10
787.59864
 20
1778.3971
 11
723.59808
 21
1852.9586
  0
LINE
  8
0-2
  6
CONTINUOUS
 62
    3
 10
736.61713
 20
1852.9586
 11
798.06485
 21
1778.3971
  0
LINE
  8
0-2
  6
CONTINUOUS
 62
    3
 10
798.06485
 20
1778.3971
 11
787.59864
 21
1778.3971
  0
LINE
  8
0-2
  6
CONTINUOUS
 62
    3
 10
804.21497
 20
1778.3971
 11
744.26722
 21
1852.9586
  0
LINE
  8
0-2
  6
CONTINUOUS
 62
    3
 10
818.27549
 20
1778.3971
 11
804.21497
 21
1778.3971
  0
LINE
  8
0-2
  6
CONTINUOUS
 62
    3
 10
761.75726
 20
1852.9586
 11
818.27549
 21
1778.3971
  0
LINE
  8
0-2
  6
CONTINUOUS
 62
    3
 10
826.15199
 20
1778.3971
 11
771.55489
 21
1852.9586
  0
LINE
  8
0-2
  6
CONTINUOUS
 62
    3
 10
843.50223
 20
1778.3971
 11
826.15199
 21
1778.3971
  0
LINE
  8
0-2
  6
CONTINUOUS
 62
    3
 10
793.13709
 20
1852.9586
 11
843.50223
 21
1778.3971
  0
LINE
  8
0-2
  6
CONTINUOUS
 62
    3
 10
852.93463
 20
1778.3971
 11
804.86969
 21
1852.9586
  0
LINE
  8
0-2
  6
CONTINUOUS
 62
    3
 10
873.19921
 20
1778.3971
 11
852.93463
 21
1778.3971
  0
LINE
  8
0-2
  6
CONTINUOUS
 62
    3
 10
830.07713
 20
1852.9586
 11
873.19921
 21
1778.3971
  0
LINE
  8
0-2
  6
CONTINUOUS
 62
    3
 10
883.98314
 20
1778.3971
 11
843.49109
 21
1852.9586
  0
LINE
  8
0-2
  6
CONTINUOUS
 62
    3
 10
906.72335
 20
1778.3971
 11
883.98314
 21
1778.3971
  0
LINE
  8
0-2
  6
CONTINUOUS
 62
    3
 10
918.62521
 20
1778.3971
 11
886.58249
 21
1852.9586
  0
LINE
  8
0-2
  6
CONTINUOUS
 62
    3
 10
943.3489
 20
1778.3971
 11
918.62521
 21
1778.3971
  0
LINE
  8
0-2
  6
CONTINUOUS
 62
    3
 10
917.33654
 20
1852.9586
 11
943.3489
 21
1778.3971
  0
LINE
  8
0-2
  6
CONTINUOUS
 62
    3
 10
933.21154
 20
1852.9586
 11
956.11135
 21
1778.3971
  0
LINE
  8
0-2
  6
CONTINUOUS
 62
    3
 10
982.28331
 20
1778.3971
 11
956.11135
 21
1778.3971
  0
LINE
  8
0-2
  6
CONTINUOUS
 62
    3
 10
982.28331
 20
1778.3971
 11
965.76695
 21
1852.9586
  0
LINE
  8
0-2
  6
CONTINUOUS
 62
    3
 10
982.36868
 20
1852.9586
 11
995.62997
 21
1778.3971
  0
LINE
  8
0-2
  6
CONTINUOUS
 62
    3
 10
1022.6835
 20
1778.3971
 11
995.62997
 21
1778.3971
  0
LINE
  8
0-2
  6
CONTINUOUS
 62
    3
 10
1022.6835
 20
1778.3971
 11
1016.0209
 21
1852.9586
  0
LINE
  8
0-2
  6
CONTINUOUS
 62
    3
 10
1036.3254
 20
1778.3971
 11
1032.9899
 21
1852.9586
  0
LINE
  8
0-2
  6
CONTINUOUS
 62
    3
 10
1050.0001
 20
1778.3971
 11
1036.3254
 21
1778.3971
  0
LINE
  8
0-2
  6
CONTINUOUS
 62
    3
 10
871.77792
 20
1852.9586
 11
906.7236
 21
1778.3971
  0
LINE
  8
0-2
  6
CONTINUOUS
 62
    3
 10
912.62356
 20
1778.3971
 11
912.62356
 21
1666.5555
  0
LINE
  8
0-2
  6
CONTINUOUS
 62
    3
 10
885.95672
 20
1778.3971
 11
885.95672
 21
1666.5555
  0
LINE
  8
0-8
  6
CONTINUOUS
 62
    7
 10
580.00033
 20
1606.9059
 11
580.00033
 21
2456.9063
  0
LINE
  8
0-8
  6
CONTINUOUS
 62
    7
 10
718.63196
 20
1606.9064
 11
580.00033
 21
1606.9064
  0
LINE
  8
0-2
  6
CONTINUOUS
 62
    3
 10
912.17767
 20
2339.0002
 11
912.29966
 21
2338.9908
  0
LINE
  8
0-2
  6
CONTINUOUS
 62
    3
 10
912.29966
 20
2338.9908
 11
912.41917
 21
2338.9839
  0
LINE
  8
0-2
  6
CONTINUOUS
 62
    3
 10
912.41917
 20
2338.9839
 11
912.53596
 21
2338.9787
  0
LINE
  8
0-2
  6
CONTINUOUS
 62
    3
 10
912.53596
 20
2338.9787
 11
912.65003
 21
2338.9765
  0
LINE
  8
0-2
  6
CONTINUOUS
 62
    3
 10
912.65003
 20
2338.9765
 11
912.76187
 21
2338.9765
  0
LINE
  8
0-2
  6
CONTINUOUS
 62
    3
 10
912.76187
 20
2338.9765
 11
912.87099
 21
2338.9787
  0
LINE
  8
0-2
  6
CONTINUOUS
 62
    3
 10
912.87099
 20
2338.9787
 11
912.97764
 21
2338.9839
  0
LINE
  8
0-2
  6
CONTINUOUS
 62
    3
 10
912.97764
 20
2338.9839
 11
913.08181
 21
2338.9908
  0
LINE
  8
0-2
  6
CONTINUOUS
 62
    3
 10
913.08181
 20
2338.9908
 11
913.18326
 21
2339.0002
  0
LINE
  8
0-2
  6
CONTINUOUS
 62
    3
 10
987.7547
 20
2338.8681
 11
988.08108
 21
2338.8458
  0
LINE
  8
0-2
  6
CONTINUOUS
 62
    3
 10
988.08108
 20
2338.8458
 11
988.40968
 21
2338.83
  0
LINE
  8
0-2
  6
CONTINUOUS
 62
    3
 10
988.40968
 20
2338.83
 11
988.7405
 21
2338.8206
  0
LINE
  8
0-2
  6
CONTINUOUS
 62
    3
 10
988.7405
 20
2338.8206
 11
989.07331
 21
2338.8181
  0
LINE
  8
0-2
  6
CONTINUOUS
 62
    3
 10
989.07331
 20
2338.8181
 11
989.40834
 21
2338.8216
  0
LINE
  8
0-2
  6
CONTINUOUS
 62
    3
 10
989.40834
 20
2338.8216
 11
989.74511
 21
2338.8315
  0
LINE
  8
0-2
  6
CONTINUOUS
 62
    3
 10
989.74511
 20
2338.8315
 11
990.0841
 21
2338.8483
  0
LINE
  8
0-2
  6
CONTINUOUS
 62
    3
 10
990.0841
 20
2338.8483
 11
990.42532
 21
2338.8711
  0
LINE
  8
0-2
  6
CONTINUOUS
 62
    3
 10
990.42532
 20
2338.8711
 11
990.76852
 21
2338.9012
  0
LINE
  8
0-2
  6
CONTINUOUS
 62
    3
 10
987.7547
 20
1784.5932
 11
988.08108
 21
1784.6157
  0
LINE
  8
0-2
  6
CONTINUOUS
 62
    3
 10
988.08108
 20
1784.6157
 11
988.40968
 21
1784.6313
  0
LINE
  8
0-2
  6
CONTINUOUS
 62
    3
 10
988.40968
 20
1784.6313
 11
988.7405
 21
1784.6407
  0
LINE
  8
0-2
  6
CONTINUOUS
 62
    3
 10
988.7405
 20
1784.6407
 11
989.07331
 21
1784.6433
  0
LINE
  8
0-2
  6
CONTINUOUS
 62
    3
 10
989.07331
 20
1784.6433
 11
989.40834
 21
1784.6397
  0
LINE
  8
0-2
  6
CONTINUOUS
 62
    3
 10
989.40834
 20
1784.6397
 11
989.74511
 21
1784.6298
  0
LINE
  8
0-2
  6
CONTINUOUS
 62
    3
 10
989.74511
 20
1784.6298
 11
990.0841
 21
1784.6132
  0
LINE
  8
0-2
  6
CONTINUOUS
 62
    3
 10
990.0841
 20
1784.6132
 11
990.42532
 21
1784.59
  0
LINE
  8
0-2
  6
CONTINUOUS
 62
    3
 10
990.42532
 20
1784.59
 11
990.76852
 21
1784.5603
  0
LINE
  8
0-2
  6
CONTINUOUS
 62
    3
 10
912.17767
 20
1784.4608
 11
912.29966
 21
1784.4705
  0
LINE
  8
0-2
  6
CONTINUOUS
 62
    3
 10
912.29966
 20
1784.4705
 11
912.41917
 21
1784.4776
  0
LINE
  8
0-2
  6
CONTINUOUS
 62
    3
 10
912.41917
 20
1784.4776
 11
912.53596
 21
1784.4826
  0
LINE
  8
0-2
  6
CONTINUOUS
 62
    3
 10
912.53596
 20
1784.4826
 11
912.65003
 21
1784.4851
  0
LINE
  8
0-2
  6
CONTINUOUS
 62
    3
 10
912.65003
 20
1784.4851
 11
912.76187
 21
1784.4851
  0
LINE
  8
0-2
  6
CONTINUOUS
 62
    3
 10
912.76187
 20
1784.4851
 11
912.87099
 21
1784.4826
  0
LINE
  8
0-2
  6
CONTINUOUS
 62
    3
 10
912.87099
 20
1784.4826
 11
912.97764
 21
1784.4776
  0
LINE
  8
0-2
  6
CONTINUOUS
 62
    3
 10
912.97764
 20
1784.4776
 11
913.08181
 21
1784.4705
  0
LINE
  8
0-2
  6
CONTINUOUS
 62
    3
 10
913.08181
 20
1784.4705
 11
913.18326
 21
1784.4608
  0
LINE
  8
0-8
  6
CONTINUOUS
 62
    7
 10
740.00012
 20
1406.3886
 11
740.00012
 21
1490.859
  0
LINE
  8
0-8
  6
CONTINUOUS
 62
    7
 10
1359.9999
 20
1490.859
 11
1359.9999
 21
1406.3883
  0
LINE
  8
0-8
  6
CONTINUOUS
 62
    7
 10
949.13355
 20
2456.9063
 11
580.00033
 21
2456.9063
  0
LINE
  8
0-2
  6
CONTINUOUS
 62
    3
 10
740.00012
 20
1546.9062
 11
740.00012
 21
1606.9064
  0
LINE
  8
0-2
  6
CONTINUOUS
 62
    3
 10
740.00012
 20
1546.9062
 11
1359.9999
 21
1546.9062
  0
LINE
  8
0-2
  6
CONTINUOUS
 62
    3
 10
1359.9999
 20
1546.9062
 11
1359.9999
 21
1606.9062
  0
LINE
  8
0-2
  6
CONTINUOUS
 62
    3
 10
740.00012
 20
1606.9064
 11
1359.9999
 21
1606.9062
  0
LINE
  8
0-8
  6
CONTINUOUS
 62
    7
 10
580.00033
 20
1546.9062
 11
580.00033
 21
1606.9064
  0
LINE
  8
0-8
  6
CONTINUOUS
 62
    7
 10
718.63196
 20
1546.9062
 11
580.00033
 21
1546.9062
  0
LINE
  8
0-8
  6
CONTINUOUS
 62
    7
 10
718.63196
 20
1606.9064
 11
580.00033
 21
1606.9064
  0
LINE
  8
0-8
  6
CONTINUOUS
 62
    7
 10
740.00012
 20
1406.3886
 11
1359.9999
 21
1406.3883
  0
LINE
  8
0-2
  6
CONTINUOUS
 62
    3
 10
1036.3254
 20
2345.064
 11
1032.9899
 21
2270.5024
  0
LINE
  8
0-2
  6
CONTINUOUS
 62
    3
 10
1390.001
 20
1942.4328
 11
1390
 21
1867.8701
  0
LINE
  8
0-2
  6
CONTINUOUS
 62
    3
 10
1390
 20
2255.5902
 11
1390
 21
2181.0282
  0
LINE
  8
0-2
  6
CONTINUOUS
 62
    3
 10
1390
 20
2270.5024
 11
1323.3333
 21
2345.0637
  0
LINE
  8
0-2
  6
CONTINUOUS
 62
    3
 10
1390
 20
2270.5024
 11
1323.3333
 21
2345.0637
  0
LINE
  8
0-2
  6
CONTINUOUS
 62
    3
 10
1316.6925
 20
2345.0637
 11
1316.6114
 21
2344.386
  0
LINE
  8
0-2
  6
CONTINUOUS
 62
    3
 10
1316.6114
 20
2344.386
 11
1316.5252
 21
2343.7659
  0
LINE
  8
0-2
  6
CONTINUOUS
 62
    3
 10
1316.5252
 20
2343.7659
 11
1316.4352
 21
2343.2052
  0
LINE
  8
0-2
  6
CONTINUOUS
 62
    3
 10
1316.4352
 20
2343.2052
 11
1316.3397
 21
2342.7022
  0
LINE
  8
0-2
  6
CONTINUOUS
 62
    3
 10
1316.3397
 20
2342.7022
 11
1316.2397
 21
2342.2585
  0
LINE
  8
0-2
  6
CONTINUOUS
 62
    3
 10
1316.2397
 20
2342.2585
 11
1316.1348
 21
2341.8727
  0
LINE
  8
0-2
  6
CONTINUOUS
 62
    3
 10
1316.1348
 20
2341.8727
 11
1316.0254
 21
2341.5454
  0
LINE
  8
0-2
  6
CONTINUOUS
 62
    3
 10
1316.0254
 20
2341.5454
 11
1315.9116
 21
2341.2772
  0
LINE
  8
0-2
  6
CONTINUOUS
 62
    3
 10
1315.9116
 20
2341.2772
 11
1315.7928
 21
2341.0673
  0
LINE
  8
0-2
  6
CONTINUOUS
 62
    3
 10
1301.9352
 20
2345.0637
 11
1301.8907
 21
2344.527
  0
LINE
  8
0-2
  6
CONTINUOUS
 62
    3
 10
1301.8907
 20
2344.527
 11
1301.8164
 21
2344.0193
  0
LINE
  8
0-2
  6
CONTINUOUS
 62
    3
 10
1301.8164
 20
2344.0193
 11
1301.716
 21
2343.5407
  0
LINE
  8
0-2
  6
CONTINUOUS
 62
    3
 10
1301.716
 20
2343.5407
 11
1301.5927
 21
2343.0914
  0
LINE
  8
0-2
  6
CONTINUOUS
 62
    3
 10
1301.5927
 20
2343.0914
 11
1301.4482
 21
2342.672
  0
LINE
  8
0-2
  6
CONTINUOUS
 62
    3
 10
1301.4482
 20
2342.672
 11
1301.2869
 21
2342.2828
  0
LINE
  8
0-2
  6
CONTINUOUS
 62
    3
 10
1301.2869
 20
2342.2828
 11
1301.1107
 21
2341.9225
  0
LINE
  8
0-2
  6
CONTINUOUS
 62
    3
 10
1301.1107
 20
2341.9225
 11
1300.9227
 21
2341.5931
  0
LINE
  8
0-2
  6
CONTINUOUS
 62
    3
 10
1300.9227
 20
2341.5931
 11
1300.7257
 21
2341.293
  0
LINE
  8
0-2
  6
CONTINUOUS
 62
    3
 10
1300.7257
 20
2341.293
 11
1300.5228
 21
2341.024
  0
LINE
  8
0-2
  6
CONTINUOUS
 62
    3
 10
1300.5228
 20
2341.024
 11
1300.3165
 21
2340.7857
  0
LINE
  8
0-2
  6
CONTINUOUS
 62
    3
 10
1300.3165
 20
2340.7857
 11
1300.1101
 21
2340.5776
  0
LINE
  8
0-2
  6
CONTINUOUS
 62
    3
 10
1300.1101
 20
2340.5776
 11
1299.9062
 21
2340.4005
  0
LINE
  8
0-2
  6
CONTINUOUS
 62
    3
 10
1299.9062
 20
2340.4005
 11
1299.7077
 21
2340.2542
  0
LINE
  8
0-2
  6
CONTINUOUS
 62
    3
 10
1281.7248
 20
2345.0637
 11
1281.5907
 21
2344.4662
  0
LINE
  8
0-2
  6
CONTINUOUS
 62
    3
 10
1281.5907
 20
2344.4662
 11
1281.4274
 21
2343.9067
  0
LINE
  8
0-2
  6
CONTINUOUS
 62
    3
 10
1281.4274
 20
2343.9067
 11
1281.2364
 21
2343.3846
  0
LINE
  8
0-2
  6
CONTINUOUS
 62
    3
 10
1281.2364
 20
2343.3846
 11
1281.0186
 21
2342.9004
  0
LINE
  8
0-2
  6
CONTINUOUS
 62
    3
 10
1281.0186
 20
2342.9004
 11
1280.7749
 21
2342.4527
  0
LINE
  8
0-2
  6
CONTINUOUS
 62
    3
 10
1280.7749
 20
2342.4527
 11
1280.5069
 21
2342.0422
  0
LINE
  8
0-2
  6
CONTINUOUS
 62
    3
 10
1280.5069
 20
2342.0422
 11
1280.2159
 21
2341.6686
  0
LINE
  8
0-2
  6
CONTINUOUS
 62
    3
 10
1280.2159
 20
2341.6686
 11
1279.9027
 21
2341.3306
  0
LINE
  8
0-2
  6
CONTINUOUS
 62
    3
 10
1279.9027
 20
2341.3306
 11
1279.5686
 21
2341.0297
  0
LINE
  8
0-2
  6
CONTINUOUS
 62
    3
 10
1279.5686
 20
2341.0297
 11
1279.2148
 21
2340.7632
  0
LINE
  8
0-2
  6
CONTINUOUS
 62
    3
 10
1279.2148
 20
2340.7632
 11
1278.8421
 21
2340.5329
  0
LINE
  8
0-2
  6
CONTINUOUS
 62
    3
 10
1278.8421
 20
2340.5329
 11
1278.4522
 21
2340.3374
  0
LINE
  8
0-2
  6
CONTINUOUS
 62
    3
 10
1278.4522
 20
2340.3374
 11
1278.0459
 21
2340.1773
  0
LINE
  8
0-2
  6
CONTINUOUS
 62
    3
 10
1278.0459
 20
2340.1773
 11
1277.6247
 21
2340.0511
  0
LINE
  8
0-2
  6
CONTINUOUS
 62
    3
 10
1256.5092
 20
2345.0637
 11
1256.3066
 21
2344.4375
  0
LINE
  8
0-2
  6
CONTINUOUS
 62
    3
 10
1256.3066
 20
2344.4375
 11
1256.069
 21
2343.857
  0
LINE
  8
0-2
  6
CONTINUOUS
 62
    3
 10
1256.069
 20
2343.857
 11
1255.7998
 21
2343.322
  0
LINE
  8
0-2
  6
CONTINUOUS
 62
    3
 10
1255.7998
 20
2343.322
 11
1255.5016
 21
2342.8333
  0
LINE
  8
0-2
  6
CONTINUOUS
 62
    3
 10
1255.5016
 20
2342.8333
 11
1255.1772
 21
2342.3909
  0
LINE
  8
0-2
  6
CONTINUOUS
 62
    3
 10
1255.1772
 20
2342.3909
 11
1254.8301
 21
2341.9942
  0
LINE
  8
0-2
  6
CONTINUOUS
 62
    3
 10
1254.8301
 20
2341.9942
 11
1254.4626
 21
2341.6429
  0
LINE
  8
0-2
  6
CONTINUOUS
 62
    3
 10
1254.4626
 20
2341.6429
 11
1254.0786
 21
2341.337
  0
LINE
  8
0-2
  6
CONTINUOUS
 62
    3
 10
1254.0786
 20
2341.337
 11
1253.6807
 21
2341.0752
  0
LINE
  8
0-2
  6
CONTINUOUS
 62
    3
 10
1253.6807
 20
2341.0752
 11
1253.2729
 21
2340.858
  0
LINE
  8
0-2
  6
CONTINUOUS
 62
    3
 10
1253.2729
 20
2340.858
 11
1252.8582
 21
2340.6835
  0
LINE
  8
0-2
  6
CONTINUOUS
 62
    3
 10
1252.8582
 20
2340.6835
 11
1252.4398
 21
2340.5499
  0
LINE
  8
0-2
  6
CONTINUOUS
 62
    3
 10
1252.4398
 20
2340.5499
 11
1252.0219
 21
2340.4576
  0
LINE
  8
0-2
  6
CONTINUOUS
 62
    3
 10
1252.0219
 20
2340.4576
 11
1251.6077
 21
2340.4047
  0
LINE
  8
0-2
  6
CONTINUOUS
 62
    3
 10
1251.6077
 20
2340.4047
 11
1251.2009
 21
2340.3884
  0
LINE
  8
0-2
  6
CONTINUOUS
 62
    3
 10
1251.2009
 20
2340.3884
 11
1250.8055
 21
2340.4081
  0
LINE
  8
0-2
  6
CONTINUOUS
 62
    3
 10
1250.8055
 20
2340.4081
 11
1250.4252
 21
2340.4613
  0
LINE
  8
0-2
  6
CONTINUOUS
 62
    3
 10
1250.4252
 20
2340.4613
 11
1250.0639
 21
2340.5462
  0
LINE
  8
0-2
  6
CONTINUOUS
 62
    3
 10
1250.0639
 20
2340.5462
 11
1249.7256
 21
2340.6605
  0
LINE
  8
0-2
  6
CONTINUOUS
 62
    3
 10
1316.6925
 20
2345.0637
 11
1323.3333
 21
2345.0637
  0
LINE
  8
0-2
  6
CONTINUOUS
 62
    3
 10
1381.7395
 20
2270.5024
 11
1316.6925
 21
2345.0637
  0
LINE
  8
0-2
  6
CONTINUOUS
 62
    3
 10
1312.4014
 20
2345.0637
 11
1376.4017
 21
2270.5024
  0
LINE
  8
0-2
  6
CONTINUOUS
 62
    3
 10
1363.3829
 20
2270.5024
 11
1301.9352
 21
2345.0637
  0
LINE
  8
0-2
  6
CONTINUOUS
 62
    3
 10
1301.9352
 20
2345.0637
 11
1312.4014
 21
2345.0637
  0
LINE
  8
0-2
  6
CONTINUOUS
 62
    3
 10
1295.7853
 20
2345.0637
 11
1355.7326
 21
2270.5024
  0
LINE
  8
0-2
  6
CONTINUOUS
 62
    3
 10
1281.7248
 20
2345.0637
 11
1295.7853
 21
2345.0637
  0
LINE
  8
0-2
  6
CONTINUOUS
 62
    3
 10
1338.2425
 20
2270.5024
 11
1281.7248
 21
2345.0637
  0
LINE
  8
0-2
  6
CONTINUOUS
 62
    3
 10
1256.4978
 20
2345.0637
 11
1273.8481
 21
2345.0637
  0
LINE
  8
0-2
  6
CONTINUOUS
 62
    3
 10
1226.8008
 20
2345.0637
 11
1247.0657
 21
2345.0637
  0
LINE
  8
0-2
  6
CONTINUOUS
 62
    3
 10
1338.2425
 20
2166.1165
 11
1338.2425
 21
1957.3446
  0
LINE
  8
0-2
  6
CONTINUOUS
 62
    3
 10
1390
 20
1852.9584
 11
1323.3333
 21
1778.3969
  0
LINE
  8
0-2
  6
CONTINUOUS
 62
    3
 10
1390
 20
1852.9584
 11
1323.3333
 21
1778.3969
  0
LINE
  8
0-2
  6
CONTINUOUS
 62
    3
 10
1381.7395
 20
1852.9584
 11
1316.6925
 21
1778.3969
  0
LINE
  8
0-2
  6
CONTINUOUS
 62
    3
 10
1312.4014
 20
1778.3969
 11
1376.4017
 21
1852.9584
  0
LINE
  8
0-2
  6
CONTINUOUS
 62
    3
 10
1363.3829
 20
1852.9584
 11
1301.9352
 21
1778.3969
  0
LINE
  8
0-2
  6
CONTINUOUS
 62
    3
 10
1295.7853
 20
1778.3969
 11
1355.7326
 21
1852.9584
  0
LINE
  8
0-2
  6
CONTINUOUS
 62
    3
 10
1338.2425
 20
1852.9584
 11
1281.7248
 21
1778.3969
  0
LINE
  8
0-2
  6
CONTINUOUS
 62
    3
 10
1316.6925
 20
1778.3973
 11
1316.6114
 21
1779.075
  0
LINE
  8
0-2
  6
CONTINUOUS
 62
    3
 10
1316.6114
 20
1779.075
 11
1316.5252
 21
1779.6951
  0
LINE
  8
0-2
  6
CONTINUOUS
 62
    3
 10
1316.5252
 20
1779.6951
 11
1316.4352
 21
1780.2558
  0
LINE
  8
0-2
  6
CONTINUOUS
 62
    3
 10
1316.4352
 20
1780.2558
 11
1316.3397
 21
1780.7589
  0
LINE
  8
0-2
  6
CONTINUOUS
 62
    3
 10
1316.3397
 20
1780.7589
 11
1316.2397
 21
1781.2025
  0
LINE
  8
0-2
  6
CONTINUOUS
 62
    3
 10
1316.2397
 20
1781.2025
 11
1316.1348
 21
1781.5883
  0
LINE
  8
0-2
  6
CONTINUOUS
 62
    3
 10
1316.1348
 20
1781.5883
 11
1316.0254
 21
1781.9157
  0
LINE
  8
0-2
  6
CONTINUOUS
 62
    3
 10
1316.0254
 20
1781.9157
 11
1315.9116
 21
1782.1839
  0
LINE
  8
0-2
  6
CONTINUOUS
 62
    3
 10
1315.9116
 20
1782.1839
 11
1315.7928
 21
1782.3937
  0
LINE
  8
0-2
  6
CONTINUOUS
 62
    3
 10
1301.9352
 20
1778.3973
 11
1301.8907
 21
1778.934
  0
LINE
  8
0-2
  6
CONTINUOUS
 62
    3
 10
1301.8907
 20
1778.934
 11
1301.8164
 21
1779.4418
  0
LINE
  8
0-2
  6
CONTINUOUS
 62
    3
 10
1301.8164
 20
1779.4418
 11
1301.716
 21
1779.9203
  0
LINE
  8
0-2
  6
CONTINUOUS
 62
    3
 10
1301.716
 20
1779.9203
 11
1301.5927
 21
1780.3696
  0
LINE
  8
0-2
  6
CONTINUOUS
 62
    3
 10
1301.5927
 20
1780.3696
 11
1301.4482
 21
1780.7891
  0
LINE
  8
0-2
  6
CONTINUOUS
 62
    3
 10
1301.4482
 20
1780.7891
 11
1301.2869
 21
1781.1783
  0
LINE
  8
0-2
  6
CONTINUOUS
 62
    3
 10
1301.2869
 20
1781.1783
 11
1301.1107
 21
1781.5386
  0
LINE
  8
0-2
  6
CONTINUOUS
 62
    3
 10
1301.1107
 20
1781.5386
 11
1300.9227
 21
1781.8679
  0
LINE
  8
0-2
  6
CONTINUOUS
 62
    3
 10
1300.9227
 20
1781.8679
 11
1300.7257
 21
1782.168
  0
LINE
  8
0-2
  6
CONTINUOUS
 62
    3
 10
1300.7257
 20
1782.168
 11
1300.5228
 21
1782.437
  0
LINE
  8
0-2
  6
CONTINUOUS
 62
    3
 10
1300.5228
 20
1782.437
 11
1300.3165
 21
1782.6753
  0
LINE
  8
0-2
  6
CONTINUOUS
 62
    3
 10
1300.3165
 20
1782.6753
 11
1300.1101
 21
1782.8834
  0
LINE
  8
0-2
  6
CONTINUOUS
 62
    3
 10
1300.1101
 20
1782.8834
 11
1299.9062
 21
1783.0606
  0
LINE
  8
0-2
  6
CONTINUOUS
 62
    3
 10
1299.9062
 20
1783.0606
 11
1299.7077
 21
1783.2068
  0
LINE
  8
0-2
  6
CONTINUOUS
 62
    3
 10
1281.7248
 20
1778.3973
 11
1281.5907
 21
1778.9949
  0
LINE
  8
0-2
  6
CONTINUOUS
 62
    3
 10
1281.5907
 20
1778.9949
 11
1281.4274
 21
1779.5543
  0
LINE
  8
0-2
  6
CONTINUOUS
 62
    3
 10
1281.4274
 20
1779.5543
 11
1281.2364
 21
1780.0764
  0
LINE
  8
0-2
  6
CONTINUOUS
 62
    3
 10
1281.2364
 20
1780.0764
 11
1281.0186
 21
1780.5607
  0
LINE
  8
0-2
  6
CONTINUOUS
 62
    3
 10
1281.0186
 20
1780.5607
 11
1280.7749
 21
1781.0083
  0
LINE
  8
0-2
  6
CONTINUOUS
 62
    3
 10
1280.7749
 20
1781.0083
 11
1280.5069
 21
1781.4188
  0
LINE
  8
0-2
  6
CONTINUOUS
 62
    3
 10
1280.5069
 20
1781.4188
 11
1280.2159
 21
1781.7924
  0
LINE
  8
0-2
  6
CONTINUOUS
 62
    3
 10
1280.2159
 20
1781.7924
 11
1279.9027
 21
1782.1304
  0
LINE
  8
0-2
  6
CONTINUOUS
 62
    3
 10
1279.9027
 20
1782.1304
 11
1279.5686
 21
1782.4313
  0
LINE
  8
0-2
  6
CONTINUOUS
 62
    3
 10
1279.5686
 20
1782.4313
 11
1279.2148
 21
1782.6978
  0
LINE
  8
0-2
  6
CONTINUOUS
 62
    3
 10
1279.2148
 20
1782.6978
 11
1278.8421
 21
1782.9282
  0
LINE
  8
0-2
  6
CONTINUOUS
 62
    3
 10
1278.8421
 20
1782.9282
 11
1278.4522
 21
1783.1237
  0
LINE
  8
0-2
  6
CONTINUOUS
 62
    3
 10
1278.4522
 20
1783.1237
 11
1278.0459
 21
1783.2837
  0
LINE
  8
0-2
  6
CONTINUOUS
 62
    3
 10
1278.0459
 20
1783.2837
 11
1277.6247
 21
1783.4099
  0
LINE
  8
0-2
  6
CONTINUOUS
 62
    3
 10
1316.6925
 20
1778.3973
 11
1323.3333
 21
1778.3973
  0
LINE
  8
0-2
  6
CONTINUOUS
 62
    3
 10
1301.9352
 20
1778.3973
 11
1312.4014
 21
1778.3973
  0
LINE
  8
0-2
  6
CONTINUOUS
 62
    3
 10
1281.7248
 20
1778.3973
 11
1295.7853
 21
1778.3973
  0
LINE
  8
0-2
  6
CONTINUOUS
 62
    3
 10
1273.8481
 20
1778.3973
 11
1328.4449
 21
1852.9586
  0
LINE
  8
0-2
  6
CONTINUOUS
 62
    3
 10
1260.0008
 20
1852.9584
 11
1390.001
 21
1852.9584
  0
LINE
  8
0-2
  6
CONTINUOUS
 62
    3
 10
1260.0008
 20
1867.8703
 11
1390.001
 21
1867.8703
  0
LINE
  8
0-3
  6
CONTINUOUS
 62
    3
 10
1050.0001
 20
1891.9061
 11
1260.0001
 21
1891.9061
  0
LINE
  8
0-2
  6
CONTINUOUS
 62
    3
 10
1329.9998
 20
1891.9061
 11
1050.0001
 21
1891.9061
  0
LINE
  8
0-2
  6
CONTINUOUS
 62
    3
 10
1329.9998
 20
2181.0284
 11
1390.001
 21
2181.0284
  0
LINE
  8
0-2
  6
CONTINUOUS
 62
    3
 10
1329.9998
 20
2166.1165
 11
1390.001
 21
2166.1165
  0
LINE
  8
0-2
  6
CONTINUOUS
 62
    3
 10
1329.9998
 20
1942.4328
 11
1390.002
 21
1942.4328
  0
LINE
  8
0-2
  6
CONTINUOUS
 62
    3
 10
1329.9998
 20
1957.3443
 11
1390.002
 21
1957.3443
  0
LINE
  8
0-2
  6
CONTINUOUS
 62
    3
 10
1247.0657
 20
2345.0637
 11
1264.0796
 21
2318.6706
  0
LINE
  8
0-2
  6
CONTINUOUS
 62
    3
 10
1282.2528
 20
2306.9357
 11
1256.4978
 21
2345.0637
  0
LINE
  8
0-2
  6
CONTINUOUS
 62
    3
 10
1273.8481
 20
2345.0637
 11
1319.2694
 21
2283.0333
  0
LINE
  8
0-2
  6
CONTINUOUS
 62
    3
 10
1050.0001
 20
2456.9063
 11
1322.0194
 21
2281.2574
  0
LINE
  8
0-2
  6
CONTINUOUS
 62
    3
 10
1329.9998
 20
2222.675
 11
1329.9998
 21
1891.9061
  0
LINE
  8
0-2
  6
CONTINUOUS
 62
    3
 10
1329.9998
 20
2222.675
 11
1050.0001
 21
2222.675
  0
LINE
  8
0-2
  6
CONTINUOUS
 62
    3
 10
1329.9998
 20
2232.6751
 11
1050.0001
 21
2232.6751
  0
LINE
  8
0-2
  6
CONTINUOUS
 62
    3
 10
1260.0003
 20
1798.4622
 11
1295.1306
 21
1852.9586
  0
LINE
  8
0-2
  6
CONTINUOUS
 62
    3
 10
1306.8632
 20
1852.9586
 11
1260.0001
 21
1783.5822
  0
LINE
  8
0-2
  6
CONTINUOUS
 62
    3
 10
1260.0001
 20
1778.3973
 11
1273.8481
 21
1778.3973
  0
LINE
  8
0-3
  6
CONTINUOUS
 62
    7
 10
1209.9999
 20
2162.6751
 11
1209.9999
 21
1951.9061
  0
LINE
  8
0-3
  6
CONTINUOUS
 62
    7
 10
1279.9999
 20
2162.6751
 11
1279.9999
 21
1951.9061
  0
LINE
  8
0-3
  6
CONTINUOUS
 62
    7
 10
1139.9999
 20
2162.6751
 11
1100
 21
2162.6751
  0
LINE
  8
0-3
  6
CONTINUOUS
 62
    7
 10
1139.9999
 20
2162.6751
 11
1139.9999
 21
1951.9061
  0
LINE
  8
0-3
  6
CONTINUOUS
 62
    7
 10
1139.9999
 20
1951.9061
 11
1100
 21
1951.9061
  0
LINE
  8
0-3
  6
CONTINUOUS
 62
    7
 10
1209.9999
 20
2162.6751
 11
1170
 21
2162.6751
  0
LINE
  8
0-3
  6
CONTINUOUS
 62
    7
 10
1279.9999
 20
2162.6751
 11
1240
 21
2162.6751
  0
LINE
  8
0-3
  6
CONTINUOUS
 62
    7
 10
1279.9999
 20
1951.9061
 11
1240
 21
1951.9061
  0
LINE
  8
0-3
  6
CONTINUOUS
 62
    7
 10
1209.9999
 20
1951.9061
 11
1170
 21
1951.9061
  0
LINE
  8
0-3
  6
DASHED1
 62
    7
 10
1116.6656
 20
2140.1368
 11
1050.0001
 21
2140.1368
  0
LINE
  8
0-3
  6
CONTINUOUS
 62
    7
 10
1240.5479
 20
1891.9061
 11
1230.4973
 21
1911.9057
  0
LINE
  8
0-3
  6
CONTINUOUS
 62
    7
 10
1221.0956
 20
1891.9061
 11
1212.4152
 21
1911.9057
  0
LINE
  8
0-3
  6
CONTINUOUS
 62
    7
 10
1201.6434
 20
1891.9061
 11
1194.2212
 21
1911.9057
  0
LINE
  8
0-3
  6
CONTINUOUS
 62
    7
 10
1064.6265
 20
1911.9057
 11
1065.4775
 21
1891.9061
  0
LINE
  8
0-3
  6
CONTINUOUS
 62
    7
 10
1084.9297
 20
1891.9061
 11
1083.3246
 21
1911.9057
  0
LINE
  8
0-3
  6
CONTINUOUS
 62
    7
 10
1104.382
 20
1891.9061
 11
1101.9716
 21
1911.9057
  0
LINE
  8
0-3
  6
CONTINUOUS
 62
    7
 10
1123.8344
 20
1891.9061
 11
1120.5623
 21
1911.9057
  0
LINE
  8
0-3
  6
CONTINUOUS
 62
    7
 10
1143.2867
 20
1891.9061
 11
1139.0901
 21
1911.9057
  0
LINE
  8
0-3
  6
CONTINUOUS
 62
    7
 10
1162.7389
 20
1891.9061
 11
1157.5484
 21
1911.9057
  0
LINE
  8
0-3
  6
CONTINUOUS
 62
    7
 10
1182.1911
 20
1891.9061
 11
1175.9284
 21
1911.9057
  0
LINE
  8
0-3
  6
CONTINUOUS
 62
    7
 10
1260.0001
 20
1891.9061
 11
1248.4518
 21
1911.9057
  0
LINE
  8
0-3
  6
CONTINUOUS
 62
    7
 10
1248.4518
 20
1911.9057
 11
1050.0001
 21
1911.9057
  0
LINE
  8
0-3
  6
DASHED1
 62
    7
 10
1248.4518
 20
1911.9057
 11
1116.6656
 21
2140.1368
  0
LINE
  8
0-2
  6
CONTINUOUS
 62
    3
 10
710.00027
 20
1867.8706
 11
1050.0001
 21
1867.8706
  0
LINE
  8
0-2
  6
CONTINUOUS
 62
    3
 10
710.00027
 20
1852.9586
 11
1050.0001
 21
1852.9586
  0
LINE
  8
0-2
  6
CONTINUOUS
 62
    3
 10
710.00101
 20
1942.4331
 11
1050.0001
 21
1942.4331
  0
LINE
  8
0-2
  6
CONTINUOUS
 62
    3
 10
710.00101
 20
1957.3446
 11
1050.0001
 21
1957.3446
  0
LINE
  8
0-2
  6
CONTINUOUS
 62
    3
 10
710.00002
 20
2181.0287
 11
1050.0001
 21
2181.0287
  0
LINE
  8
0-2
  6
CONTINUOUS
 62
    3
 10
710.00002
 20
2166.1165
 11
1050.0001
 21
2166.1165
  0
LINE
  8
0-2
  6
CONTINUOUS
 62
    3
 10
710.00002
 20
2255.5902
 11
1390
 21
2255.5902
  0
LINE
  8
0-2
  6
CONTINUOUS
 62
    3
 10
1050.0001
 20
2281.2574
 11
1322.0194
 21
2281.2574
  0
LINE
  8
0-2
  6
CONTINUOUS
 62
    3
 10
710.00002
 20
2270.5024
 11
1390
 21
2270.5024
  0
LINE
  8
0-2
  6
CONTINUOUS
 62
    3
 10
1050.0001
 20
1966.3822
 11
1016.0209
 21
1975.4195
  0
LINE
  8
0-2
  6
CONTINUOUS
 62
    3
 10
1329.9998
 20
1881.9061
 11
1050.0001
 21
1881.9061
  0
LINE
  8
0-2
  6
CONTINUOUS
 62
    3
 10
1260.001
 20
1881.9061
 11
1259.9991
 21
1666.5552
  0
LINE
  8
0-2
  6
CONTINUOUS
 62
    3
 10
1260.0007
 20
1852.9586
 11
1390.001
 21
1852.9586
  0
LINE
  8
0-5
  6
DASHED3
 62
    7
 10
1050.0001
 20
1756.5551
 11
1260.0001
 21
1756.5551
  0
LINE
  8
0-d
  6
CONTINUOUS
 62
    4
 10
1197.4174
 20
1756.9707
 11
1304.8484
 21
1694.9453
  0
LINE
  8
0-d
  6
CONTINUOUS
 62
    4
 10
1304.8484
 20
1694.9453
 11
1362.1935
 21
1694.9453
  0
LINE
  8
0-2
  6
CENTER2
 62
    7
 10
1050.0001
 20
2456.9063
 11
1050.0001
 21
1546.9062
  0
LINE
  8
0-2
  6
CONTINUOUS
 62
    3
 10
840.00021
 20
1621.8178
 11
838.84263
 21
1621.7045
  0
LINE
  8
0-2
  6
CONTINUOUS
 62
    3
 10
838.84263
 20
1621.7045
 11
837.72023
 21
1621.3682
  0
LINE
  8
0-2
  6
CONTINUOUS
 62
    3
 10
837.72023
 20
1621.3682
 11
836.6671
 21
1620.8189
  0
LINE
  8
0-2
  6
CONTINUOUS
 62
    3
 10
836.6671
 20
1620.8189
 11
835.71524
 21
1620.0735
  0
LINE
  8
0-2
  6
CONTINUOUS
 62
    3
 10
835.71524
 20
1620.0735
 11
834.89359
 21
1619.1545
  0
LINE
  8
0-2
  6
CONTINUOUS
 62
    3
 10
834.89359
 20
1619.1545
 11
834.22709
 21
1618.0899
  0
LINE
  8
0-2
  6
CONTINUOUS
 62
    3
 10
834.22709
 20
1618.0899
 11
833.73601
 21
1616.912
  0
LINE
  8
0-2
  6
CONTINUOUS
 62
    3
 10
833.73601
 20
1616.912
 11
833.43526
 21
1615.6567
  0
LINE
  8
0-2
  6
CONTINUOUS
 62
    3
 10
833.43526
 20
1615.6567
 11
833.33399
 21
1614.362
  0
LINE
  8
0-2
  6
CONTINUOUS
 62
    3
 10
833.33399
 20
1614.362
 11
833.43526
 21
1613.0673
  0
LINE
  8
0-2
  6
CONTINUOUS
 62
    3
 10
833.43526
 20
1613.0673
 11
833.73601
 21
1611.812
  0
LINE
  8
0-2
  6
CONTINUOUS
 62
    3
 10
833.73601
 20
1611.812
 11
834.22709
 21
1610.6341
  0
LINE
  8
0-2
  6
CONTINUOUS
 62
    3
 10
834.22709
 20
1610.6341
 11
834.89359
 21
1609.5695
  0
LINE
  8
0-2
  6
CONTINUOUS
 62
    3
 10
834.89359
 20
1609.5695
 11
835.71524
 21
1608.6505
  0
LINE
  8
0-2
  6
CONTINUOUS
 62
    3
 10
835.71524
 20
1608.6505
 11
836.6671
 21
1607.9051
  0
LINE
  8
0-2
  6
CONTINUOUS
 62
    3
 10
836.6671
 20
1607.9051
 11
837.72023
 21
1607.3559
  0
LINE
  8
0-2
  6
CONTINUOUS
 62
    3
 10
837.72023
 20
1607.3559
 11
838.84263
 21
1607.0195
  0
LINE
  8
0-2
  6
CONTINUOUS
 62
    3
 10
838.84263
 20
1607.0195
 11
840.00021
 21
1606.9062
  0
LINE
  8
0-2
  6
CONTINUOUS
 62
    3
 10
839.99922
 20
1666.5552
 11
838.84164
 21
1666.4419
  0
LINE
  8
0-2
  6
CONTINUOUS
 62
    3
 10
838.84164
 20
1666.4419
 11
837.71924
 21
1666.1055
  0
LINE
  8
0-2
  6
CONTINUOUS
 62
    3
 10
837.71924
 20
1666.1055
 11
836.66611
 21
1665.5563
  0
LINE
  8
0-2
  6
CONTINUOUS
 62
    3
 10
836.66611
 20
1665.5563
 11
835.71425
 21
1664.8109
  0
LINE
  8
0-2
  6
CONTINUOUS
 62
    3
 10
835.71425
 20
1664.8109
 11
834.8926
 21
1663.8919
  0
LINE
  8
0-2
  6
CONTINUOUS
 62
    3
 10
834.8926
 20
1663.8919
 11
834.2261
 21
1662.8273
  0
LINE
  8
0-2
  6
CONTINUOUS
 62
    3
 10
834.2261
 20
1662.8273
 11
833.73502
 21
1661.6494
  0
LINE
  8
0-2
  6
CONTINUOUS
 62
    3
 10
833.73502
 20
1661.6494
 11
833.43427
 21
1660.3941
  0
LINE
  8
0-2
  6
CONTINUOUS
 62
    3
 10
833.43427
 20
1660.3941
 11
833.333
 21
1659.0994
  0
LINE
  8
0-2
  6
CONTINUOUS
 62
    3
 10
833.333
 20
1659.0994
 11
833.43427
 21
1657.8047
  0
LINE
  8
0-2
  6
CONTINUOUS
 62
    3
 10
833.43427
 20
1657.8047
 11
833.73502
 21
1656.5494
  0
LINE
  8
0-2
  6
CONTINUOUS
 62
    3
 10
833.73502
 20
1656.5494
 11
834.2261
 21
1655.3715
  0
LINE
  8
0-2
  6
CONTINUOUS
 62
    3
 10
834.2261
 20
1655.3715
 11
834.8926
 21
1654.3069
  0
LINE
  8
0-2
  6
CONTINUOUS
 62
    3
 10
834.8926
 20
1654.3069
 11
835.71425
 21
1653.3879
  0
LINE
  8
0-2
  6
CONTINUOUS
 62
    3
 10
835.71425
 20
1653.3879
 11
836.66611
 21
1652.6425
  0
LINE
  8
0-2
  6
CONTINUOUS
 62
    3
 10
836.66611
 20
1652.6425
 11
837.71924
 21
1652.0932
  0
LINE
  8
0-2
  6
CONTINUOUS
 62
    3
 10
837.71924
 20
1652.0932
 11
838.84164
 21
1651.7569
  0
LINE
  8
0-2
  6
CONTINUOUS
 62
    3
 10
838.84164
 20
1651.7569
 11
839.99922
 21
1651.6436
  0
LINE
  8
0-2
  6
CONTINUOUS
 62
    3
 10
1260.0001
 20
1606.9062
 11
1261.1577
 21
1607.0195
  0
LINE
  8
0-2
  6
CONTINUOUS
 62
    3
 10
1261.1577
 20
1607.0195
 11
1262.2801
 21
1607.3559
  0
LINE
  8
0-2
  6
CONTINUOUS
 62
    3
 10
1262.2801
 20
1607.3559
 11
1263.3332
 21
1607.9051
  0
LINE
  8
0-2
  6
CONTINUOUS
 62
    3
 10
1263.3332
 20
1607.9051
 11
1264.2851
 21
1608.6505
  0
LINE
  8
0-2
  6
CONTINUOUS
 62
    3
 10
1264.2851
 20
1608.6505
 11
1265.1067
 21
1609.5695
  0
LINE
  8
0-2
  6
CONTINUOUS
 62
    3
 10
1265.1067
 20
1609.5695
 11
1265.7732
 21
1610.6341
  0
LINE
  8
0-2
  6
CONTINUOUS
 62
    3
 10
1265.7732
 20
1610.6341
 11
1266.2643
 21
1611.812
  0
LINE
  8
0-2
  6
CONTINUOUS
 62
    3
 10
1266.2643
 20
1611.812
 11
1266.565
 21
1613.0673
  0
LINE
  8
0-2
  6
CONTINUOUS
 62
    3
 10
1266.565
 20
1613.0673
 11
1266.6663
 21
1614.362
  0
LINE
  8
0-2
  6
CONTINUOUS
 62
    3
 10
1266.6663
 20
1614.362
 11
1266.565
 21
1615.6567
  0
LINE
  8
0-2
  6
CONTINUOUS
 62
    3
 10
1266.565
 20
1615.6567
 11
1266.2643
 21
1616.912
  0
LINE
  8
0-2
  6
CONTINUOUS
 62
    3
 10
1266.2643
 20
1616.912
 11
1265.7732
 21
1618.0899
  0
LINE
  8
0-2
  6
CONTINUOUS
 62
    3
 10
1265.7732
 20
1618.0899
 11
1265.1067
 21
1619.1545
  0
LINE
  8
0-2
  6
CONTINUOUS
 62
    3
 10
1265.1067
 20
1619.1545
 11
1264.2851
 21
1620.0735
  0
LINE
  8
0-2
  6
CONTINUOUS
 62
    3
 10
1264.2851
 20
1620.0735
 11
1263.3332
 21
1620.8189
  0
LINE
  8
0-2
  6
CONTINUOUS
 62
    3
 10
1263.3332
 20
1620.8189
 11
1262.2801
 21
1621.3682
  0
LINE
  8
0-2
  6
CONTINUOUS
 62
    3
 10
1262.2801
 20
1621.3682
 11
1261.1577
 21
1621.7045
  0
LINE
  8
0-2
  6
CONTINUOUS
 62
    3
 10
1261.1577
 20
1621.7045
 11
1260.0001
 21
1621.8178
  0
LINE
  8
0-2
  6
CONTINUOUS
 62
    3
 10
1259.9991
 20
1651.6436
 11
1261.1567
 21
1651.7569
  0
LINE
  8
0-2
  6
CONTINUOUS
 62
    3
 10
1261.1567
 20
1651.7569
 11
1262.2791
 21
1652.0932
  0
LINE
  8
0-2
  6
CONTINUOUS
 62
    3
 10
1262.2791
 20
1652.0932
 11
1263.3322
 21
1652.6425
  0
LINE
  8
0-2
  6
CONTINUOUS
 62
    3
 10
1263.3322
 20
1652.6425
 11
1264.2841
 21
1653.3879
  0
LINE
  8
0-2
  6
CONTINUOUS
 62
    3
 10
1264.2841
 20
1653.3879
 11
1265.1057
 21
1654.3069
  0
LINE
  8
0-2
  6
CONTINUOUS
 62
    3
 10
1265.1057
 20
1654.3069
 11
1265.7722
 21
1655.3715
  0
LINE
  8
0-2
  6
CONTINUOUS
 62
    3
 10
1265.7722
 20
1655.3715
 11
1266.2633
 21
1656.5494
  0
LINE
  8
0-2
  6
CONTINUOUS
 62
    3
 10
1266.2633
 20
1656.5494
 11
1266.564
 21
1657.8047
  0
LINE
  8
0-2
  6
CONTINUOUS
 62
    3
 10
1266.564
 20
1657.8047
 11
1266.6653
 21
1659.0994
  0
LINE
  8
0-2
  6
CONTINUOUS
 62
    3
 10
1266.6653
 20
1659.0994
 11
1266.564
 21
1660.3941
  0
LINE
  8
0-2
  6
CONTINUOUS
 62
    3
 10
1266.564
 20
1660.3941
 11
1266.2633
 21
1661.6494
  0
LINE
  8
0-2
  6
CONTINUOUS
 62
    3
 10
1266.2633
 20
1661.6494
 11
1265.7722
 21
1662.8273
  0
LINE
  8
0-2
  6
CONTINUOUS
 62
    3
 10
1265.7722
 20
1662.8273
 11
1265.1057
 21
1663.8919
  0
LINE
  8
0-2
  6
CONTINUOUS
 62
    3
 10
1265.1057
 20
1663.8919
 11
1264.2841
 21
1664.8109
  0
LINE
  8
0-2
  6
CONTINUOUS
 62
    3
 10
1264.2841
 20
1664.8109
 11
1263.3322
 21
1665.5563
  0
LINE
  8
0-2
  6
CONTINUOUS
 62
    3
 10
1263.3322
 20
1665.5563
 11
1262.2791
 21
1666.1055
  0
LINE
  8
0-2
  6
CONTINUOUS
 62
    3
 10
1262.2791
 20
1666.1055
 11
1261.1567
 21
1666.4419
  0
LINE
  8
0-2
  6
CONTINUOUS
 62
    3
 10
1261.1567
 20
1666.4419
 11
1259.9991
 21
1666.5552
  0
LINE
  8
0-2
  6
CONTINUOUS
 62
    3
 10
710.00101
 20
1957.345
 11
708.84343
 21
1957.2317
  0
LINE
  8
0-2
  6
CONTINUOUS
 62
    3
 10
708.84343
 20
1957.2317
 11
707.72103
 21
1956.8954
  0
LINE
  8
0-2
  6
CONTINUOUS
 62
    3
 10
707.72103
 20
1956.8954
 11
706.6679
 21
1956.3461
  0
LINE
  8
0-2
  6
CONTINUOUS
 62
    3
 10
706.6679
 20
1956.3461
 11
705.71605
 21
1955.6007
  0
LINE
  8
0-2
  6
CONTINUOUS
 62
    3
 10
705.71605
 20
1955.6007
 11
704.89439
 21
1954.6817
  0
LINE
  8
0-2
  6
CONTINUOUS
 62
    3
 10
704.89439
 20
1954.6817
 11
704.22789
 21
1953.6171
  0
LINE
  8
0-2
  6
CONTINUOUS
 62
    3
 10
704.22789
 20
1953.6171
 11
703.73681
 21
1952.4392
  0
LINE
  8
0-2
  6
CONTINUOUS
 62
    3
 10
703.73681
 20
1952.4392
 11
703.43606
 21
1951.1839
  0
LINE
  8
0-2
  6
CONTINUOUS
 62
    3
 10
703.43606
 20
1951.1839
 11
703.33479
 21
1949.8892
  0
LINE
  8
0-2
  6
CONTINUOUS
 62
    3
 10
703.33479
 20
1949.8892
 11
703.43606
 21
1948.5945
  0
LINE
  8
0-2
  6
CONTINUOUS
 62
    3
 10
703.43606
 20
1948.5945
 11
703.73681
 21
1947.3392
  0
LINE
  8
0-2
  6
CONTINUOUS
 62
    3
 10
703.73681
 20
1947.3392
 11
704.22789
 21
1946.1613
  0
LINE
  8
0-2
  6
CONTINUOUS
 62
    3
 10
704.22789
 20
1946.1613
 11
704.89439
 21
1945.0967
  0
LINE
  8
0-2
  6
CONTINUOUS
 62
    3
 10
704.89439
 20
1945.0967
 11
705.71605
 21
1944.1777
  0
LINE
  8
0-2
  6
CONTINUOUS
 62
    3
 10
705.71605
 20
1944.1777
 11
706.6679
 21
1943.4323
  0
LINE
  8
0-2
  6
CONTINUOUS
 62
    3
 10
706.6679
 20
1943.4323
 11
707.72103
 21
1942.883
  0
LINE
  8
0-2
  6
CONTINUOUS
 62
    3
 10
707.72103
 20
1942.883
 11
708.84343
 21
1942.5467
  0
LINE
  8
0-2
  6
CONTINUOUS
 62
    3
 10
708.84343
 20
1942.5467
 11
710.00101
 21
1942.4334
  0
LINE
  8
0-2
  6
CONTINUOUS
 62
    3
 10
710.00027
 20
1867.8703
 11
708.84269
 21
1867.757
  0
LINE
  8
0-2
  6
CONTINUOUS
 62
    3
 10
708.84269
 20
1867.757
 11
707.72029
 21
1867.4206
  0
LINE
  8
0-2
  6
CONTINUOUS
 62
    3
 10
707.72029
 20
1867.4206
 11
706.66716
 21
1866.8714
  0
LINE
  8
0-2
  6
CONTINUOUS
 62
    3
 10
706.66716
 20
1866.8714
 11
705.7153
 21
1866.1259
  0
LINE
  8
0-2
  6
CONTINUOUS
 62
    3
 10
705.7153
 20
1866.1259
 11
704.89365
 21
1865.2069
  0
LINE
  8
0-2
  6
CONTINUOUS
 62
    3
 10
704.89365
 20
1865.2069
 11
704.22715
 21
1864.1424
  0
LINE
  8
0-2
  6
CONTINUOUS
 62
    3
 10
704.22715
 20
1864.1424
 11
703.73607
 21
1862.9645
  0
LINE
  8
0-2
  6
CONTINUOUS
 62
    3
 10
703.73607
 20
1862.9645
 11
703.43532
 21
1861.7091
  0
LINE
  8
0-2
  6
CONTINUOUS
 62
    3
 10
703.43532
 20
1861.7091
 11
703.33405
 21
1860.4145
  0
LINE
  8
0-2
  6
CONTINUOUS
 62
    3
 10
703.33405
 20
1860.4145
 11
703.43532
 21
1859.1198
  0
LINE
  8
0-2
  6
CONTINUOUS
 62
    3
 10
703.43532
 20
1859.1198
 11
703.73607
 21
1857.8644
  0
LINE
  8
0-2
  6
CONTINUOUS
 62
    3
 10
703.73607
 20
1857.8644
 11
704.22715
 21
1856.6866
  0
LINE
  8
0-2
  6
CONTINUOUS
 62
    3
 10
704.22715
 20
1856.6866
 11
704.89365
 21
1855.622
  0
LINE
  8
0-2
  6
CONTINUOUS
 62
    3
 10
704.89365
 20
1855.622
 11
705.7153
 21
1854.703
  0
LINE
  8
0-2
  6
CONTINUOUS
 62
    3
 10
705.7153
 20
1854.703
 11
706.66716
 21
1853.9576
  0
LINE
  8
0-2
  6
CONTINUOUS
 62
    3
 10
706.66716
 20
1853.9576
 11
707.72029
 21
1853.4083
  0
LINE
  8
0-2
  6
CONTINUOUS
 62
    3
 10
707.72029
 20
1853.4083
 11
708.84269
 21
1853.0719
  0
LINE
  8
0-2
  6
CONTINUOUS
 62
    3
 10
708.84269
 20
1853.0719
 11
710.00027
 21
1852.9587
  0
LINE
  8
0-2
  6
CONTINUOUS
 62
    3
 10
710.00002
 20
2270.5024
 11
708.84245
 21
2270.3891
  0
LINE
  8
0-2
  6
CONTINUOUS
 62
    3
 10
708.84245
 20
2270.3891
 11
707.72004
 21
2270.0527
  0
LINE
  8
0-2
  6
CONTINUOUS
 62
    3
 10
707.72004
 20
2270.0527
 11
706.66691
 21
2269.5035
  0
LINE
  8
0-2
  6
CONTINUOUS
 62
    3
 10
706.66691
 20
2269.5035
 11
705.71506
 21
2268.758
  0
LINE
  8
0-2
  6
CONTINUOUS
 62
    3
 10
705.71506
 20
2268.758
 11
704.8934
 21
2267.8391
  0
LINE
  8
0-2
  6
CONTINUOUS
 62
    3
 10
704.8934
 20
2267.8391
 11
704.2269
 21
2266.7745
  0
LINE
  8
0-2
  6
CONTINUOUS
 62
    3
 10
704.2269
 20
2266.7745
 11
703.73582
 21
2265.5966
  0
LINE
  8
0-2
  6
CONTINUOUS
 62
    3
 10
703.73582
 20
2265.5966
 11
703.43507
 21
2264.3413
  0
LINE
  8
0-2
  6
CONTINUOUS
 62
    3
 10
703.43507
 20
2264.3413
 11
703.3338
 21
2263.0466
  0
LINE
  8
0-2
  6
CONTINUOUS
 62
    3
 10
703.3338
 20
2263.0466
 11
703.43507
 21
2261.7519
  0
LINE
  8
0-2
  6
CONTINUOUS
 62
    3
 10
703.43507
 20
2261.7519
 11
703.73582
 21
2260.4965
  0
LINE
  8
0-2
  6
CONTINUOUS
 62
    3
 10
703.73582
 20
2260.4965
 11
704.2269
 21
2259.3187
  0
LINE
  8
0-2
  6
CONTINUOUS
 62
    3
 10
704.2269
 20
2259.3187
 11
704.8934
 21
2258.2541
  0
LINE
  8
0-2
  6
CONTINUOUS
 62
    3
 10
704.8934
 20
2258.2541
 11
705.71506
 21
2257.3351
  0
LINE
  8
0-2
  6
CONTINUOUS
 62
    3
 10
705.71506
 20
2257.3351
 11
706.66691
 21
2256.5897
  0
LINE
  8
0-2
  6
CONTINUOUS
 62
    3
 10
706.66691
 20
2256.5897
 11
707.72004
 21
2256.0404
  0
LINE
  8
0-2
  6
CONTINUOUS
 62
    3
 10
707.72004
 20
2256.0404
 11
708.84245
 21
2255.7041
  0
LINE
  8
0-2
  6
CONTINUOUS
 62
    3
 10
708.84245
 20
2255.7041
 11
710.00002
 21
2255.5908
  0
LINE
  8
0-2
  6
CONTINUOUS
 62
    3
 10
710.00002
 20
2181.0281
 11
708.84245
 21
2180.9149
  0
LINE
  8
0-2
  6
CONTINUOUS
 62
    3
 10
708.84245
 20
2180.9149
 11
707.72004
 21
2180.5785
  0
LINE
  8
0-2
  6
CONTINUOUS
 62
    3
 10
707.72004
 20
2180.5785
 11
706.66691
 21
2180.0292
  0
LINE
  8
0-2
  6
CONTINUOUS
 62
    3
 10
706.66691
 20
2180.0292
 11
705.71506
 21
2179.2838
  0
LINE
  8
0-2
  6
CONTINUOUS
 62
    3
 10
705.71506
 20
2179.2838
 11
704.8934
 21
2178.3648
  0
LINE
  8
0-2
  6
CONTINUOUS
 62
    3
 10
704.8934
 20
2178.3648
 11
704.2269
 21
2177.3002
  0
LINE
  8
0-2
  6
CONTINUOUS
 62
    3
 10
704.2269
 20
2177.3002
 11
703.73582
 21
2176.1224
  0
LINE
  8
0-2
  6
CONTINUOUS
 62
    3
 10
703.73582
 20
2176.1224
 11
703.43507
 21
2174.867
  0
LINE
  8
0-2
  6
CONTINUOUS
 62
    3
 10
703.43507
 20
2174.867
 11
703.3338
 21
2173.5723
  0
LINE
  8
0-2
  6
CONTINUOUS
 62
    3
 10
703.3338
 20
2173.5723
 11
703.43507
 21
2172.2776
  0
LINE
  8
0-2
  6
CONTINUOUS
 62
    3
 10
703.43507
 20
2172.2776
 11
703.73582
 21
2171.0223
  0
LINE
  8
0-2
  6
CONTINUOUS
 62
    3
 10
703.73582
 20
2171.0223
 11
704.2269
 21
2169.8444
  0
LINE
  8
0-2
  6
CONTINUOUS
 62
    3
 10
704.2269
 20
2169.8444
 11
704.8934
 21
2168.7798
  0
LINE
  8
0-2
  6
CONTINUOUS
 62
    3
 10
704.8934
 20
2168.7798
 11
705.71506
 21
2167.8609
  0
LINE
  8
0-2
  6
CONTINUOUS
 62
    3
 10
705.71506
 20
2167.8609
 11
706.66691
 21
2167.1154
  0
LINE
  8
0-2
  6
CONTINUOUS
 62
    3
 10
706.66691
 20
2167.1154
 11
707.72004
 21
2166.5662
  0
LINE
  8
0-2
  6
CONTINUOUS
 62
    3
 10
707.72004
 20
2166.5662
 11
708.84245
 21
2166.2298
  0
LINE
  8
0-2
  6
CONTINUOUS
 62
    3
 10
708.84245
 20
2166.2298
 11
710.00002
 21
2166.1165
  0
LINE
  8
0-2
  6
CONTINUOUS
 62
    3
 10
1022.6837
 20
2345.064
 11
1023.0329
 21
2343.7634
  0
LINE
  8
0-2
  6
CONTINUOUS
 62
    3
 10
1023.0329
 20
2343.7634
 11
1023.5788
 21
2342.5503
  0
LINE
  8
0-2
  6
CONTINUOUS
 62
    3
 10
1023.5788
 20
2342.5503
 11
1024.3047
 21
2341.4617
  0
LINE
  8
0-2
  6
CONTINUOUS
 62
    3
 10
1024.3047
 20
2341.4617
 11
1025.1887
 21
2340.5306
  0
LINE
  8
0-2
  6
CONTINUOUS
 62
    3
 10
1025.1887
 20
2340.5306
 11
1026.2037
 21
2339.7853
  0
LINE
  8
0-2
  6
CONTINUOUS
 62
    3
 10
1026.2037
 20
2339.7853
 11
1027.3191
 21
2339.2485
  0
LINE
  8
0-2
  6
CONTINUOUS
 62
    3
 10
1027.3191
 20
2339.2485
 11
1028.5008
 21
2338.9364
  0
LINE
  8
0-2
  6
CONTINUOUS
 62
    3
 10
1028.5008
 20
2338.9364
 11
1029.7131
 21
2338.8586
  0
LINE
  8
0-2
  6
CONTINUOUS
 62
    3
 10
1029.7131
 20
2338.8586
 11
1030.919
 21
2339.0174
  0
LINE
  8
0-2
  6
CONTINUOUS
 62
    3
 10
1030.919
 20
2339.0174
 11
1032.0819
 21
2339.4081
  0
LINE
  8
0-2
  6
CONTINUOUS
 62
    3
 10
1032.0819
 20
2339.4081
 11
1033.1665
 21
2340.0186
  0
LINE
  8
0-2
  6
CONTINUOUS
 62
    3
 10
1033.1665
 20
2340.0186
 11
1034.1399
 21
2340.8305
  0
LINE
  8
0-2
  6
CONTINUOUS
 62
    3
 10
1034.1399
 20
2340.8305
 11
1034.9723
 21
2341.8192
  0
LINE
  8
0-2
  6
CONTINUOUS
 62
    3
 10
1034.9723
 20
2341.8192
 11
1035.6387
 21
2342.9544
  0
LINE
  8
0-2
  6
CONTINUOUS
 62
    3
 10
1035.6387
 20
2342.9544
 11
1036.1187
 21
2344.2019
  0
LINE
  8
0-2
  6
CONTINUOUS
 62
    3
 10
1036.1187
 20
2344.2019
 11
1036.3252
 21
2345.064
  0
LINE
  8
0-2
  6
CONTINUOUS
 62
    3
 10
852.1503
 20
2187.8887
 11
852.08954
 21
2188.6656
  0
LINE
  8
0-2
  6
CONTINUOUS
 62
    3
 10
852.08954
 20
2188.6656
 11
851.90908
 21
2189.4188
  0
LINE
  8
0-2
  6
CONTINUOUS
 62
    3
 10
851.90908
 20
2189.4188
 11
851.61442
 21
2190.1255
  0
LINE
  8
0-2
  6
CONTINUOUS
 62
    3
 10
851.61442
 20
2190.1255
 11
851.2145
 21
2190.7643
  0
LINE
  8
0-2
  6
CONTINUOUS
 62
    3
 10
851.2145
 20
2190.7643
 11
850.72148
 21
2191.3157
  0
LINE
  8
0-2
  6
CONTINUOUS
 62
    3
 10
850.72148
 20
2191.3157
 11
850.15034
 21
2191.763
  0
LINE
  8
0-2
  6
CONTINUOUS
 62
    3
 10
850.15034
 20
2191.763
 11
849.51844
 21
2192.0926
  0
LINE
  8
0-2
  6
CONTINUOUS
 62
    3
 10
849.51844
 20
2192.0926
 11
848.84496
 21
2192.2944
  0
LINE
  8
0-2
  6
CONTINUOUS
 62
    3
 10
848.84496
 20
2192.2944
 11
848.15038
 21
2192.3624
  0
LINE
  8
0-2
  6
CONTINUOUS
 62
    3
 10
848.15038
 20
2192.3624
 11
847.45581
 21
2192.2944
  0
LINE
  8
0-2
  6
CONTINUOUS
 62
    3
 10
847.45581
 20
2192.2944
 11
846.78233
 21
2192.0926
  0
LINE
  8
0-2
  6
CONTINUOUS
 62
    3
 10
846.78233
 20
2192.0926
 11
846.15042
 21
2191.763
  0
LINE
  8
0-2
  6
CONTINUOUS
 62
    3
 10
846.15042
 20
2191.763
 11
845.57929
 21
2191.3157
  0
LINE
  8
0-2
  6
CONTINUOUS
 62
    3
 10
845.57929
 20
2191.3157
 11
845.08627
 21
2190.7643
  0
LINE
  8
0-2
  6
CONTINUOUS
 62
    3
 10
845.08627
 20
2190.7643
 11
844.68635
 21
2190.1255
  0
LINE
  8
0-2
  6
CONTINUOUS
 62
    3
 10
844.68635
 20
2190.1255
 11
844.39169
 21
2189.4188
  0
LINE
  8
0-2
  6
CONTINUOUS
 62
    3
 10
844.39169
 20
2189.4188
 11
844.21123
 21
2188.6656
  0
LINE
  8
0-2
  6
CONTINUOUS
 62
    3
 10
844.21123
 20
2188.6656
 11
844.15046
 21
2187.8887
  0
LINE
  8
0-2
  6
CONTINUOUS
 62
    3
 10
844.15046
 20
2187.8887
 11
844.21123
 21
2187.1119
  0
LINE
  8
0-2
  6
CONTINUOUS
 62
    3
 10
844.21123
 20
2187.1119
 11
844.39169
 21
2186.3586
  0
LINE
  8
0-2
  6
CONTINUOUS
 62
    3
 10
844.39169
 20
2186.3586
 11
844.68635
 21
2185.6519
  0
LINE
  8
0-2
  6
CONTINUOUS
 62
    3
 10
844.68635
 20
2185.6519
 11
845.08627
 21
2185.0131
  0
LINE
  8
0-2
  6
CONTINUOUS
 62
    3
 10
845.08627
 20
2185.0131
 11
845.57929
 21
2184.4617
  0
LINE
  8
0-2
  6
CONTINUOUS
 62
    3
 10
845.57929
 20
2184.4617
 11
846.15042
 21
2184.0144
  0
LINE
  8
0-2
  6
CONTINUOUS
 62
    3
 10
846.15042
 20
2184.0144
 11
846.78233
 21
2183.6848
  0
LINE
  8
0-2
  6
CONTINUOUS
 62
    3
 10
846.78233
 20
2183.6848
 11
847.45581
 21
2183.483
  0
LINE
  8
0-2
  6
CONTINUOUS
 62
    3
 10
847.45581
 20
2183.483
 11
848.15038
 21
2183.415
  0
LINE
  8
0-2
  6
CONTINUOUS
 62
    3
 10
848.15038
 20
2183.415
 11
848.84496
 21
2183.483
  0
LINE
  8
0-2
  6
CONTINUOUS
 62
    3
 10
848.84496
 20
2183.483
 11
849.51844
 21
2183.6848
  0
LINE
  8
0-2
  6
CONTINUOUS
 62
    3
 10
849.51844
 20
2183.6848
 11
850.15034
 21
2184.0144
  0
LINE
  8
0-2
  6
CONTINUOUS
 62
    3
 10
850.15034
 20
2184.0144
 11
850.72148
 21
2184.4617
  0
LINE
  8
0-2
  6
CONTINUOUS
 62
    3
 10
850.72148
 20
2184.4617
 11
851.2145
 21
2185.0131
  0
LINE
  8
0-2
  6
CONTINUOUS
 62
    3
 10
851.2145
 20
2185.0131
 11
851.61442
 21
2185.6519
  0
LINE
  8
0-2
  6
CONTINUOUS
 62
    3
 10
851.61442
 20
2185.6519
 11
851.90908
 21
2186.3586
  0
LINE
  8
0-2
  6
CONTINUOUS
 62
    3
 10
851.90908
 20
2186.3586
 11
852.08954
 21
2187.1119
  0
LINE
  8
0-2
  6
CONTINUOUS
 62
    3
 10
852.08954
 20
2187.1119
 11
852.1503
 21
2187.8887
  0
LINE
  8
0-2
  6
CONTINUOUS
 62
    3
 10
852.1503
 20
2241.3318
 11
852.08954
 21
2242.1086
  0
LINE
  8
0-2
  6
CONTINUOUS
 62
    3
 10
852.08954
 20
2242.1086
 11
851.90908
 21
2242.8618
  0
LINE
  8
0-2
  6
CONTINUOUS
 62
    3
 10
851.90908
 20
2242.8618
 11
851.61442
 21
2243.5686
  0
LINE
  8
0-2
  6
CONTINUOUS
 62
    3
 10
851.61442
 20
2243.5686
 11
851.2145
 21
2244.2074
  0
LINE
  8
0-2
  6
CONTINUOUS
 62
    3
 10
851.2145
 20
2244.2074
 11
850.72148
 21
2244.7588
  0
LINE
  8
0-2
  6
CONTINUOUS
 62
    3
 10
850.72148
 20
2244.7588
 11
850.15034
 21
2245.2061
  0
LINE
  8
0-2
  6
CONTINUOUS
 62
    3
 10
850.15034
 20
2245.2061
 11
849.51844
 21
2245.5356
  0
LINE
  8
0-2
  6
CONTINUOUS
 62
    3
 10
849.51844
 20
2245.5356
 11
848.84496
 21
2245.7375
  0
LINE
  8
0-2
  6
CONTINUOUS
 62
    3
 10
848.84496
 20
2245.7375
 11
848.15038
 21
2245.8054
  0
LINE
  8
0-2
  6
CONTINUOUS
 62
    3
 10
848.15038
 20
2245.8054
 11
847.45581
 21
2245.7375
  0
LINE
  8
0-2
  6
CONTINUOUS
 62
    3
 10
847.45581
 20
2245.7375
 11
846.78233
 21
2245.5356
  0
LINE
  8
0-2
  6
CONTINUOUS
 62
    3
 10
846.78233
 20
2245.5356
 11
846.15042
 21
2245.2061
  0
LINE
  8
0-2
  6
CONTINUOUS
 62
    3
 10
846.15042
 20
2245.2061
 11
845.57929
 21
2244.7588
  0
LINE
  8
0-2
  6
CONTINUOUS
 62
    3
 10
845.57929
 20
2244.7588
 11
845.08627
 21
2244.2074
  0
LINE
  8
0-2
  6
CONTINUOUS
 62
    3
 10
845.08627
 20
2244.2074
 11
844.68635
 21
2243.5686
  0
LINE
  8
0-2
  6
CONTINUOUS
 62
    3
 10
844.68635
 20
2243.5686
 11
844.39169
 21
2242.8618
  0
LINE
  8
0-2
  6
CONTINUOUS
 62
    3
 10
844.39169
 20
2242.8618
 11
844.21123
 21
2242.1086
  0
LINE
  8
0-2
  6
CONTINUOUS
 62
    3
 10
844.21123
 20
2242.1086
 11
844.15046
 21
2241.3318
  0
LINE
  8
0-2
  6
CONTINUOUS
 62
    3
 10
844.15046
 20
2241.3318
 11
844.21123
 21
2240.5549
  0
LINE
  8
0-2
  6
CONTINUOUS
 62
    3
 10
844.21123
 20
2240.5549
 11
844.39169
 21
2239.8017
  0
LINE
  8
0-2
  6
CONTINUOUS
 62
    3
 10
844.39169
 20
2239.8017
 11
844.68635
 21
2239.0949
  0
LINE
  8
0-2
  6
CONTINUOUS
 62
    3
 10
844.68635
 20
2239.0949
 11
845.08627
 21
2238.4561
  0
LINE
  8
0-2
  6
CONTINUOUS
 62
    3
 10
845.08627
 20
2238.4561
 11
845.57929
 21
2237.9047
  0
LINE
  8
0-2
  6
CONTINUOUS
 62
    3
 10
845.57929
 20
2237.9047
 11
846.15042
 21
2237.4574
  0
LINE
  8
0-2
  6
CONTINUOUS
 62
    3
 10
846.15042
 20
2237.4574
 11
846.78233
 21
2237.1279
  0
LINE
  8
0-2
  6
CONTINUOUS
 62
    3
 10
846.78233
 20
2237.1279
 11
847.45581
 21
2236.926
  0
LINE
  8
0-2
  6
CONTINUOUS
 62
    3
 10
847.45581
 20
2236.926
 11
848.15038
 21
2236.8581
  0
LINE
  8
0-2
  6
CONTINUOUS
 62
    3
 10
848.15038
 20
2236.8581
 11
848.84496
 21
2236.926
  0
LINE
  8
0-2
  6
CONTINUOUS
 62
    3
 10
848.84496
 20
2236.926
 11
849.51844
 21
2237.1279
  0
LINE
  8
0-2
  6
CONTINUOUS
 62
    3
 10
849.51844
 20
2237.1279
 11
850.15034
 21
2237.4574
  0
LINE
  8
0-2
  6
CONTINUOUS
 62
    3
 10
850.15034
 20
2237.4574
 11
850.72148
 21
2237.9047
  0
LINE
  8
0-2
  6
CONTINUOUS
 62
    3
 10
850.72148
 20
2237.9047
 11
851.2145
 21
2238.4561
  0
LINE
  8
0-2
  6
CONTINUOUS
 62
    3
 10
851.2145
 20
2238.4561
 11
851.61442
 21
2239.0949
  0
LINE
  8
0-2
  6
CONTINUOUS
 62
    3
 10
851.61442
 20
2239.0949
 11
851.90908
 21
2239.8017
  0
LINE
  8
0-2
  6
CONTINUOUS
 62
    3
 10
851.90908
 20
2239.8017
 11
852.08954
 21
2240.5549
  0
LINE
  8
0-2
  6
CONTINUOUS
 62
    3
 10
852.08954
 20
2240.5549
 11
852.1503
 21
2241.3318
  0
LINE
  8
0-2
  6
CONTINUOUS
 62
    3
 10
852.1503
 20
1935.5728
 11
852.08954
 21
1936.3497
  0
LINE
  8
0-2
  6
CONTINUOUS
 62
    3
 10
852.08954
 20
1936.3497
 11
851.90908
 21
1937.1029
  0
LINE
  8
0-2
  6
CONTINUOUS
 62
    3
 10
851.90908
 20
1937.1029
 11
851.61442
 21
1937.8097
  0
LINE
  8
0-2
  6
CONTINUOUS
 62
    3
 10
851.61442
 20
1937.8097
 11
851.2145
 21
1938.4484
  0
LINE
  8
0-2
  6
CONTINUOUS
 62
    3
 10
851.2145
 20
1938.4484
 11
850.72148
 21
1938.9999
  0
LINE
  8
0-2
  6
CONTINUOUS
 62
    3
 10
850.72148
 20
1938.9999
 11
850.15034
 21
1939.4471
  0
LINE
  8
0-2
  6
CONTINUOUS
 62
    3
 10
850.15034
 20
1939.4471
 11
849.51844
 21
1939.7767
  0
LINE
  8
0-2
  6
CONTINUOUS
 62
    3
 10
849.51844
 20
1939.7767
 11
848.84496
 21
1939.9785
  0
LINE
  8
0-2
  6
CONTINUOUS
 62
    3
 10
848.84496
 20
1939.9785
 11
848.15038
 21
1940.0465
  0
LINE
  8
0-2
  6
CONTINUOUS
 62
    3
 10
848.15038
 20
1940.0465
 11
847.45581
 21
1939.9785
  0
LINE
  8
0-2
  6
CONTINUOUS
 62
    3
 10
847.45581
 20
1939.9785
 11
846.78233
 21
1939.7767
  0
LINE
  8
0-2
  6
CONTINUOUS
 62
    3
 10
846.78233
 20
1939.7767
 11
846.15042
 21
1939.4471
  0
LINE
  8
0-2
  6
CONTINUOUS
 62
    3
 10
846.15042
 20
1939.4471
 11
845.57929
 21
1938.9999
  0
LINE
  8
0-2
  6
CONTINUOUS
 62
    3
 10
845.57929
 20
1938.9999
 11
845.08627
 21
1938.4484
  0
LINE
  8
0-2
  6
CONTINUOUS
 62
    3
 10
845.08627
 20
1938.4484
 11
844.68635
 21
1937.8097
  0
LINE
  8
0-2
  6
CONTINUOUS
 62
    3
 10
844.68635
 20
1937.8097
 11
844.39169
 21
1937.1029
  0
LINE
  8
0-2
  6
CONTINUOUS
 62
    3
 10
844.39169
 20
1937.1029
 11
844.21123
 21
1936.3497
  0
LINE
  8
0-2
  6
CONTINUOUS
 62
    3
 10
844.21123
 20
1936.3497
 11
844.15046
 21
1935.5728
  0
LINE
  8
0-2
  6
CONTINUOUS
 62
    3
 10
844.15046
 20
1935.5728
 11
844.21123
 21
1934.796
  0
LINE
  8
0-2
  6
CONTINUOUS
 62
    3
 10
844.21123
 20
1934.796
 11
844.39169
 21
1934.0427
  0
LINE
  8
0-2
  6
CONTINUOUS
 62
    3
 10
844.39169
 20
1934.0427
 11
844.68635
 21
1933.336
  0
LINE
  8
0-2
  6
CONTINUOUS
 62
    3
 10
844.68635
 20
1933.336
 11
845.08627
 21
1932.6972
  0
LINE
  8
0-2
  6
CONTINUOUS
 62
    3
 10
845.08627
 20
1932.6972
 11
845.57929
 21
1932.1458
  0
LINE
  8
0-2
  6
CONTINUOUS
 62
    3
 10
845.57929
 20
1932.1458
 11
846.15042
 21
1931.6985
  0
LINE
  8
0-2
  6
CONTINUOUS
 62
    3
 10
846.15042
 20
1931.6985
 11
846.78233
 21
1931.3689
  0
LINE
  8
0-2
  6
CONTINUOUS
 62
    3
 10
846.78233
 20
1931.3689
 11
847.45581
 21
1931.1671
  0
LINE
  8
0-2
  6
CONTINUOUS
 62
    3
 10
847.45581
 20
1931.1671
 11
848.15038
 21
1931.0991
  0
LINE
  8
0-2
  6
CONTINUOUS
 62
    3
 10
848.15038
 20
1931.0991
 11
848.84496
 21
1931.1671
  0
LINE
  8
0-2
  6
CONTINUOUS
 62
    3
 10
848.84496
 20
1931.1671
 11
849.51844
 21
1931.3689
  0
LINE
  8
0-2
  6
CONTINUOUS
 62
    3
 10
849.51844
 20
1931.3689
 11
850.15034
 21
1931.6985
  0
LINE
  8
0-2
  6
CONTINUOUS
 62
    3
 10
850.15034
 20
1931.6985
 11
850.72148
 21
1932.1458
  0
LINE
  8
0-2
  6
CONTINUOUS
 62
    3
 10
850.72148
 20
1932.1458
 11
851.2145
 21
1932.6972
  0
LINE
  8
0-2
  6
CONTINUOUS
 62
    3
 10
851.2145
 20
1932.6972
 11
851.61442
 21
1933.336
  0
LINE
  8
0-2
  6
CONTINUOUS
 62
    3
 10
851.61442
 20
1933.336
 11
851.90908
 21
1934.0427
  0
LINE
  8
0-2
  6
CONTINUOUS
 62
    3
 10
851.90908
 20
1934.0427
 11
852.08954
 21
1934.796
  0
LINE
  8
0-2
  6
CONTINUOUS
 62
    3
 10
852.08954
 20
1934.796
 11
852.1503
 21
1935.5728
  0
LINE
  8
0-2
  6
CONTINUOUS
 62
    3
 10
852.1503
 20
1882.1295
 11
852.08954
 21
1882.9064
  0
LINE
  8
0-2
  6
CONTINUOUS
 62
    3
 10
852.08954
 20
1882.9064
 11
851.90908
 21
1883.6596
  0
LINE
  8
0-2
  6
CONTINUOUS
 62
    3
 10
851.90908
 20
1883.6596
 11
851.61442
 21
1884.3664
  0
LINE
  8
0-2
  6
CONTINUOUS
 62
    3
 10
851.61442
 20
1884.3664
 11
851.2145
 21
1885.0052
  0
LINE
  8
0-2
  6
CONTINUOUS
 62
    3
 10
851.2145
 20
1885.0052
 11
850.72148
 21
1885.5566
  0
LINE
  8
0-2
  6
CONTINUOUS
 62
    3
 10
850.72148
 20
1885.5566
 11
850.15034
 21
1886.0039
  0
LINE
  8
0-2
  6
CONTINUOUS
 62
    3
 10
850.15034
 20
1886.0039
 11
849.51844
 21
1886.3334
  0
LINE
  8
0-2
  6
CONTINUOUS
 62
    3
 10
849.51844
 20
1886.3334
 11
848.84496
 21
1886.5352
  0
LINE
  8
0-2
  6
CONTINUOUS
 62
    3
 10
848.84496
 20
1886.5352
 11
848.15038
 21
1886.6032
  0
LINE
  8
0-2
  6
CONTINUOUS
 62
    3
 10
848.15038
 20
1886.6032
 11
847.45581
 21
1886.5352
  0
LINE
  8
0-2
  6
CONTINUOUS
 62
    3
 10
847.45581
 20
1886.5352
 11
846.78233
 21
1886.3334
  0
LINE
  8
0-2
  6
CONTINUOUS
 62
    3
 10
846.78233
 20
1886.3334
 11
846.15042
 21
1886.0039
  0
LINE
  8
0-2
  6
CONTINUOUS
 62
    3
 10
846.15042
 20
1886.0039
 11
845.57929
 21
1885.5566
  0
LINE
  8
0-2
  6
CONTINUOUS
 62
    3
 10
845.57929
 20
1885.5566
 11
845.08627
 21
1885.0052
  0
LINE
  8
0-2
  6
CONTINUOUS
 62
    3
 10
845.08627
 20
1885.0052
 11
844.68635
 21
1884.3664
  0
LINE
  8
0-2
  6
CONTINUOUS
 62
    3
 10
844.68635
 20
1884.3664
 11
844.39169
 21
1883.6596
  0
LINE
  8
0-2
  6
CONTINUOUS
 62
    3
 10
844.39169
 20
1883.6596
 11
844.21123
 21
1882.9064
  0
LINE
  8
0-2
  6
CONTINUOUS
 62
    3
 10
844.21123
 20
1882.9064
 11
844.15046
 21
1882.1295
  0
LINE
  8
0-2
  6
CONTINUOUS
 62
    3
 10
844.15046
 20
1882.1295
 11
844.21123
 21
1881.3527
  0
LINE
  8
0-2
  6
CONTINUOUS
 62
    3
 10
844.21123
 20
1881.3527
 11
844.39169
 21
1880.5994
  0
LINE
  8
0-2
  6
CONTINUOUS
 62
    3
 10
844.39169
 20
1880.5994
 11
844.68635
 21
1879.8927
  0
LINE
  8
0-2
  6
CONTINUOUS
 62
    3
 10
844.68635
 20
1879.8927
 11
845.08627
 21
1879.2539
  0
LINE
  8
0-2
  6
CONTINUOUS
 62
    3
 10
845.08627
 20
1879.2539
 11
845.57929
 21
1878.7025
  0
LINE
  8
0-2
  6
CONTINUOUS
 62
    3
 10
845.57929
 20
1878.7025
 11
846.15042
 21
1878.2552
  0
LINE
  8
0-2
  6
CONTINUOUS
 62
    3
 10
846.15042
 20
1878.2552
 11
846.78233
 21
1877.9256
  0
LINE
  8
0-2
  6
CONTINUOUS
 62
    3
 10
846.78233
 20
1877.9256
 11
847.45581
 21
1877.7238
  0
LINE
  8
0-2
  6
CONTINUOUS
 62
    3
 10
847.45581
 20
1877.7238
 11
848.15038
 21
1877.6558
  0
LINE
  8
0-2
  6
CONTINUOUS
 62
    3
 10
848.15038
 20
1877.6558
 11
848.84496
 21
1877.7238
  0
LINE
  8
0-2
  6
CONTINUOUS
 62
    3
 10
848.84496
 20
1877.7238
 11
849.51844
 21
1877.9256
  0
LINE
  8
0-2
  6
CONTINUOUS
 62
    3
 10
849.51844
 20
1877.9256
 11
850.15034
 21
1878.2552
  0
LINE
  8
0-2
  6
CONTINUOUS
 62
    3
 10
850.15034
 20
1878.2552
 11
850.72148
 21
1878.7025
  0
LINE
  8
0-2
  6
CONTINUOUS
 62
    3
 10
850.72148
 20
1878.7025
 11
851.2145
 21
1879.2539
  0
LINE
  8
0-2
  6
CONTINUOUS
 62
    3
 10
851.2145
 20
1879.2539
 11
851.61442
 21
1879.8927
  0
LINE
  8
0-2
  6
CONTINUOUS
 62
    3
 10
851.61442
 20
1879.8927
 11
851.90908
 21
1880.5994
  0
LINE
  8
0-2
  6
CONTINUOUS
 62
    3
 10
851.90908
 20
1880.5994
 11
852.08954
 21
1881.3527
  0
LINE
  8
0-2
  6
CONTINUOUS
 62
    3
 10
852.08954
 20
1881.3527
 11
852.1503
 21
1882.1295
  0
LINE
  8
0-2
  6
CONTINUOUS
 62
    3
 10
1036.3252
 20
1778.3973
 11
1035.976
 21
1779.6979
  0
LINE
  8
0-2
  6
CONTINUOUS
 62
    3
 10
1035.976
 20
1779.6979
 11
1035.4301
 21
1780.911
  0
LINE
  8
0-2
  6
CONTINUOUS
 62
    3
 10
1035.4301
 20
1780.911
 11
1034.7041
 21
1781.9996
  0
LINE
  8
0-2
  6
CONTINUOUS
 62
    3
 10
1034.7041
 20
1781.9996
 11
1033.8202
 21
1782.9307
  0
LINE
  8
0-2
  6
CONTINUOUS
 62
    3
 10
1033.8202
 20
1782.9307
 11
1032.8052
 21
1783.676
  0
LINE
  8
0-2
  6
CONTINUOUS
 62
    3
 10
1032.8052
 20
1783.676
 11
1031.6898
 21
1784.2128
  0
LINE
  8
0-2
  6
CONTINUOUS
 62
    3
 10
1031.6898
 20
1784.2128
 11
1030.5081
 21
1784.5249
  0
LINE
  8
0-2
  6
CONTINUOUS
 62
    3
 10
1030.5081
 20
1784.5249
 11
1029.2958
 21
1784.6027
  0
LINE
  8
0-2
  6
CONTINUOUS
 62
    3
 10
1029.2958
 20
1784.6027
 11
1028.0899
 21
1784.4438
  0
LINE
  8
0-2
  6
CONTINUOUS
 62
    3
 10
1028.0899
 20
1784.4438
 11
1026.927
 21
1784.0532
  0
LINE
  8
0-2
  6
CONTINUOUS
 62
    3
 10
1026.927
 20
1784.0532
 11
1025.8424
 21
1783.4427
  0
LINE
  8
0-2
  6
CONTINUOUS
 62
    3
 10
1025.8424
 20
1783.4427
 11
1024.869
 21
1782.6308
  0
LINE
  8
0-2
  6
CONTINUOUS
 62
    3
 10
1024.869
 20
1782.6308
 11
1024.0365
 21
1781.6421
  0
LINE
  8
0-2
  6
CONTINUOUS
 62
    3
 10
1024.0365
 20
1781.6421
 11
1023.3702
 21
1780.5068
  0
LINE
  8
0-2
  6
CONTINUOUS
 62
    3
 10
1023.3702
 20
1780.5068
 11
1022.8902
 21
1779.2594
  0
LINE
  8
0-2
  6
CONTINUOUS
 62
    3
 10
1022.8902
 20
1779.2594
 11
1022.6837
 21
1778.3973
  0
LINE
  8
0-2
  6
CONTINUOUS
 62
    3
 10
903.28993
 20
1765.2674
 11
903.22916
 21
1766.0443
  0
LINE
  8
0-2
  6
CONTINUOUS
 62
    3
 10
903.22916
 20
1766.0443
 11
903.04871
 21
1766.7975
  0
LINE
  8
0-2
  6
CONTINUOUS
 62
    3
 10
903.04871
 20
1766.7975
 11
902.75404
 21
1767.5042
  0
LINE
  8
0-2
  6
CONTINUOUS
 62
    3
 10
902.75404
 20
1767.5042
 11
902.35413
 21
1768.143
  0
LINE
  8
0-2
  6
CONTINUOUS
 62
    3
 10
902.35413
 20
1768.143
 11
901.86111
 21
1768.6944
  0
LINE
  8
0-2
  6
CONTINUOUS
 62
    3
 10
901.86111
 20
1768.6944
 11
901.28997
 21
1769.1417
  0
LINE
  8
0-2
  6
CONTINUOUS
 62
    3
 10
901.28997
 20
1769.1417
 11
900.65807
 21
1769.4713
  0
LINE
  8
0-2
  6
CONTINUOUS
 62
    3
 10
900.65807
 20
1769.4713
 11
899.98459
 21
1769.6731
  0
LINE
  8
0-2
  6
CONTINUOUS
 62
    3
 10
899.98459
 20
1769.6731
 11
899.29001
 21
1769.7411
  0
LINE
  8
0-2
  6
CONTINUOUS
 62
    3
 10
899.29001
 20
1769.7411
 11
898.59543
 21
1769.6731
  0
LINE
  8
0-2
  6
CONTINUOUS
 62
    3
 10
898.59543
 20
1769.6731
 11
897.92196
 21
1769.4713
  0
LINE
  8
0-2
  6
CONTINUOUS
 62
    3
 10
897.92196
 20
1769.4713
 11
897.29005
 21
1769.1417
  0
LINE
  8
0-2
  6
CONTINUOUS
 62
    3
 10
897.29005
 20
1769.1417
 11
896.71891
 21
1768.6944
  0
LINE
  8
0-2
  6
CONTINUOUS
 62
    3
 10
896.71891
 20
1768.6944
 11
896.2259
 21
1768.143
  0
LINE
  8
0-2
  6
CONTINUOUS
 62
    3
 10
896.2259
 20
1768.143
 11
895.82598
 21
1767.5042
  0
LINE
  8
0-2
  6
CONTINUOUS
 62
    3
 10
895.82598
 20
1767.5042
 11
895.53132
 21
1766.7975
  0
LINE
  8
0-2
  6
CONTINUOUS
 62
    3
 10
895.53132
 20
1766.7975
 11
895.35086
 21
1766.0443
  0
LINE
  8
0-2
  6
CONTINUOUS
 62
    3
 10
895.35086
 20
1766.0443
 11
895.29009
 21
1765.2674
  0
LINE
  8
0-2
  6
CONTINUOUS
 62
    3
 10
895.29009
 20
1765.2674
 11
895.35086
 21
1764.4906
  0
LINE
  8
0-2
  6
CONTINUOUS
 62
    3
 10
895.35086
 20
1764.4906
 11
895.53132
 21
1763.7373
  0
LINE
  8
0-2
  6
CONTINUOUS
 62
    3
 10
895.53132
 20
1763.7373
 11
895.82598
 21
1763.0306
  0
LINE
  8
0-2
  6
CONTINUOUS
 62
    3
 10
895.82598
 20
1763.0306
 11
896.2259
 21
1762.3918
  0
LINE
  8
0-2
  6
CONTINUOUS
 62
    3
 10
896.2259
 20
1762.3918
 11
896.71891
 21
1761.8404
  0
LINE
  8
0-2
  6
CONTINUOUS
 62
    3
 10
896.71891
 20
1761.8404
 11
897.29005
 21
1761.3931
  0
LINE
  8
0-2
  6
CONTINUOUS
 62
    3
 10
897.29005
 20
1761.3931
 11
897.92196
 21
1761.0635
  0
LINE
  8
0-2
  6
CONTINUOUS
 62
    3
 10
897.92196
 20
1761.0635
 11
898.59543
 21
1760.8617
  0
LINE
  8
0-2
  6
CONTINUOUS
 62
    3
 10
898.59543
 20
1760.8617
 11
899.29001
 21
1760.7937
  0
LINE
  8
0-2
  6
CONTINUOUS
 62
    3
 10
899.29001
 20
1760.7937
 11
899.98459
 21
1760.8617
  0
LINE
  8
0-2
  6
CONTINUOUS
 62
    3
 10
899.98459
 20
1760.8617
 11
900.65807
 21
1761.0635
  0
LINE
  8
0-2
  6
CONTINUOUS
 62
    3
 10
900.65807
 20
1761.0635
 11
901.28997
 21
1761.3931
  0
LINE
  8
0-2
  6
CONTINUOUS
 62
    3
 10
901.28997
 20
1761.3931
 11
901.86111
 21
1761.8404
  0
LINE
  8
0-2
  6
CONTINUOUS
 62
    3
 10
901.86111
 20
1761.8404
 11
902.35413
 21
1762.3918
  0
LINE
  8
0-2
  6
CONTINUOUS
 62
    3
 10
902.35413
 20
1762.3918
 11
902.75404
 21
1763.0306
  0
LINE
  8
0-2
  6
CONTINUOUS
 62
    3
 10
902.75404
 20
1763.0306
 11
903.04871
 21
1763.7373
  0
LINE
  8
0-2
  6
CONTINUOUS
 62
    3
 10
903.04871
 20
1763.7373
 11
903.22916
 21
1764.4906
  0
LINE
  8
0-2
  6
CONTINUOUS
 62
    3
 10
903.22916
 20
1764.4906
 11
903.28993
 21
1765.2674
  0
LINE
  8
0-2
  6
CONTINUOUS
 62
    3
 10
903.28993
 20
1679.1598
 11
903.22916
 21
1679.9367
  0
LINE
  8
0-2
  6
CONTINUOUS
 62
    3
 10
903.22916
 20
1679.9367
 11
903.04871
 21
1680.6899
  0
LINE
  8
0-2
  6
CONTINUOUS
 62
    3
 10
903.04871
 20
1680.6899
 11
902.75404
 21
1681.3967
  0
LINE
  8
0-2
  6
CONTINUOUS
 62
    3
 10
902.75404
 20
1681.3967
 11
902.35413
 21
1682.0355
  0
LINE
  8
0-2
  6
CONTINUOUS
 62
    3
 10
902.35413
 20
1682.0355
 11
901.86111
 21
1682.5869
  0
LINE
  8
0-2
  6
CONTINUOUS
 62
    3
 10
901.86111
 20
1682.5869
 11
901.28997
 21
1683.0342
  0
LINE
  8
0-2
  6
CONTINUOUS
 62
    3
 10
901.28997
 20
1683.0342
 11
900.65807
 21
1683.3637
  0
LINE
  8
0-2
  6
CONTINUOUS
 62
    3
 10
900.65807
 20
1683.3637
 11
899.98459
 21
1683.5655
  0
LINE
  8
0-2
  6
CONTINUOUS
 62
    3
 10
899.98459
 20
1683.5655
 11
899.29001
 21
1683.6335
  0
LINE
  8
0-2
  6
CONTINUOUS
 62
    3
 10
899.29001
 20
1683.6335
 11
898.59543
 21
1683.5655
  0
LINE
  8
0-2
  6
CONTINUOUS
 62
    3
 10
898.59543
 20
1683.5655
 11
897.92196
 21
1683.3637
  0
LINE
  8
0-2
  6
CONTINUOUS
 62
    3
 10
897.92196
 20
1683.3637
 11
897.29005
 21
1683.0342
  0
LINE
  8
0-2
  6
CONTINUOUS
 62
    3
 10
897.29005
 20
1683.0342
 11
896.71891
 21
1682.5869
  0
LINE
  8
0-2
  6
CONTINUOUS
 62
    3
 10
896.71891
 20
1682.5869
 11
896.2259
 21
1682.0355
  0
LINE
  8
0-2
  6
CONTINUOUS
 62
    3
 10
896.2259
 20
1682.0355
 11
895.82598
 21
1681.3967
  0
LINE
  8
0-2
  6
CONTINUOUS
 62
    3
 10
895.82598
 20
1681.3967
 11
895.53132
 21
1680.6899
  0
LINE
  8
0-2
  6
CONTINUOUS
 62
    3
 10
895.53132
 20
1680.6899
 11
895.35086
 21
1679.9367
  0
LINE
  8
0-2
  6
CONTINUOUS
 62
    3
 10
895.35086
 20
1679.9367
 11
895.29009
 21
1679.1598
  0
LINE
  8
0-2
  6
CONTINUOUS
 62
    3
 10
895.29009
 20
1679.1598
 11
895.35086
 21
1678.383
  0
LINE
  8
0-2
  6
CONTINUOUS
 62
    3
 10
895.35086
 20
1678.383
 11
895.53132
 21
1677.6297
  0
LINE
  8
0-2
  6
CONTINUOUS
 62
    3
 10
895.53132
 20
1677.6297
 11
895.82598
 21
1676.923
  0
LINE
  8
0-2
  6
CONTINUOUS
 62
    3
 10
895.82598
 20
1676.923
 11
896.2259
 21
1676.2842
  0
LINE
  8
0-2
  6
CONTINUOUS
 62
    3
 10
896.2259
 20
1676.2842
 11
896.71891
 21
1675.7328
  0
LINE
  8
0-2
  6
CONTINUOUS
 62
    3
 10
896.71891
 20
1675.7328
 11
897.29005
 21
1675.2855
  0
LINE
  8
0-2
  6
CONTINUOUS
 62
    3
 10
897.29005
 20
1675.2855
 11
897.92196
 21
1674.9559
  0
LINE
  8
0-2
  6
CONTINUOUS
 62
    3
 10
897.92196
 20
1674.9559
 11
898.59543
 21
1674.7541
  0
LINE
  8
0-2
  6
CONTINUOUS
 62
    3
 10
898.59543
 20
1674.7541
 11
899.29001
 21
1674.6861
  0
LINE
  8
0-2
  6
CONTINUOUS
 62
    3
 10
899.29001
 20
1674.6861
 11
899.98459
 21
1674.7541
  0
LINE
  8
0-2
  6
CONTINUOUS
 62
    3
 10
899.98459
 20
1674.7541
 11
900.65807
 21
1674.9559
  0
LINE
  8
0-2
  6
CONTINUOUS
 62
    3
 10
900.65807
 20
1674.9559
 11
901.28997
 21
1675.2855
  0
LINE
  8
0-2
  6
CONTINUOUS
 62
    3
 10
901.28997
 20
1675.2855
 11
901.86111
 21
1675.7328
  0
LINE
  8
0-2
  6
CONTINUOUS
 62
    3
 10
901.86111
 20
1675.7328
 11
902.35413
 21
1676.2842
  0
LINE
  8
0-2
  6
CONTINUOUS
 62
    3
 10
902.35413
 20
1676.2842
 11
902.75404
 21
1676.923
  0
LINE
  8
0-2
  6
CONTINUOUS
 62
    3
 10
902.75404
 20
1676.923
 11
903.04871
 21
1677.6297
  0
LINE
  8
0-2
  6
CONTINUOUS
 62
    3
 10
903.04871
 20
1677.6297
 11
903.22916
 21
1678.383
  0
LINE
  8
0-2
  6
CONTINUOUS
 62
    3
 10
903.22916
 20
1678.383
 11
903.28993
 21
1679.1598
  0
LINE
  8
0-2
  6
CONTINUOUS
 62
    3
 10
1390.001
 20
1942.4332
 11
1391.1586
 21
1942.5464
  0
LINE
  8
0-2
  6
CONTINUOUS
 62
    3
 10
1391.1586
 20
1942.5464
 11
1392.281
 21
1942.8828
  0
LINE
  8
0-2
  6
CONTINUOUS
 62
    3
 10
1392.281
 20
1942.8828
 11
1393.3341
 21
1943.432
  0
LINE
  8
0-2
  6
CONTINUOUS
 62
    3
 10
1393.3341
 20
1943.432
 11
1394.286
 21
1944.1775
  0
LINE
  8
0-2
  6
CONTINUOUS
 62
    3
 10
1394.286
 20
1944.1775
 11
1395.1076
 21
1945.0965
  0
LINE
  8
0-2
  6
CONTINUOUS
 62
    3
 10
1395.1076
 20
1945.0965
 11
1395.7741
 21
1946.1611
  0
LINE
  8
0-2
  6
CONTINUOUS
 62
    3
 10
1395.7741
 20
1946.1611
 11
1396.2652
 21
1947.3389
  0
LINE
  8
0-2
  6
CONTINUOUS
 62
    3
 10
1396.2652
 20
1947.3389
 11
1396.566
 21
1948.5943
  0
LINE
  8
0-2
  6
CONTINUOUS
 62
    3
 10
1396.566
 20
1948.5943
 11
1396.6672
 21
1949.8889
  0
LINE
  8
0-2
  6
CONTINUOUS
 62
    3
 10
1396.6672
 20
1949.8889
 11
1396.566
 21
1951.1836
  0
LINE
  8
0-2
  6
CONTINUOUS
 62
    3
 10
1396.566
 20
1951.1836
 11
1396.2652
 21
1952.439
  0
LINE
  8
0-2
  6
CONTINUOUS
 62
    3
 10
1396.2652
 20
1952.439
 11
1395.7741
 21
1953.6168
  0
LINE
  8
0-2
  6
CONTINUOUS
 62
    3
 10
1395.7741
 20
1953.6168
 11
1395.1076
 21
1954.6814
  0
LINE
  8
0-2
  6
CONTINUOUS
 62
    3
 10
1395.1076
 20
1954.6814
 11
1394.286
 21
1955.6004
  0
LINE
  8
0-2
  6
CONTINUOUS
 62
    3
 10
1394.286
 20
1955.6004
 11
1393.3341
 21
1956.3459
  0
LINE
  8
0-2
  6
CONTINUOUS
 62
    3
 10
1393.3341
 20
1956.3459
 11
1392.281
 21
1956.8951
  0
LINE
  8
0-2
  6
CONTINUOUS
 62
    3
 10
1392.281
 20
1956.8951
 11
1391.1586
 21
1957.2315
  0
LINE
  8
0-2
  6
CONTINUOUS
 62
    3
 10
1391.1586
 20
1957.2315
 11
1390.001
 21
1957.3447
  0
LINE
  8
0-2
  6
CONTINUOUS
 62
    3
 10
1390
 20
1852.9584
 11
1391.1576
 21
1853.0717
  0
LINE
  8
0-2
  6
CONTINUOUS
 62
    3
 10
1391.1576
 20
1853.0717
 11
1392.28
 21
1853.4081
  0
LINE
  8
0-2
  6
CONTINUOUS
 62
    3
 10
1392.28
 20
1853.4081
 11
1393.3331
 21
1853.9573
  0
LINE
  8
0-2
  6
CONTINUOUS
 62
    3
 10
1393.3331
 20
1853.9573
 11
1394.285
 21
1854.7027
  0
LINE
  8
0-2
  6
CONTINUOUS
 62
    3
 10
1394.285
 20
1854.7027
 11
1395.1067
 21
1855.6217
  0
LINE
  8
0-2
  6
CONTINUOUS
 62
    3
 10
1395.1067
 20
1855.6217
 11
1395.7731
 21
1856.6863
  0
LINE
  8
0-2
  6
CONTINUOUS
 62
    3
 10
1395.7731
 20
1856.6863
 11
1396.2642
 21
1857.8642
  0
LINE
  8
0-2
  6
CONTINUOUS
 62
    3
 10
1396.2642
 20
1857.8642
 11
1396.565
 21
1859.1195
  0
LINE
  8
0-2
  6
CONTINUOUS
 62
    3
 10
1396.565
 20
1859.1195
 11
1396.6663
 21
1860.4142
  0
LINE
  8
0-2
  6
CONTINUOUS
 62
    3
 10
1396.6663
 20
1860.4142
 11
1396.565
 21
1861.7089
  0
LINE
  8
0-2
  6
CONTINUOUS
 62
    3
 10
1396.565
 20
1861.7089
 11
1396.2642
 21
1862.9642
  0
LINE
  8
0-2
  6
CONTINUOUS
 62
    3
 10
1396.2642
 20
1862.9642
 11
1395.7731
 21
1864.1421
  0
LINE
  8
0-2
  6
CONTINUOUS
 62
    3
 10
1395.7731
 20
1864.1421
 11
1395.1067
 21
1865.2067
  0
LINE
  8
0-2
  6
CONTINUOUS
 62
    3
 10
1395.1067
 20
1865.2067
 11
1394.285
 21
1866.1257
  0
LINE
  8
0-2
  6
CONTINUOUS
 62
    3
 10
1394.285
 20
1866.1257
 11
1393.3331
 21
1866.8711
  0
LINE
  8
0-2
  6
CONTINUOUS
 62
    3
 10
1393.3331
 20
1866.8711
 11
1392.28
 21
1867.4204
  0
LINE
  8
0-2
  6
CONTINUOUS
 62
    3
 10
1392.28
 20
1867.4204
 11
1391.1576
 21
1867.7567
  0
LINE
  8
0-2
  6
CONTINUOUS
 62
    3
 10
1391.1576
 20
1867.7567
 11
1390
 21
1867.87
  0
LINE
  8
0-2
  6
CONTINUOUS
 62
    3
 10
1390
 20
2255.5908
 11
1391.1576
 21
2255.7041
  0
LINE
  8
0-2
  6
CONTINUOUS
 62
    3
 10
1391.1576
 20
2255.7041
 11
1392.28
 21
2256.0404
  0
LINE
  8
0-2
  6
CONTINUOUS
 62
    3
 10
1392.28
 20
2256.0404
 11
1393.3331
 21
2256.5897
  0
LINE
  8
0-2
  6
CONTINUOUS
 62
    3
 10
1393.3331
 20
2256.5897
 11
1394.285
 21
2257.3351
  0
LINE
  8
0-2
  6
CONTINUOUS
 62
    3
 10
1394.285
 20
2257.3351
 11
1395.1067
 21
2258.2541
  0
LINE
  8
0-2
  6
CONTINUOUS
 62
    3
 10
1395.1067
 20
2258.2541
 11
1395.7731
 21
2259.3187
  0
LINE
  8
0-2
  6
CONTINUOUS
 62
    3
 10
1395.7731
 20
2259.3187
 11
1396.2642
 21
2260.4965
  0
LINE
  8
0-2
  6
CONTINUOUS
 62
    3
 10
1396.2642
 20
2260.4965
 11
1396.565
 21
2261.7519
  0
LINE
  8
0-2
  6
CONTINUOUS
 62
    3
 10
1396.565
 20
2261.7519
 11
1396.6663
 21
2263.0466
  0
LINE
  8
0-2
  6
CONTINUOUS
 62
    3
 10
1396.6663
 20
2263.0466
 11
1396.565
 21
2264.3413
  0
LINE
  8
0-2
  6
CONTINUOUS
 62
    3
 10
1396.565
 20
2264.3413
 11
1396.2642
 21
2265.5966
  0
LINE
  8
0-2
  6
CONTINUOUS
 62
    3
 10
1396.2642
 20
2265.5966
 11
1395.7731
 21
2266.7745
  0
LINE
  8
0-2
  6
CONTINUOUS
 62
    3
 10
1395.7731
 20
2266.7745
 11
1395.1067
 21
2267.8391
  0
LINE
  8
0-2
  6
CONTINUOUS
 62
    3
 10
1395.1067
 20
2267.8391
 11
1394.285
 21
2268.758
  0
LINE
  8
0-2
  6
CONTINUOUS
 62
    3
 10
1394.285
 20
2268.758
 11
1393.3331
 21
2269.5035
  0
LINE
  8
0-2
  6
CONTINUOUS
 62
    3
 10
1393.3331
 20
2269.5035
 11
1392.28
 21
2270.0527
  0
LINE
  8
0-2
  6
CONTINUOUS
 62
    3
 10
1392.28
 20
2270.0527
 11
1391.1576
 21
2270.3891
  0
LINE
  8
0-2
  6
CONTINUOUS
 62
    3
 10
1391.1576
 20
2270.3891
 11
1390
 21
2270.5024
  0
LINE
  8
0-2
  6
CONTINUOUS
 62
    3
 10
1390
 20
2166.1165
 11
1391.1576
 21
2166.2298
  0
LINE
  8
0-2
  6
CONTINUOUS
 62
    3
 10
1391.1576
 20
2166.2298
 11
1392.28
 21
2166.5662
  0
LINE
  8
0-2
  6
CONTINUOUS
 62
    3
 10
1392.28
 20
2166.5662
 11
1393.3331
 21
2167.1154
  0
LINE
  8
0-2
  6
CONTINUOUS
 62
    3
 10
1393.3331
 20
2167.1154
 11
1394.285
 21
2167.8609
  0
LINE
  8
0-2
  6
CONTINUOUS
 62
    3
 10
1394.285
 20
2167.8609
 11
1395.1067
 21
2168.7798
  0
LINE
  8
0-2
  6
CONTINUOUS
 62
    3
 10
1395.1067
 20
2168.7798
 11
1395.7731
 21
2169.8444
  0
LINE
  8
0-2
  6
CONTINUOUS
 62
    3
 10
1395.7731
 20
2169.8444
 11
1396.2642
 21
2171.0223
  0
LINE
  8
0-2
  6
CONTINUOUS
 62
    3
 10
1396.2642
 20
2171.0223
 11
1396.565
 21
2172.2776
  0
LINE
  8
0-2
  6
CONTINUOUS
 62
    3
 10
1396.565
 20
2172.2776
 11
1396.6663
 21
2173.5723
  0
LINE
  8
0-2
  6
CONTINUOUS
 62
    3
 10
1396.6663
 20
2173.5723
 11
1396.565
 21
2174.867
  0
LINE
  8
0-2
  6
CONTINUOUS
 62
    3
 10
1396.565
 20
2174.867
 11
1396.2642
 21
2176.1224
  0
LINE
  8
0-2
  6
CONTINUOUS
 62
    3
 10
1396.2642
 20
2176.1224
 11
1395.7731
 21
2177.3002
  0
LINE
  8
0-2
  6
CONTINUOUS
 62
    3
 10
1395.7731
 20
2177.3002
 11
1395.1067
 21
2178.3648
  0
LINE
  8
0-2
  6
CONTINUOUS
 62
    3
 10
1395.1067
 20
2178.3648
 11
1394.285
 21
2179.2838
  0
LINE
  8
0-2
  6
CONTINUOUS
 62
    3
 10
1394.285
 20
2179.2838
 11
1393.3331
 21
2180.0292
  0
LINE
  8
0-2
  6
CONTINUOUS
 62
    3
 10
1393.3331
 20
2180.0292
 11
1392.28
 21
2180.5785
  0
LINE
  8
0-2
  6
CONTINUOUS
 62
    3
 10
1392.28
 20
2180.5785
 11
1391.1576
 21
2180.9149
  0
LINE
  8
0-2
  6
CONTINUOUS
 62
    3
 10
1391.1576
 20
2180.9149
 11
1390
 21
2181.0281
  0
ARC
  8
0-2
  6
CONTINUOUS
 62
    3
 10
1330.1072
 20
1886.9061
 40
5.0011679
 50
268.77102
 51
91.228973
  0
ARC
  8
0-2
  6
CONTINUOUS
 62
    3
 10
1330.1072
 20
2227.6751
 40
5.0011679
 50
268.77102
 51
91.228973
  0
ARC
  8
0-3
  6
CONTINUOUS
 62
    7
 10
1260.1075
 20
1886.9061
 40
5.0011679
 50
268.77102
 51
91.228973
  0
TEXT
  8
0-d
 10
254.9998
 20
157.4999
 40
25
 41
1
 50
0
  1
図
  0
TEXT
  8
0-d
 10
254.9998
 20
97.499963
 40
25
 41
1
 50
0
  1
番
  0
TEXT
  8
0-d
 10
655.00046
 20
157.4999
 40
25
 41
1
 50
0
  1
承
  0
TEXT
  8
0-d
 10
655.00046
 20
97.499963
 40
25
 41
1
 50
0
  1
認
  0
TEXT
  8
0-d
 10
1020.0003
 20
237.49994
 40
25
 41
1
 50
0
  1
尺
  0
TEXT
  8
0-d
 10
1020.0003
 20
197.49978
 40
25
 41
1
 50
0.0000762
  1
度
  0
TEXT
  8
0-d
 10
855.00014
 20
157.4999
 40
25
 41
1
 50
0
  1
製
  0
TEXT
  8
0-d
 10
855.00014
 20
97.499963
 40
25
 41
1
 50
0
  1
図
  0
TEXT
  8
0-d
 10
1555.0001
 20
237.49994
 40
25
 41
1
 50
0
  1
日
  0
TEXT
  8
0-d
 10
1555.0001
 20
197.49978
 40
25
 41
1
 50
0.0000762
  1
付
  0
TEXT
  8
0-d
 10
1111.4263
 20
163.48226
 40
20
 41
1
 50
0
  1
株式
  0
TEXT
  8
0-d
 10
1111.4263
 20
141.85179
 40
20
 41
1
 50
0.0000152
  1
会社
  0
TEXT
  8
0-d
 10
1174.2247
 20
143.24712
 40
40
 41
1
 50
0
  1
スズキベンチレーター
  0
TEXT
  8
0-d
 10
1237.9182
 20
94.024183
 40
20
 41
1
 50
0
  1
TEL(054)296-7000  FAX(054)296-7001
  0
TEXT
  8
0-d
 10
1084.349
 20
210.10065
 40
40
 41
1
 50
0
  1
１／１０
  0
TEXT
  8
0-8
 10
1007.3759
 20
2548.8817
 40
30
 41
1
 50
0
  1
680φ
  0
TEXT
  8
0-8
 10
574.00041
 20
1997.9806
 40
30
 41
1
 50
90
  1
850
  0
TEXT
  8
0-8
 10
570.0003
 20
1563.1563
 40
30
 41
1
 50
90
  1
60
  0
TEXT
  8
0-8
 10
996.81199
 20
1408.6449
 40
30
 41
1
 50
0
  1
620*620
  0
TEXT
  8
0-d
 10
1382.3454
 20
1693.7875
 40
30
 41
1
 50
0
  1
網、水平付け
  0
TEXT
  8
0-d
 10
308.45927
 20
140.30214
 40
30
 41
1
 50
0
  1
40-B11c
  0
TEXT
  8
0-d
 10
255.00005
 20
2776.1895
 40
50
 41
1
 50
0
  1
ＡＳ－４００　自然回転  架台型網付断面
  0
TEXT
  8
0-d
 10
280.67567
 20
215.81082
 40
30
 41
1
 50
0
  1
ＡＳ－４００　自然回転  架台型網付断面
  0
TEXT
  8
0-d
 10
1235.6792
 20
118.64593
 40
20
 41
1
 50
0
  1
〒421-2114　静岡市葵区安倍口新田１５２番地
  0
POINT
  8
0-8
 62
    2
 10
710.00002
 20
2537.037
  0
POINT
  8
0-8
 62
    2
 10
1390
 20
2537.037
  0
POINT
  8
0-8
 62
    2
 10
580.00033
 20
1606.9059
  0
POINT
  8
0-8
 62
    2
 10
580.00033
 20
2456.9063
  0
POINT
  8
0-8
 62
    2
 10
580.00033
 20
1606.9064
  0
POINT
  8
0-8
 62
    2
 10
740.00012
 20
1406.3886
  0
POINT
  8
0-8
 62
    2
 10
1359.9999
 20
1406.3883
  0
POINT
  8
0-8
 62
    2
 10
580.00033
 20
1546.9062
  0
POINT
  8
0-8
 62
    2
 10
580.00033
 20
1606.9064
  0
POINT
  8
0-d
 62
    2
 10
1197.4174
 20
1756.9707
  0
ENDSEC
  0
EOF
