  0
SECTION
  2
HEADER
  9
$EXTMIN
 10
0
 20
0
  9
$EXTMAX
 10
4200
 20
2970
  0
ENDSEC
  0
SECTION
  2
TABLES
  0
TABLE
  2
LTYPE
 70
     9
  0
LTYPE
  2
CONTINUOUS
 70
    64
  3
実線
 72
    65
 73
     0
 40
0.0
  0
LTYPE
  2
DASHED1
 70
    64
  3
--  --  --  --  --  --  --  --  
 72
    65
 73
     2
 40
2.5
 49
1.25
 49
-1.25
  0
LTYPE
  2
DASHED2
 70
    64
  3
----    ----    ----    ----    
 72
    65
 73
     2
 40
5.0
 49
2.5
 49
-2.5
  0
LTYPE
  2
DASHED3
 70
    64
  3
------  ------  ------  ------  
 72
    65
 73
     2
 40
5.0
 49
3.75
 49
-1.25
  0
LTYPE
  2
CENTER1
 70
    64
  3
----- - ----- - ----- - ----- - 
 72
    65
 73
     4
 40
10.0
 49
6.25
 49
-1.25
 49
1.25
 49
-1.25
  0
LTYPE
  2
CENTER2
 70
    64
  3
----------  --  ----------  --  
 72
    65
 73
     4
 40
20.0
 49
12.5
 49
-2.5
 49
2.5
 49
-2.5
  0
LTYPE
  2
PHANTOM1
 70
    64
  3
--- - - --- - - --- - - --- - - 
 72
    65
 73
     6
 40
10.0
 49
3.25
 49
-1.25
 49
1.25
 49
-1.25
 49
1.25
 49
-1.25
  0
LTYPE
  2
PHANTOM2
 70
    64
  3
--------  -  -  --------  -  -  
 72
    65
 73
     6
 40
20.0
 49
10.0
 49
-2.5
 49
1.25
 49
-2.5
 49
1.25
 49
-2.5
  0
LTYPE
  2
DOT
 70
    64
  3
-   -   -   -   -   -   -   -   
 72
    65
 73
     2
 40
2.5
 49
0.625
 49
-1.875
  0
ENDTAB
  0
TABLE
  2
STYLE
 70
    1
  0
STYLE
  2
STANDARD
 70
    64
 40
0.0
 41
1.0
 42
0.0
 50
0.0
 71
     0
  3
TXT
  4
BIGFONT
  0
ENDTAB
  0
TABLE
  2
LAYER
 70
    6
  0
LAYER
  2
0-2
 70
   64
 62
    7
  6
CONTINUOUS
  0
LAYER
  2
0-3
 70
   64
 62
    7
  6
CONTINUOUS
  0
LAYER
  2
0-5
 70
   64
 62
    7
  6
CONTINUOUS
  0
LAYER
  2
0-8
 70
   64
 62
    7
  6
CONTINUOUS
  0
LAYER
  2
0-d
 70
   64
 62
    7
  6
CONTINUOUS
  0
LAYER
  2
ADD_LINE
 70
   64
 62
    7
  6
CONTINUOUS
  0
ENDTAB
  0
ENDSEC
  0
SECTION
  2
ENTITIES
  0
LINE
  8
0-d
  6
CONTINUOUS
 62
    7
 10
250.00004
 20
2757.7013
 11
1850.0001
 21
2757.7013
  0
LINE
  8
0-d
  6
CONTINUOUS
 62
    7
 10
250.00004
 20
2767.7016
 11
1850.0001
 21
2767.7016
  0
LINE
  8
0-d
  6
CONTINUOUS
 62
    7
 10
249.99967
 20
189.99989
 11
1850.0003
 21
189.99989
  0
LINE
  8
0-d
  6
CONTINUOUS
 62
    7
 10
249.99967
 20
89.999806
 11
249.99967
 21
269.99991
  0
LINE
  8
0-d
  6
CONTINUOUS
 62
    7
 10
249.99967
 20
89.999806
 11
1850.0003
 21
89.999806
  0
LINE
  8
0-d
  6
CONTINUOUS
 62
    7
 10
1850.0003
 20
269.99991
 11
1850.0003
 21
89.999806
  0
LINE
  8
0-d
  6
CONTINUOUS
 62
    7
 10
249.99967
 20
269.99991
 11
1850.0003
 21
269.99991
  0
LINE
  8
0-d
  6
CONTINUOUS
 62
    7
 10
1050
 20
269.99991
 11
1050
 21
89.999806
  0
LINE
  8
0-d
  6
CONTINUOUS
 62
    7
 10
650.00019
 20
89.999806
 11
650.00019
 21
189.99989
  0
LINE
  8
0-d
  6
CONTINUOUS
 62
    7
 10
1050
 20
189.99989
 11
1050
 21
269.99991
  0
LINE
  8
0-d
  6
CONTINUOUS
 62
    7
 10
849.99975
 20
89.999806
 11
849.99975
 21
189.99989
  0
LINE
  8
0-d
  6
CONTINUOUS
 62
    7
 10
285.00002
 20
89.999806
 11
285.00002
 21
189.99989
  0
LINE
  8
0-d
  6
CONTINUOUS
 62
    7
 10
685.00006
 20
89.999806
 11
685.00006
 21
189.99989
  0
LINE
  8
0-d
  6
CONTINUOUS
 62
    7
 10
885.00011
 20
89.999806
 11
885.00011
 21
189.99989
  0
LINE
  8
0-d
  6
CONTINUOUS
 62
    7
 10
1015
 20
189.99989
 11
1015
 21
269.99991
  0
LINE
  8
0-d
  6
CONTINUOUS
 62
    7
 10
1550.0004
 20
189.99989
 11
1550.0004
 21
269.99991
  0
LINE
  8
0-d
  6
CONTINUOUS
 62
    7
 10
1585.0002
 20
189.99989
 11
1585.0002
 21
269.99991
  0
LINE
  8
0-8
  6
CONTINUOUS
 62
    7
 10
710.00002
 20
2587.0369
 11
1390
 21
2587.0369
  0
LINE
  8
0-8
  6
CONTINUOUS
 62
    7
 10
1390
 20
2489.2029
 11
1390
 21
2587.0369
  0
LINE
  8
0-8
  6
CONTINUOUS
 62
    7
 10
710.00002
 20
2587.0369
 11
710.00002
 21
2489.2029
  0
LINE
  8
0-2
  6
CONTINUOUS
 62
    3
 10
710.00101
 20
1942.4327
 11
710.00027
 21
1867.8699
  0
LINE
  8
0-2
  6
CONTINUOUS
 62
    3
 10
839.99922
 20
1651.6432
 11
1260.0001
 21
1651.643
  0
LINE
  8
0-2
  6
CONTINUOUS
 62
    3
 10
839.99922
 20
1666.5551
 11
1260.0001
 21
1666.555
  0
LINE
  8
0-2
  6
CONTINUOUS
 62
    3
 10
840.00021
 20
1621.8179
 11
1260.0011
 21
1621.8179
  0
LINE
  8
0-2
  6
CONTINUOUS
 62
    3
 10
839.99922
 20
1651.6432
 11
840.00021
 21
1621.8175
  0
LINE
  8
0-2
  6
CONTINUOUS
 62
    3
 10
1259.9991
 20
1651.643
 11
1260.0001
 21
1621.8175
  0
LINE
  8
0-2
  6
CONTINUOUS
 62
    3
 10
840.00021
 20
1778.3968
 11
839.99922
 21
1666.5551
  0
LINE
  8
0-2
  6
CONTINUOUS
 62
    3
 10
1259.9991
 20
1651.643
 11
1260.0001
 21
1621.8175
  0
LINE
  8
0-2
  6
CONTINUOUS
 62
    3
 10
1390.001
 20
1942.4327
 11
1390
 21
1867.8699
  0
LINE
  8
0-2
  6
CONTINUOUS
 62
    3
 10
710.00002
 20
2255.5902
 11
1390.001
 21
2255.5902
  0
LINE
  8
0-2
  6
CONTINUOUS
 62
    3
 10
710.00002
 20
2270.5024
 11
1390.001
 21
2270.5024
  0
LINE
  8
0-2
  6
CONTINUOUS
 62
    3
 10
710.00002
 20
2255.5902
 11
710.00002
 21
2181.0282
  0
LINE
  8
0-2
  6
CONTINUOUS
 62
    3
 10
1390
 20
2255.5902
 11
1390
 21
2181.0282
  0
LINE
  8
0-8
  6
CONTINUOUS
 62
    7
 10
718.63196
 20
1606.9055
 11
580.00033
 21
1606.9055
  0
LINE
  8
0-2
  6
CONTINUOUS
 62
    3
 10
710.00027
 20
1852.9582
 11
776.66675
 21
1778.3968
  0
LINE
  8
0-2
  6
CONTINUOUS
 62
    3
 10
1050.0001
 20
2456.9063
 11
882.88648
 21
2348.9975
  0
LINE
  8
0-2
  6
CONTINUOUS
 62
    3
 10
1390
 20
2270.5024
 11
1323.3333
 21
2345.0637
  0
LINE
  8
0-2
  6
CONTINUOUS
 62
    3
 10
710.00002
 20
2270.5024
 11
776.6665
 21
2345.0637
  0
LINE
  8
0-2
  6
CONTINUOUS
 62
    3
 10
990.76852
 20
2338.901
 11
991.31734
 21
2339.065
  0
LINE
  8
0-2
  6
CONTINUOUS
 62
    3
 10
991.31734
 20
2339.065
 11
991.83276
 21
2339.2887
  0
LINE
  8
0-2
  6
CONTINUOUS
 62
    3
 10
991.83276
 20
2339.2887
 11
992.31527
 21
2339.5669
  0
LINE
  8
0-2
  6
CONTINUOUS
 62
    3
 10
992.31527
 20
2339.5669
 11
992.76561
 21
2339.8959
  0
LINE
  8
0-2
  6
CONTINUOUS
 62
    3
 10
992.76561
 20
2339.8959
 11
993.18427
 21
2340.2725
  0
LINE
  8
0-2
  6
CONTINUOUS
 62
    3
 10
993.18427
 20
2340.2725
 11
993.57201
 21
2340.691
  0
LINE
  8
0-2
  6
CONTINUOUS
 62
    3
 10
993.57201
 20
2340.691
 11
993.92932
 21
2341.1472
  0
LINE
  8
0-2
  6
CONTINUOUS
 62
    3
 10
993.92932
 20
2341.1472
 11
994.25693
 21
2341.6384
  0
LINE
  8
0-2
  6
CONTINUOUS
 62
    3
 10
994.25693
 20
2341.6384
 11
994.55509
 21
2342.1588
  0
LINE
  8
0-2
  6
CONTINUOUS
 62
    3
 10
994.55509
 20
2342.1588
 11
994.8248
 21
2342.7051
  0
LINE
  8
0-2
  6
CONTINUOUS
 62
    3
 10
994.8248
 20
2342.7051
 11
995.06655
 21
2343.273
  0
LINE
  8
0-2
  6
CONTINUOUS
 62
    3
 10
995.06655
 20
2343.273
 11
995.28108
 21
2343.8582
  0
LINE
  8
0-2
  6
CONTINUOUS
 62
    3
 10
995.28108
 20
2343.8582
 11
995.46864
 21
2344.4568
  0
LINE
  8
0-2
  6
CONTINUOUS
 62
    3
 10
995.46864
 20
2344.4568
 11
995.62997
 21
2345.0637
  0
LINE
  8
0-2
  6
CONTINUOUS
 62
    3
 10
987.7547
 20
2338.8681
 11
987.12002
 21
2339.0962
  0
LINE
  8
0-2
  6
CONTINUOUS
 62
    3
 10
987.12002
 20
2339.0962
 11
986.52468
 21
2339.3654
  0
LINE
  8
0-2
  6
CONTINUOUS
 62
    3
 10
986.52468
 20
2339.3654
 11
985.96794
 21
2339.6742
  0
LINE
  8
0-2
  6
CONTINUOUS
 62
    3
 10
985.96794
 20
2339.6742
 11
985.4498
 21
2340.0202
  0
LINE
  8
0-2
  6
CONTINUOUS
 62
    3
 10
985.4498
 20
2340.0202
 11
984.96952
 21
2340.4007
  0
LINE
  8
0-2
  6
CONTINUOUS
 62
    3
 10
984.96952
 20
2340.4007
 11
984.5266
 21
2340.8149
  0
LINE
  8
0-2
  6
CONTINUOUS
 62
    3
 10
984.5266
 20
2340.8149
 11
984.1208
 21
2341.2598
  0
LINE
  8
0-2
  6
CONTINUOUS
 62
    3
 10
984.1208
 20
2341.2598
 11
983.75187
 21
2341.7337
  0
LINE
  8
0-2
  6
CONTINUOUS
 62
    3
 10
983.75187
 20
2341.7337
 11
983.41881
 21
2342.234
  0
LINE
  8
0-2
  6
CONTINUOUS
 62
    3
 10
983.41881
 20
2342.234
 11
983.12189
 21
2342.7588
  0
LINE
  8
0-2
  6
CONTINUOUS
 62
    3
 10
983.12189
 20
2342.7588
 11
982.86009
 21
2343.3067
  0
LINE
  8
0-2
  6
CONTINUOUS
 62
    3
 10
982.86009
 20
2343.3067
 11
982.63344
 21
2343.8745
  0
LINE
  8
0-2
  6
CONTINUOUS
 62
    3
 10
982.63344
 20
2343.8745
 11
982.44143
 21
2344.4612
  0
LINE
  8
0-2
  6
CONTINUOUS
 62
    3
 10
982.44143
 20
2344.4612
 11
982.28331
 21
2345.0637
  0
LINE
  8
0-2
  6
CONTINUOUS
 62
    3
 10
956.11135
 20
2345.0637
 11
955.49671
 21
2344.0628
  0
LINE
  8
0-2
  6
CONTINUOUS
 62
    3
 10
955.49671
 20
2344.0628
 11
954.8749
 21
2343.1728
  0
LINE
  8
0-2
  6
CONTINUOUS
 62
    3
 10
954.8749
 20
2343.1728
 11
954.24863
 21
2342.3867
  0
LINE
  8
0-2
  6
CONTINUOUS
 62
    3
 10
954.24863
 20
2342.3867
 11
953.61988
 21
2341.699
  0
LINE
  8
0-2
  6
CONTINUOUS
 62
    3
 10
953.61988
 20
2341.699
 11
952.99138
 21
2341.103
  0
LINE
  8
0-2
  6
CONTINUOUS
 62
    3
 10
952.99138
 20
2341.103
 11
952.36561
 21
2340.5935
  0
LINE
  8
0-2
  6
CONTINUOUS
 62
    3
 10
952.36561
 20
2340.5935
 11
951.74478
 21
2340.1637
  0
LINE
  8
0-2
  6
CONTINUOUS
 62
    3
 10
951.74478
 20
2340.1637
 11
951.13163
 21
2339.8071
  0
LINE
  8
0-2
  6
CONTINUOUS
 62
    3
 10
951.13163
 20
2339.8071
 11
950.52837
 21
2339.5179
  0
LINE
  8
0-2
  6
CONTINUOUS
 62
    3
 10
950.52837
 20
2339.5179
 11
949.93748
 21
2339.2902
  0
LINE
  8
0-2
  6
CONTINUOUS
 62
    3
 10
949.93748
 20
2339.2902
 11
949.36144
 21
2339.1175
  0
LINE
  8
0-2
  6
CONTINUOUS
 62
    3
 10
949.36144
 20
2339.1175
 11
948.80272
 21
2338.9935
  0
LINE
  8
0-2
  6
CONTINUOUS
 62
    3
 10
948.80272
 20
2338.9935
 11
948.2638
 21
2338.9124
  0
LINE
  8
0-2
  6
CONTINUOUS
 62
    3
 10
948.2638
 20
2338.9124
 11
947.7469
 21
2338.8681
  0
LINE
  8
0-2
  6
CONTINUOUS
 62
    3
 10
943.3489
 20
2345.0637
 11
943.36746
 21
2344.3439
  0
LINE
  8
0-2
  6
CONTINUOUS
 62
    3
 10
943.36746
 20
2344.3439
 11
943.42313
 21
2343.6783
  0
LINE
  8
0-2
  6
CONTINUOUS
 62
    3
 10
943.42313
 20
2343.6783
 11
943.51766
 21
2343.0649
  0
LINE
  8
0-2
  6
CONTINUOUS
 62
    3
 10
943.51766
 20
2343.0649
 11
943.654
 21
2342.4998
  0
LINE
  8
0-2
  6
CONTINUOUS
 62
    3
 10
943.654
 20
2342.4998
 11
943.83364
 21
2341.9804
  0
LINE
  8
0-2
  6
CONTINUOUS
 62
    3
 10
943.83364
 20
2341.9804
 11
944.05881
 21
2341.5041
  0
LINE
  8
0-2
  6
CONTINUOUS
 62
    3
 10
944.05881
 20
2341.5041
 11
944.33149
 21
2341.0673
  0
LINE
  8
0-2
  6
CONTINUOUS
 62
    3
 10
944.33149
 20
2341.0673
 11
944.6539
 21
2340.667
  0
LINE
  8
0-2
  6
CONTINUOUS
 62
    3
 10
944.6539
 20
2340.667
 11
945.02778
 21
2340.3005
  0
LINE
  8
0-2
  6
CONTINUOUS
 62
    3
 10
945.02778
 20
2340.3005
 11
945.4556
 21
2339.9647
  0
LINE
  8
0-2
  6
CONTINUOUS
 62
    3
 10
945.4556
 20
2339.9647
 11
945.9396
 21
2339.6567
  0
LINE
  8
0-2
  6
CONTINUOUS
 62
    3
 10
945.9396
 20
2339.6567
 11
946.48124
 21
2339.3729
  0
LINE
  8
0-2
  6
CONTINUOUS
 62
    3
 10
946.48124
 20
2339.3729
 11
947.08326
 21
2339.1108
  0
LINE
  8
0-2
  6
CONTINUOUS
 62
    3
 10
947.08326
 20
2339.1108
 11
947.7469
 21
2338.8681
  0
LINE
  8
0-2
  6
CONTINUOUS
 62
    3
 10
906.72335
 20
2345.0637
 11
907.03686
 21
2344.2185
  0
LINE
  8
0-2
  6
CONTINUOUS
 62
    3
 10
907.03686
 20
2344.2185
 11
907.36323
 21
2343.4509
  0
LINE
  8
0-2
  6
CONTINUOUS
 62
    3
 10
907.36323
 20
2343.4509
 11
907.70247
 21
2342.7588
  0
LINE
  8
0-2
  6
CONTINUOUS
 62
    3
 10
907.70247
 20
2342.7588
 11
908.05408
 21
2342.1373
  0
LINE
  8
0-2
  6
CONTINUOUS
 62
    3
 10
908.05408
 20
2342.1373
 11
908.41757
 21
2341.5835
  0
LINE
  8
0-2
  6
CONTINUOUS
 62
    3
 10
908.41757
 20
2341.5835
 11
908.79294
 21
2341.0931
  0
LINE
  8
0-2
  6
CONTINUOUS
 62
    3
 10
908.79294
 20
2341.0931
 11
909.17944
 21
2340.662
  0
LINE
  8
0-2
  6
CONTINUOUS
 62
    3
 10
909.17944
 20
2340.662
 11
909.57732
 21
2340.2871
  0
LINE
  8
0-2
  6
CONTINUOUS
 62
    3
 10
909.57732
 20
2340.2871
 11
909.9856
 21
2339.964
  0
LINE
  8
0-2
  6
CONTINUOUS
 62
    3
 10
909.9856
 20
2339.964
 11
910.40451
 21
2339.6898
  0
LINE
  8
0-2
  6
CONTINUOUS
 62
    3
 10
910.40451
 20
2339.6898
 11
910.83358
 21
2339.46
  0
LINE
  8
0-2
  6
CONTINUOUS
 62
    3
 10
910.83358
 20
2339.46
 11
911.27229
 21
2339.2709
  0
LINE
  8
0-2
  6
CONTINUOUS
 62
    3
 10
911.27229
 20
2339.2709
 11
911.7204
 21
2339.119
  0
LINE
  8
0-2
  6
CONTINUOUS
 62
    3
 10
911.7204
 20
2339.119
 11
912.17767
 21
2339.0002
  0
LINE
  8
0-2
  6
CONTINUOUS
 62
    3
 10
913.18326
 20
2339.0002
 11
913.66033
 21
2339.1012
  0
LINE
  8
0-2
  6
CONTINUOUS
 62
    3
 10
913.66033
 20
2339.1012
 11
914.13343
 21
2339.263
  0
LINE
  8
0-2
  6
CONTINUOUS
 62
    3
 10
914.13343
 20
2339.263
 11
914.60258
 21
2339.4835
  0
LINE
  8
0-2
  6
CONTINUOUS
 62
    3
 10
914.60258
 20
2339.4835
 11
915.06801
 21
2339.7643
  0
LINE
  8
0-2
  6
CONTINUOUS
 62
    3
 10
915.06801
 20
2339.7643
 11
915.52924
 21
2340.1048
  0
LINE
  8
0-2
  6
CONTINUOUS
 62
    3
 10
915.52924
 20
2340.1048
 11
915.987
 21
2340.5049
  0
LINE
  8
0-2
  6
CONTINUOUS
 62
    3
 10
915.987
 20
2340.5049
 11
916.44056
 21
2340.9654
  0
LINE
  8
0-2
  6
CONTINUOUS
 62
    3
 10
916.44056
 20
2340.9654
 11
916.89066
 21
2341.4857
  0
LINE
  8
0-2
  6
CONTINUOUS
 62
    3
 10
916.89066
 20
2341.4857
 11
917.33654
 21
2342.065
  0
LINE
  8
0-2
  6
CONTINUOUS
 62
    3
 10
873.19921
 20
2345.0637
 11
873.29002
 21
2344.4191
  0
LINE
  8
0-2
  6
CONTINUOUS
 62
    3
 10
873.29002
 20
2344.4191
 11
873.41869
 21
2343.8191
  0
LINE
  8
0-2
  6
CONTINUOUS
 62
    3
 10
873.41869
 20
2343.8191
 11
873.5825
 21
2343.2616
  0
LINE
  8
0-2
  6
CONTINUOUS
 62
    3
 10
873.5825
 20
2343.2616
 11
873.77822
 21
2342.7455
  0
LINE
  8
0-2
  6
CONTINUOUS
 62
    3
 10
873.77822
 20
2342.7455
 11
874.00315
 21
2342.2679
  0
LINE
  8
0-2
  6
CONTINUOUS
 62
    3
 10
874.00315
 20
2342.2679
 11
874.25479
 21
2341.8282
  0
LINE
  8
0-2
  6
CONTINUOUS
 62
    3
 10
874.25479
 20
2341.8282
 11
874.53019
 21
2341.4244
  0
LINE
  8
0-2
  6
CONTINUOUS
 62
    3
 10
874.53019
 20
2341.4244
 11
874.82737
 21
2341.0554
  0
LINE
  8
0-2
  6
CONTINUOUS
 62
    3
 10
874.82737
 20
2341.0554
 11
875.14384
 21
2340.7197
  0
LINE
  8
0-2
  6
CONTINUOUS
 62
    3
 10
875.14384
 20
2340.7197
 11
875.47764
 21
2340.4163
  0
LINE
  8
0-2
  6
CONTINUOUS
 62
    3
 10
875.47764
 20
2340.4163
 11
875.82702
 21
2340.1444
  0
LINE
  8
0-2
  6
CONTINUOUS
 62
    3
 10
875.82702
 20
2340.1444
 11
876.18977
 21
2339.9029
  0
LINE
  8
0-2
  6
CONTINUOUS
 62
    3
 10
876.18977
 20
2339.9029
 11
876.56464
 21
2339.6901
  0
LINE
  8
0-2
  6
CONTINUOUS
 62
    3
 10
876.56464
 20
2339.6901
 11
876.94991
 21
2339.5065
  0
LINE
  8
0-2
  6
CONTINUOUS
 62
    3
 10
876.94991
 20
2339.5065
 11
877.34457
 21
2339.3506
  0
LINE
  8
0-2
  6
CONTINUOUS
 62
    3
 10
877.34457
 20
2339.3506
 11
877.74716
 21
2339.2224
  0
LINE
  8
0-2
  6
CONTINUOUS
 62
    3
 10
877.74716
 20
2339.2224
 11
878.15642
 21
2339.1215
  0
LINE
  8
0-2
  6
CONTINUOUS
 62
    3
 10
878.15642
 20
2339.1215
 11
878.57212
 21
2339.0477
  0
LINE
  8
0-2
  6
CONTINUOUS
 62
    3
 10
878.57212
 20
2339.0477
 11
878.99302
 21
2339.0002
  0
LINE
  8
0-2
  6
CONTINUOUS
 62
    3
 10
879.09917
 20
2339.0057
 11
879.33622
 21
2339.0319
  0
LINE
  8
0-2
  6
CONTINUOUS
 62
    3
 10
879.33622
 20
2339.0319
 11
879.5693
 21
2339.0695
  0
LINE
  8
0-2
  6
CONTINUOUS
 62
    3
 10
879.5693
 20
2339.0695
 11
879.79794
 21
2339.119
  0
LINE
  8
0-2
  6
CONTINUOUS
 62
    3
 10
879.79794
 20
2339.119
 11
880.02286
 21
2339.1794
  0
LINE
  8
0-2
  6
CONTINUOUS
 62
    3
 10
880.02286
 20
2339.1794
 11
880.24358
 21
2339.2511
  0
LINE
  8
0-2
  6
CONTINUOUS
 62
    3
 10
880.24358
 20
2339.2511
 11
880.46009
 21
2339.3345
  0
LINE
  8
0-2
  6
CONTINUOUS
 62
    3
 10
880.46009
 20
2339.3345
 11
880.67264
 21
2339.4293
  0
LINE
  8
0-2
  6
CONTINUOUS
 62
    3
 10
880.67264
 20
2339.4293
 11
880.88098
 21
2339.5357
  0
LINE
  8
0-2
  6
CONTINUOUS
 62
    3
 10
880.88098
 20
2339.5357
 11
881.08537
 21
2339.6532
  0
LINE
  8
0-2
  6
CONTINUOUS
 62
    3
 10
783.30779
 20
2345.0637
 11
783.38895
 21
2344.386
  0
LINE
  8
0-2
  6
CONTINUOUS
 62
    3
 10
783.38895
 20
2344.386
 11
783.47456
 21
2343.7659
  0
LINE
  8
0-2
  6
CONTINUOUS
 62
    3
 10
783.47456
 20
2343.7659
 11
783.56537
 21
2343.2052
  0
LINE
  8
0-2
  6
CONTINUOUS
 62
    3
 10
783.56537
 20
2343.2052
 11
783.66063
 21
2342.7022
  0
LINE
  8
0-2
  6
CONTINUOUS
 62
    3
 10
783.66063
 20
2342.7022
 11
783.7606
 21
2342.2585
  0
LINE
  8
0-2
  6
CONTINUOUS
 62
    3
 10
783.7606
 20
2342.2585
 11
783.86527
 21
2341.8727
  0
LINE
  8
0-2
  6
CONTINUOUS
 62
    3
 10
783.86527
 20
2341.8727
 11
783.97464
 21
2341.5454
  0
LINE
  8
0-2
  6
CONTINUOUS
 62
    3
 10
783.97464
 20
2341.5454
 11
784.08871
 21
2341.2772
  0
LINE
  8
0-2
  6
CONTINUOUS
 62
    3
 10
784.08871
 20
2341.2772
 11
784.20748
 21
2341.0673
  0
LINE
  8
0-2
  6
CONTINUOUS
 62
    3
 10
798.06485
 20
2345.0637
 11
798.10964
 21
2344.527
  0
LINE
  8
0-2
  6
CONTINUOUS
 62
    3
 10
798.10964
 20
2344.527
 11
798.18387
 21
2344.0193
  0
LINE
  8
0-2
  6
CONTINUOUS
 62
    3
 10
798.18387
 20
2344.0193
 11
798.28408
 21
2343.5407
  0
LINE
  8
0-2
  6
CONTINUOUS
 62
    3
 10
798.28408
 20
2343.5407
 11
798.40755
 21
2343.0914
  0
LINE
  8
0-2
  6
CONTINUOUS
 62
    3
 10
798.40755
 20
2343.0914
 11
798.55156
 21
2342.672
  0
LINE
  8
0-2
  6
CONTINUOUS
 62
    3
 10
798.55156
 20
2342.672
 11
798.71339
 21
2342.2828
  0
LINE
  8
0-2
  6
CONTINUOUS
 62
    3
 10
798.71339
 20
2342.2828
 11
798.88957
 21
2341.9225
  0
LINE
  8
0-2
  6
CONTINUOUS
 62
    3
 10
798.88957
 20
2341.9225
 11
799.07762
 21
2341.5931
  0
LINE
  8
0-2
  6
CONTINUOUS
 62
    3
 10
799.07762
 20
2341.5931
 11
799.27458
 21
2341.293
  0
LINE
  8
0-2
  6
CONTINUOUS
 62
    3
 10
799.27458
 20
2341.293
 11
799.47773
 21
2341.024
  0
LINE
  8
0-2
  6
CONTINUOUS
 62
    3
 10
799.47773
 20
2341.024
 11
799.68385
 21
2340.7857
  0
LINE
  8
0-2
  6
CONTINUOUS
 62
    3
 10
799.68385
 20
2340.7857
 11
799.89021
 21
2340.5776
  0
LINE
  8
0-2
  6
CONTINUOUS
 62
    3
 10
799.89021
 20
2340.5776
 11
800.0941
 21
2340.4005
  0
LINE
  8
0-2
  6
CONTINUOUS
 62
    3
 10
800.0941
 20
2340.4005
 11
800.29255
 21
2340.2542
  0
LINE
  8
0-2
  6
CONTINUOUS
 62
    3
 10
818.27549
 20
2345.0637
 11
818.4096
 21
2344.4662
  0
LINE
  8
0-2
  6
CONTINUOUS
 62
    3
 10
818.4096
 20
2344.4662
 11
818.57266
 21
2343.9067
  0
LINE
  8
0-2
  6
CONTINUOUS
 62
    3
 10
818.57266
 20
2343.9067
 11
818.76393
 21
2343.3846
  0
LINE
  8
0-2
  6
CONTINUOUS
 62
    3
 10
818.76393
 20
2343.3846
 11
818.98168
 21
2342.9004
  0
LINE
  8
0-2
  6
CONTINUOUS
 62
    3
 10
818.98168
 20
2342.9004
 11
819.22516
 21
2342.4527
  0
LINE
  8
0-2
  6
CONTINUOUS
 62
    3
 10
819.22516
 20
2342.4527
 11
819.49314
 21
2342.0422
  0
LINE
  8
0-2
  6
CONTINUOUS
 62
    3
 10
819.49314
 20
2342.0422
 11
819.78413
 21
2341.6686
  0
LINE
  8
0-2
  6
CONTINUOUS
 62
    3
 10
819.78413
 20
2341.6686
 11
820.09739
 21
2341.3306
  0
LINE
  8
0-2
  6
CONTINUOUS
 62
    3
 10
820.09739
 20
2341.3306
 11
820.43168
 21
2341.0297
  0
LINE
  8
0-2
  6
CONTINUOUS
 62
    3
 10
820.43168
 20
2341.0297
 11
820.78552
 21
2340.7632
  0
LINE
  8
0-2
  6
CONTINUOUS
 62
    3
 10
820.78552
 20
2340.7632
 11
821.15816
 21
2340.5329
  0
LINE
  8
0-2
  6
CONTINUOUS
 62
    3
 10
821.15816
 20
2340.5329
 11
821.54813
 21
2340.3374
  0
LINE
  8
0-2
  6
CONTINUOUS
 62
    3
 10
821.54813
 20
2340.3374
 11
821.95418
 21
2340.1773
  0
LINE
  8
0-2
  6
CONTINUOUS
 62
    3
 10
821.95418
 20
2340.1773
 11
822.37557
 21
2340.0511
  0
LINE
  8
0-2
  6
CONTINUOUS
 62
    3
 10
843.49109
 20
2345.0637
 11
843.69375
 21
2344.4375
  0
LINE
  8
0-2
  6
CONTINUOUS
 62
    3
 10
843.69375
 20
2344.4375
 11
843.93104
 21
2343.857
  0
LINE
  8
0-2
  6
CONTINUOUS
 62
    3
 10
843.93104
 20
2343.857
 11
844.20025
 21
2343.322
  0
LINE
  8
0-2
  6
CONTINUOUS
 62
    3
 10
844.20025
 20
2343.322
 11
844.49867
 21
2342.8333
  0
LINE
  8
0-2
  6
CONTINUOUS
 62
    3
 10
844.49867
 20
2342.8333
 11
844.82281
 21
2342.3909
  0
LINE
  8
0-2
  6
CONTINUOUS
 62
    3
 10
844.82281
 20
2342.3909
 11
845.17022
 21
2341.9942
  0
LINE
  8
0-2
  6
CONTINUOUS
 62
    3
 10
845.17022
 20
2341.9942
 11
845.53742
 21
2341.6429
  0
LINE
  8
0-2
  6
CONTINUOUS
 62
    3
 10
845.53742
 20
2341.6429
 11
845.92145
 21
2341.337
  0
LINE
  8
0-2
  6
CONTINUOUS
 62
    3
 10
845.92145
 20
2341.337
 11
846.31933
 21
2341.0752
  0
LINE
  8
0-2
  6
CONTINUOUS
 62
    3
 10
846.31933
 20
2341.0752
 11
846.72711
 21
2340.858
  0
LINE
  8
0-2
  6
CONTINUOUS
 62
    3
 10
846.72711
 20
2340.858
 11
847.14207
 21
2340.6835
  0
LINE
  8
0-2
  6
CONTINUOUS
 62
    3
 10
847.14207
 20
2340.6835
 11
847.56024
 21
2340.5499
  0
LINE
  8
0-2
  6
CONTINUOUS
 62
    3
 10
847.56024
 20
2340.5499
 11
847.97817
 21
2340.4576
  0
LINE
  8
0-2
  6
CONTINUOUS
 62
    3
 10
847.97817
 20
2340.4576
 11
848.39263
 21
2340.4047
  0
LINE
  8
0-2
  6
CONTINUOUS
 62
    3
 10
848.39263
 20
2340.4047
 11
848.79917
 21
2340.3884
  0
LINE
  8
0-2
  6
CONTINUOUS
 62
    3
 10
848.79917
 20
2340.3884
 11
849.19458
 21
2340.4081
  0
LINE
  8
0-2
  6
CONTINUOUS
 62
    3
 10
849.19458
 20
2340.4081
 11
849.57514
 21
2340.4613
  0
LINE
  8
0-2
  6
CONTINUOUS
 62
    3
 10
849.57514
 20
2340.4613
 11
849.9364
 21
2340.5462
  0
LINE
  8
0-2
  6
CONTINUOUS
 62
    3
 10
849.9364
 20
2340.5462
 11
850.27441
 21
2340.6605
  0
LINE
  8
0-2
  6
CONTINUOUS
 62
    3
 10
783.30779
 20
2345.0637
 11
776.6665
 21
2345.0637
  0
LINE
  8
0-2
  6
CONTINUOUS
 62
    3
 10
718.2608
 20
2270.5024
 11
783.30779
 21
2345.0637
  0
LINE
  8
0-2
  6
CONTINUOUS
 62
    3
 10
787.59864
 20
2345.0637
 11
723.59808
 21
2270.5024
  0
LINE
  8
0-2
  6
CONTINUOUS
 62
    3
 10
736.61713
 20
2270.5024
 11
798.06485
 21
2345.0637
  0
LINE
  8
0-2
  6
CONTINUOUS
 62
    3
 10
798.06485
 20
2345.0637
 11
787.59864
 21
2345.0637
  0
LINE
  8
0-2
  6
CONTINUOUS
 62
    3
 10
804.21497
 20
2345.0637
 11
744.26722
 21
2270.5024
  0
LINE
  8
0-2
  6
CONTINUOUS
 62
    3
 10
818.27549
 20
2345.0637
 11
804.21497
 21
2345.0637
  0
LINE
  8
0-2
  6
CONTINUOUS
 62
    3
 10
761.75726
 20
2270.5024
 11
818.27549
 21
2345.0637
  0
LINE
  8
0-2
  6
CONTINUOUS
 62
    3
 10
826.15199
 20
2345.0637
 11
771.55489
 21
2270.5024
  0
LINE
  8
0-2
  6
CONTINUOUS
 62
    3
 10
843.50223
 20
2345.0637
 11
826.15199
 21
2345.0637
  0
LINE
  8
0-2
  6
CONTINUOUS
 62
    3
 10
793.13709
 20
2270.5024
 11
843.50223
 21
2345.0637
  0
LINE
  8
0-2
  6
CONTINUOUS
 62
    3
 10
852.93463
 20
2345.0637
 11
804.86969
 21
2270.5024
  0
LINE
  8
0-2
  6
CONTINUOUS
 62
    3
 10
873.19921
 20
2345.0637
 11
852.93463
 21
2345.0637
  0
LINE
  8
0-2
  6
CONTINUOUS
 62
    3
 10
830.07713
 20
2270.5024
 11
873.19921
 21
2345.0637
  0
LINE
  8
0-2
  6
CONTINUOUS
 62
    3
 10
883.98314
 20
2345.0637
 11
843.49109
 21
2270.5024
  0
LINE
  8
0-2
  6
CONTINUOUS
 62
    3
 10
906.72335
 20
2345.0637
 11
883.98314
 21
2345.0637
  0
LINE
  8
0-2
  6
CONTINUOUS
 62
    3
 10
871.77792
 20
2270.5024
 11
906.72335
 21
2345.0637
  0
LINE
  8
0-2
  6
CONTINUOUS
 62
    3
 10
918.62521
 20
2345.0637
 11
886.58249
 21
2270.5024
  0
LINE
  8
0-2
  6
CONTINUOUS
 62
    3
 10
943.3489
 20
2345.0637
 11
918.62521
 21
2345.0637
  0
LINE
  8
0-2
  6
CONTINUOUS
 62
    3
 10
917.33654
 20
2270.5024
 11
943.3489
 21
2345.0637
  0
LINE
  8
0-2
  6
CONTINUOUS
 62
    3
 10
933.21154
 20
2270.5024
 11
956.11135
 21
2345.0637
  0
LINE
  8
0-2
  6
CONTINUOUS
 62
    3
 10
982.28331
 20
2345.0637
 11
956.11135
 21
2345.0637
  0
LINE
  8
0-2
  6
CONTINUOUS
 62
    3
 10
982.28331
 20
2345.0637
 11
965.76695
 21
2270.5024
  0
LINE
  8
0-2
  6
CONTINUOUS
 62
    3
 10
982.36868
 20
2270.5024
 11
995.62997
 21
2345.0637
  0
LINE
  8
0-2
  6
CONTINUOUS
 62
    3
 10
1022.6835
 20
2345.0637
 11
995.62997
 21
2345.0637
  0
LINE
  8
0-2
  6
CONTINUOUS
 62
    3
 10
1022.6835
 20
2345.0637
 11
1016.0209
 21
2270.5024
  0
LINE
  8
0-2
  6
CONTINUOUS
 62
    3
 10
1036.3254
 20
2345.0637
 11
1032.9899
 21
2270.5024
  0
LINE
  8
0-2
  6
CONTINUOUS
 62
    3
 10
1050.0001
 20
2345.0637
 11
1036.3254
 21
2345.0637
  0
LINE
  8
0-2
  6
CONTINUOUS
 62
    3
 10
1390
 20
2270.5024
 11
1323.3333
 21
2345.0637
  0
LINE
  8
0-2
  6
CONTINUOUS
 62
    3
 10
1316.6925
 20
2345.0637
 11
1316.6114
 21
2344.386
  0
LINE
  8
0-2
  6
CONTINUOUS
 62
    3
 10
1316.6114
 20
2344.386
 11
1316.5252
 21
2343.7659
  0
LINE
  8
0-2
  6
CONTINUOUS
 62
    3
 10
1316.5252
 20
2343.7659
 11
1316.4352
 21
2343.2052
  0
LINE
  8
0-2
  6
CONTINUOUS
 62
    3
 10
1316.4352
 20
2343.2052
 11
1316.3397
 21
2342.7022
  0
LINE
  8
0-2
  6
CONTINUOUS
 62
    3
 10
1316.3397
 20
2342.7022
 11
1316.2397
 21
2342.2585
  0
LINE
  8
0-2
  6
CONTINUOUS
 62
    3
 10
1316.2397
 20
2342.2585
 11
1316.1348
 21
2341.8727
  0
LINE
  8
0-2
  6
CONTINUOUS
 62
    3
 10
1316.1348
 20
2341.8727
 11
1316.0254
 21
2341.5454
  0
LINE
  8
0-2
  6
CONTINUOUS
 62
    3
 10
1316.0254
 20
2341.5454
 11
1315.9116
 21
2341.2772
  0
LINE
  8
0-2
  6
CONTINUOUS
 62
    3
 10
1315.9116
 20
2341.2772
 11
1315.7928
 21
2341.0673
  0
LINE
  8
0-2
  6
CONTINUOUS
 62
    3
 10
1301.9352
 20
2345.0637
 11
1301.8907
 21
2344.527
  0
LINE
  8
0-2
  6
CONTINUOUS
 62
    3
 10
1301.8907
 20
2344.527
 11
1301.8164
 21
2344.0193
  0
LINE
  8
0-2
  6
CONTINUOUS
 62
    3
 10
1301.8164
 20
2344.0193
 11
1301.716
 21
2343.5407
  0
LINE
  8
0-2
  6
CONTINUOUS
 62
    3
 10
1301.716
 20
2343.5407
 11
1301.5927
 21
2343.0914
  0
LINE
  8
0-2
  6
CONTINUOUS
 62
    3
 10
1301.5927
 20
2343.0914
 11
1301.4482
 21
2342.672
  0
LINE
  8
0-2
  6
CONTINUOUS
 62
    3
 10
1301.4482
 20
2342.672
 11
1301.2869
 21
2342.2828
  0
LINE
  8
0-2
  6
CONTINUOUS
 62
    3
 10
1301.2869
 20
2342.2828
 11
1301.1107
 21
2341.9225
  0
LINE
  8
0-2
  6
CONTINUOUS
 62
    3
 10
1301.1107
 20
2341.9225
 11
1300.9227
 21
2341.5931
  0
LINE
  8
0-2
  6
CONTINUOUS
 62
    3
 10
1300.9227
 20
2341.5931
 11
1300.7257
 21
2341.293
  0
LINE
  8
0-2
  6
CONTINUOUS
 62
    3
 10
1300.7257
 20
2341.293
 11
1300.5228
 21
2341.024
  0
LINE
  8
0-2
  6
CONTINUOUS
 62
    3
 10
1300.5228
 20
2341.024
 11
1300.3165
 21
2340.7857
  0
LINE
  8
0-2
  6
CONTINUOUS
 62
    3
 10
1300.3165
 20
2340.7857
 11
1300.1101
 21
2340.5776
  0
LINE
  8
0-2
  6
CONTINUOUS
 62
    3
 10
1300.1101
 20
2340.5776
 11
1299.9062
 21
2340.4005
  0
LINE
  8
0-2
  6
CONTINUOUS
 62
    3
 10
1299.9062
 20
2340.4005
 11
1299.7077
 21
2340.2542
  0
LINE
  8
0-2
  6
CONTINUOUS
 62
    3
 10
1281.7248
 20
2345.0637
 11
1281.5907
 21
2344.4662
  0
LINE
  8
0-2
  6
CONTINUOUS
 62
    3
 10
1281.5907
 20
2344.4662
 11
1281.4274
 21
2343.9067
  0
LINE
  8
0-2
  6
CONTINUOUS
 62
    3
 10
1281.4274
 20
2343.9067
 11
1281.2364
 21
2343.3846
  0
LINE
  8
0-2
  6
CONTINUOUS
 62
    3
 10
1281.2364
 20
2343.3846
 11
1281.0186
 21
2342.9004
  0
LINE
  8
0-2
  6
CONTINUOUS
 62
    3
 10
1281.0186
 20
2342.9004
 11
1280.7749
 21
2342.4527
  0
LINE
  8
0-2
  6
CONTINUOUS
 62
    3
 10
1280.7749
 20
2342.4527
 11
1280.5069
 21
2342.0422
  0
LINE
  8
0-2
  6
CONTINUOUS
 62
    3
 10
1280.5069
 20
2342.0422
 11
1280.2159
 21
2341.6686
  0
LINE
  8
0-2
  6
CONTINUOUS
 62
    3
 10
1280.2159
 20
2341.6686
 11
1279.9027
 21
2341.3306
  0
LINE
  8
0-2
  6
CONTINUOUS
 62
    3
 10
1279.9027
 20
2341.3306
 11
1279.5686
 21
2341.0297
  0
LINE
  8
0-2
  6
CONTINUOUS
 62
    3
 10
1279.5686
 20
2341.0297
 11
1279.2148
 21
2340.7632
  0
LINE
  8
0-2
  6
CONTINUOUS
 62
    3
 10
1279.2148
 20
2340.7632
 11
1278.8421
 21
2340.5329
  0
LINE
  8
0-2
  6
CONTINUOUS
 62
    3
 10
1278.8421
 20
2340.5329
 11
1278.4522
 21
2340.3374
  0
LINE
  8
0-2
  6
CONTINUOUS
 62
    3
 10
1278.4522
 20
2340.3374
 11
1278.0459
 21
2340.1773
  0
LINE
  8
0-2
  6
CONTINUOUS
 62
    3
 10
1278.0459
 20
2340.1773
 11
1277.6247
 21
2340.0511
  0
LINE
  8
0-2
  6
CONTINUOUS
 62
    3
 10
1256.5092
 20
2345.0637
 11
1256.3066
 21
2344.4375
  0
LINE
  8
0-2
  6
CONTINUOUS
 62
    3
 10
1256.3066
 20
2344.4375
 11
1256.069
 21
2343.857
  0
LINE
  8
0-2
  6
CONTINUOUS
 62
    3
 10
1256.069
 20
2343.857
 11
1255.7998
 21
2343.322
  0
LINE
  8
0-2
  6
CONTINUOUS
 62
    3
 10
1255.7998
 20
2343.322
 11
1255.5016
 21
2342.8333
  0
LINE
  8
0-2
  6
CONTINUOUS
 62
    3
 10
1255.5016
 20
2342.8333
 11
1255.1772
 21
2342.3909
  0
LINE
  8
0-2
  6
CONTINUOUS
 62
    3
 10
1255.1772
 20
2342.3909
 11
1254.8301
 21
2341.9942
  0
LINE
  8
0-2
  6
CONTINUOUS
 62
    3
 10
1254.8301
 20
2341.9942
 11
1254.4626
 21
2341.6429
  0
LINE
  8
0-2
  6
CONTINUOUS
 62
    3
 10
1254.4626
 20
2341.6429
 11
1254.0786
 21
2341.337
  0
LINE
  8
0-2
  6
CONTINUOUS
 62
    3
 10
1254.0786
 20
2341.337
 11
1253.6807
 21
2341.0752
  0
LINE
  8
0-2
  6
CONTINUOUS
 62
    3
 10
1253.6807
 20
2341.0752
 11
1253.2729
 21
2340.858
  0
LINE
  8
0-2
  6
CONTINUOUS
 62
    3
 10
1253.2729
 20
2340.858
 11
1252.8582
 21
2340.6835
  0
LINE
  8
0-2
  6
CONTINUOUS
 62
    3
 10
1252.8582
 20
2340.6835
 11
1252.4398
 21
2340.5499
  0
LINE
  8
0-2
  6
CONTINUOUS
 62
    3
 10
1252.4398
 20
2340.5499
 11
1252.0219
 21
2340.4576
  0
LINE
  8
0-2
  6
CONTINUOUS
 62
    3
 10
1252.0219
 20
2340.4576
 11
1251.6077
 21
2340.4047
  0
LINE
  8
0-2
  6
CONTINUOUS
 62
    3
 10
1251.6077
 20
2340.4047
 11
1251.2009
 21
2340.3884
  0
LINE
  8
0-2
  6
CONTINUOUS
 62
    3
 10
1251.2009
 20
2340.3884
 11
1250.8055
 21
2340.4081
  0
LINE
  8
0-2
  6
CONTINUOUS
 62
    3
 10
1250.8055
 20
2340.4081
 11
1250.4252
 21
2340.4613
  0
LINE
  8
0-2
  6
CONTINUOUS
 62
    3
 10
1250.4252
 20
2340.4613
 11
1250.0639
 21
2340.5462
  0
LINE
  8
0-2
  6
CONTINUOUS
 62
    3
 10
1250.0639
 20
2340.5462
 11
1249.7256
 21
2340.6605
  0
LINE
  8
0-2
  6
CONTINUOUS
 62
    3
 10
1316.6925
 20
2345.0637
 11
1323.3333
 21
2345.0637
  0
LINE
  8
0-2
  6
CONTINUOUS
 62
    3
 10
1381.7395
 20
2270.5024
 11
1316.6925
 21
2345.0637
  0
LINE
  8
0-2
  6
CONTINUOUS
 62
    3
 10
1312.4014
 20
2345.0637
 11
1376.4017
 21
2270.5024
  0
LINE
  8
0-2
  6
CONTINUOUS
 62
    3
 10
1363.3829
 20
2270.5024
 11
1301.9352
 21
2345.0637
  0
LINE
  8
0-2
  6
CONTINUOUS
 62
    3
 10
1301.9352
 20
2345.0637
 11
1312.4014
 21
2345.0637
  0
LINE
  8
0-2
  6
CONTINUOUS
 62
    3
 10
1295.7853
 20
2345.0637
 11
1355.7326
 21
2270.5024
  0
LINE
  8
0-2
  6
CONTINUOUS
 62
    3
 10
1281.7248
 20
2345.0637
 11
1295.7853
 21
2345.0637
  0
LINE
  8
0-2
  6
CONTINUOUS
 62
    3
 10
1338.2425
 20
2270.5024
 11
1281.7248
 21
2345.0637
  0
LINE
  8
0-2
  6
CONTINUOUS
 62
    3
 10
1256.4978
 20
2345.0637
 11
1273.8481
 21
2345.0637
  0
LINE
  8
0-2
  6
CONTINUOUS
 62
    3
 10
1226.8008
 20
2345.0637
 11
1247.0657
 21
2345.0637
  0
LINE
  8
0-2
  6
CONTINUOUS
 62
    3
 10
1016.0209
 20
2166.1165
 11
1016.0209
 21
1957.3444
  0
LINE
  8
0-2
  6
CONTINUOUS
 62
    3
 10
982.36893
 20
2166.1165
 11
982.36893
 21
1957.3444
  0
LINE
  8
0-2
  6
CONTINUOUS
 62
    3
 10
917.33654
 20
2166.1165
 11
917.33654
 21
1957.3444
  0
LINE
  8
0-2
  6
CONTINUOUS
 62
    3
 10
886.58249
 20
2166.1165
 11
886.58249
 21
1957.3444
  0
LINE
  8
0-2
  6
CONTINUOUS
 62
    3
 10
830.07713
 20
2166.1165
 11
830.07713
 21
1957.3444
  0
LINE
  8
0-2
  6
CONTINUOUS
 62
    3
 10
804.86969
 20
2166.1165
 11
804.86969
 21
1957.3444
  0
LINE
  8
0-2
  6
CONTINUOUS
 62
    3
 10
761.75726
 20
2166.1165
 11
761.75726
 21
1957.3444
  0
LINE
  8
0-2
  6
CONTINUOUS
 62
    3
 10
982.36893
 20
1957.3444
 11
917.33654
 21
1975.4192
  0
LINE
  8
0-2
  6
CONTINUOUS
 62
    3
 10
804.86969
 20
1957.3444
 11
761.75726
 21
1975.4192
  0
LINE
  8
0-2
  6
CONTINUOUS
 62
    3
 10
841.48361
 20
2166.1165
 11
841.48361
 21
1957.3444
  0
LINE
  8
0-2
  6
CONTINUOUS
 62
    3
 10
854.81691
 20
2166.1165
 11
854.81691
 21
1957.3444
  0
LINE
  8
0-2
  6
CONTINUOUS
 62
    3
 10
886.58249
 20
1957.3444
 11
854.81691
 21
1967.5053
  0
LINE
  8
0-2
  6
CONTINUOUS
 62
    3
 10
841.48361
 20
1971.7707
 11
830.07713
 21
1975.4192
  0
LINE
  8
0-2
  6
CONTINUOUS
 62
    3
 10
710.00002
 20
1867.8707
 11
710.00002
 21
1942.433
  0
LINE
  8
0-2
  6
CONTINUOUS
 62
    3
 10
1338.2425
 20
2166.1165
 11
1338.2425
 21
1957.3444
  0
LINE
  8
0-2
  6
CONTINUOUS
 62
    3
 10
1390
 20
1852.9582
 11
1323.3333
 21
1778.3968
  0
LINE
  8
0-2
  6
CONTINUOUS
 62
    3
 10
710.00002
 20
1852.9582
 11
776.6665
 21
1778.3968
  0
LINE
  8
0-2
  6
CONTINUOUS
 62
    3
 10
990.76852
 20
1784.5597
 11
991.31734
 21
1784.3954
  0
LINE
  8
0-2
  6
CONTINUOUS
 62
    3
 10
991.31734
 20
1784.3954
 11
991.83276
 21
1784.1722
  0
LINE
  8
0-2
  6
CONTINUOUS
 62
    3
 10
991.83276
 20
1784.1722
 11
992.31527
 21
1783.8936
  0
LINE
  8
0-2
  6
CONTINUOUS
 62
    3
 10
992.31527
 20
1783.8936
 11
992.76561
 21
1783.5645
  0
LINE
  8
0-2
  6
CONTINUOUS
 62
    3
 10
992.76561
 20
1783.5645
 11
993.18427
 21
1783.1884
  0
LINE
  8
0-2
  6
CONTINUOUS
 62
    3
 10
993.18427
 20
1783.1884
 11
993.57201
 21
1782.7699
  0
LINE
  8
0-2
  6
CONTINUOUS
 62
    3
 10
993.57201
 20
1782.7699
 11
993.92932
 21
1782.3132
  0
LINE
  8
0-2
  6
CONTINUOUS
 62
    3
 10
993.92932
 20
1782.3132
 11
994.25693
 21
1781.8225
  0
LINE
  8
0-2
  6
CONTINUOUS
 62
    3
 10
994.25693
 20
1781.8225
 11
994.55509
 21
1781.3019
  0
LINE
  8
0-2
  6
CONTINUOUS
 62
    3
 10
994.55509
 20
1781.3019
 11
994.8248
 21
1780.7558
  0
LINE
  8
0-2
  6
CONTINUOUS
 62
    3
 10
994.8248
 20
1780.7558
 11
995.06655
 21
1780.1875
  0
LINE
  8
0-2
  6
CONTINUOUS
 62
    3
 10
995.06655
 20
1780.1875
 11
995.28108
 21
1779.6023
  0
LINE
  8
0-2
  6
CONTINUOUS
 62
    3
 10
995.28108
 20
1779.6023
 11
995.46864
 21
1779.0043
  0
LINE
  8
0-2
  6
CONTINUOUS
 62
    3
 10
995.46864
 20
1779.0043
 11
995.62997
 21
1778.3968
  0
LINE
  8
0-2
  6
CONTINUOUS
 62
    3
 10
987.7547
 20
1784.5928
 11
987.12002
 21
1784.3647
  0
LINE
  8
0-2
  6
CONTINUOUS
 62
    3
 10
987.12002
 20
1784.3647
 11
986.52468
 21
1784.095
  0
LINE
  8
0-2
  6
CONTINUOUS
 62
    3
 10
986.52468
 20
1784.095
 11
985.96794
 21
1783.7867
  0
LINE
  8
0-2
  6
CONTINUOUS
 62
    3
 10
985.96794
 20
1783.7867
 11
985.4498
 21
1783.4405
  0
LINE
  8
0-2
  6
CONTINUOUS
 62
    3
 10
985.4498
 20
1783.4405
 11
984.96952
 21
1783.0597
  0
LINE
  8
0-2
  6
CONTINUOUS
 62
    3
 10
984.96952
 20
1783.0597
 11
984.5266
 21
1782.6457
  0
LINE
  8
0-2
  6
CONTINUOUS
 62
    3
 10
984.5266
 20
1782.6457
 11
984.1208
 21
1782.2006
  0
LINE
  8
0-2
  6
CONTINUOUS
 62
    3
 10
984.1208
 20
1782.2006
 11
983.75187
 21
1781.7272
  0
LINE
  8
0-2
  6
CONTINUOUS
 62
    3
 10
983.75187
 20
1781.7272
 11
983.41881
 21
1781.2269
  0
LINE
  8
0-2
  6
CONTINUOUS
 62
    3
 10
983.41881
 20
1781.2269
 11
983.12189
 21
1780.7018
  0
LINE
  8
0-2
  6
CONTINUOUS
 62
    3
 10
983.12189
 20
1780.7018
 11
982.86009
 21
1780.1541
  0
LINE
  8
0-2
  6
CONTINUOUS
 62
    3
 10
982.86009
 20
1780.1541
 11
982.63344
 21
1779.5863
  0
LINE
  8
0-2
  6
CONTINUOUS
 62
    3
 10
982.63344
 20
1779.5863
 11
982.44143
 21
1778.9998
  0
LINE
  8
0-2
  6
CONTINUOUS
 62
    3
 10
982.44143
 20
1778.9998
 11
982.28331
 21
1778.3968
  0
LINE
  8
0-2
  6
CONTINUOUS
 62
    3
 10
956.11135
 20
1778.3968
 11
955.49671
 21
1779.398
  0
LINE
  8
0-2
  6
CONTINUOUS
 62
    3
 10
955.49671
 20
1779.398
 11
954.8749
 21
1780.2882
  0
LINE
  8
0-2
  6
CONTINUOUS
 62
    3
 10
954.8749
 20
1780.2882
 11
954.24863
 21
1781.0742
  0
LINE
  8
0-2
  6
CONTINUOUS
 62
    3
 10
954.24863
 20
1781.0742
 11
953.61988
 21
1781.7619
  0
LINE
  8
0-2
  6
CONTINUOUS
 62
    3
 10
953.61988
 20
1781.7619
 11
952.99138
 21
1782.3575
  0
LINE
  8
0-2
  6
CONTINUOUS
 62
    3
 10
952.99138
 20
1782.3575
 11
952.36561
 21
1782.8672
  0
LINE
  8
0-2
  6
CONTINUOUS
 62
    3
 10
952.36561
 20
1782.8672
 11
951.74478
 21
1783.2972
  0
LINE
  8
0-2
  6
CONTINUOUS
 62
    3
 10
951.74478
 20
1783.2972
 11
951.13163
 21
1783.6538
  0
LINE
  8
0-2
  6
CONTINUOUS
 62
    3
 10
951.13163
 20
1783.6538
 11
950.52837
 21
1783.9428
  0
LINE
  8
0-2
  6
CONTINUOUS
 62
    3
 10
950.52837
 20
1783.9428
 11
949.93748
 21
1784.1704
  0
LINE
  8
0-2
  6
CONTINUOUS
 62
    3
 10
949.93748
 20
1784.1704
 11
949.36144
 21
1784.3434
  0
LINE
  8
0-2
  6
CONTINUOUS
 62
    3
 10
949.36144
 20
1784.3434
 11
948.80272
 21
1784.4671
  0
LINE
  8
0-2
  6
CONTINUOUS
 62
    3
 10
948.80272
 20
1784.4671
 11
948.2638
 21
1784.5485
  0
LINE
  8
0-2
  6
CONTINUOUS
 62
    3
 10
948.2638
 20
1784.5485
 11
947.7469
 21
1784.5928
  0
LINE
  8
0-2
  6
CONTINUOUS
 62
    3
 10
943.3489
 20
1778.3968
 11
943.36746
 21
1779.1169
  0
LINE
  8
0-2
  6
CONTINUOUS
 62
    3
 10
943.36746
 20
1779.1169
 11
943.42313
 21
1779.7825
  0
LINE
  8
0-2
  6
CONTINUOUS
 62
    3
 10
943.42313
 20
1779.7825
 11
943.51766
 21
1780.3961
  0
LINE
  8
0-2
  6
CONTINUOUS
 62
    3
 10
943.51766
 20
1780.3961
 11
943.654
 21
1780.9609
  0
LINE
  8
0-2
  6
CONTINUOUS
 62
    3
 10
943.654
 20
1780.9609
 11
943.83364
 21
1781.48
  0
LINE
  8
0-2
  6
CONTINUOUS
 62
    3
 10
943.83364
 20
1781.48
 11
944.05881
 21
1781.9569
  0
LINE
  8
0-2
  6
CONTINUOUS
 62
    3
 10
944.05881
 20
1781.9569
 11
944.33149
 21
1782.3933
  0
LINE
  8
0-2
  6
CONTINUOUS
 62
    3
 10
944.33149
 20
1782.3933
 11
944.6539
 21
1782.7937
  0
LINE
  8
0-2
  6
CONTINUOUS
 62
    3
 10
944.6539
 20
1782.7937
 11
945.02778
 21
1783.1602
  0
LINE
  8
0-2
  6
CONTINUOUS
 62
    3
 10
945.02778
 20
1783.1602
 11
945.4556
 21
1783.4959
  0
LINE
  8
0-2
  6
CONTINUOUS
 62
    3
 10
945.4556
 20
1783.4959
 11
945.9396
 21
1783.8042
  0
LINE
  8
0-2
  6
CONTINUOUS
 62
    3
 10
945.9396
 20
1783.8042
 11
946.48124
 21
1784.0878
  0
LINE
  8
0-2
  6
CONTINUOUS
 62
    3
 10
946.48124
 20
1784.0878
 11
947.08326
 21
1784.3501
  0
LINE
  8
0-2
  6
CONTINUOUS
 62
    3
 10
947.08326
 20
1784.3501
 11
947.7469
 21
1784.5928
  0
LINE
  8
0-2
  6
CONTINUOUS
 62
    3
 10
906.72335
 20
1778.3968
 11
907.03686
 21
1779.2426
  0
LINE
  8
0-2
  6
CONTINUOUS
 62
    3
 10
907.03686
 20
1779.2426
 11
907.36323
 21
1780.0099
  0
LINE
  8
0-2
  6
CONTINUOUS
 62
    3
 10
907.36323
 20
1780.0099
 11
907.70247
 21
1780.7018
  0
LINE
  8
0-2
  6
CONTINUOUS
 62
    3
 10
907.70247
 20
1780.7018
 11
908.05408
 21
1781.3232
  0
LINE
  8
0-2
  6
CONTINUOUS
 62
    3
 10
908.05408
 20
1781.3232
 11
908.41757
 21
1781.8772
  0
LINE
  8
0-2
  6
CONTINUOUS
 62
    3
 10
908.41757
 20
1781.8772
 11
908.79294
 21
1782.3679
  0
LINE
  8
0-2
  6
CONTINUOUS
 62
    3
 10
908.79294
 20
1782.3679
 11
909.17944
 21
1782.7989
  0
LINE
  8
0-2
  6
CONTINUOUS
 62
    3
 10
909.17944
 20
1782.7989
 11
909.57732
 21
1783.1738
  0
LINE
  8
0-2
  6
CONTINUOUS
 62
    3
 10
909.57732
 20
1783.1738
 11
909.9856
 21
1783.4967
  0
LINE
  8
0-2
  6
CONTINUOUS
 62
    3
 10
909.9856
 20
1783.4967
 11
910.40451
 21
1783.7711
  0
LINE
  8
0-2
  6
CONTINUOUS
 62
    3
 10
910.40451
 20
1783.7711
 11
910.83358
 21
1784.0007
  0
LINE
  8
0-2
  6
CONTINUOUS
 62
    3
 10
910.83358
 20
1784.0007
 11
911.27229
 21
1784.19
  0
LINE
  8
0-2
  6
CONTINUOUS
 62
    3
 10
911.27229
 20
1784.19
 11
911.7204
 21
1784.3417
  0
LINE
  8
0-2
  6
CONTINUOUS
 62
    3
 10
911.7204
 20
1784.3417
 11
912.17767
 21
1784.4604
  0
LINE
  8
0-2
  6
CONTINUOUS
 62
    3
 10
913.18326
 20
1784.4604
 11
913.66033
 21
1784.3592
  0
LINE
  8
0-2
  6
CONTINUOUS
 62
    3
 10
913.66033
 20
1784.3592
 11
914.13343
 21
1784.1979
  0
LINE
  8
0-2
  6
CONTINUOUS
 62
    3
 10
914.13343
 20
1784.1979
 11
914.60258
 21
1783.977
  0
LINE
  8
0-2
  6
CONTINUOUS
 62
    3
 10
914.60258
 20
1783.977
 11
915.06801
 21
1783.6961
  0
LINE
  8
0-2
  6
CONTINUOUS
 62
    3
 10
915.06801
 20
1783.6961
 11
915.52924
 21
1783.3561
  0
LINE
  8
0-2
  6
CONTINUOUS
 62
    3
 10
915.52924
 20
1783.3561
 11
915.987
 21
1782.9558
  0
LINE
  8
0-2
  6
CONTINUOUS
 62
    3
 10
915.987
 20
1782.9558
 11
916.44056
 21
1782.495
  0
LINE
  8
0-2
  6
CONTINUOUS
 62
    3
 10
916.44056
 20
1782.495
 11
916.89066
 21
1781.9752
  0
LINE
  8
0-2
  6
CONTINUOUS
 62
    3
 10
916.89066
 20
1781.9752
 11
917.33654
 21
1781.3957
  0
LINE
  8
0-2
  6
CONTINUOUS
 62
    3
 10
873.19921
 20
1778.3968
 11
873.29002
 21
1779.0416
  0
LINE
  8
0-2
  6
CONTINUOUS
 62
    3
 10
873.29002
 20
1779.0416
 11
873.41869
 21
1779.6414
  0
LINE
  8
0-2
  6
CONTINUOUS
 62
    3
 10
873.41869
 20
1779.6414
 11
873.5825
 21
1780.1992
  0
LINE
  8
0-2
  6
CONTINUOUS
 62
    3
 10
873.5825
 20
1780.1992
 11
873.77822
 21
1780.7154
  0
LINE
  8
0-2
  6
CONTINUOUS
 62
    3
 10
873.77822
 20
1780.7154
 11
874.00315
 21
1781.1925
  0
LINE
  8
0-2
  6
CONTINUOUS
 62
    3
 10
874.00315
 20
1781.1925
 11
874.25479
 21
1781.6325
  0
LINE
  8
0-2
  6
CONTINUOUS
 62
    3
 10
874.25479
 20
1781.6325
 11
874.53019
 21
1782.0365
  0
LINE
  8
0-2
  6
CONTINUOUS
 62
    3
 10
874.53019
 20
1782.0365
 11
874.82737
 21
1782.4052
  0
LINE
  8
0-2
  6
CONTINUOUS
 62
    3
 10
874.82737
 20
1782.4052
 11
875.14384
 21
1782.741
  0
LINE
  8
0-2
  6
CONTINUOUS
 62
    3
 10
875.14384
 20
1782.741
 11
875.47764
 21
1783.0441
  0
LINE
  8
0-2
  6
CONTINUOUS
 62
    3
 10
875.47764
 20
1783.0441
 11
875.82702
 21
1783.316
  0
LINE
  8
0-2
  6
CONTINUOUS
 62
    3
 10
875.82702
 20
1783.316
 11
876.18977
 21
1783.5583
  0
LINE
  8
0-2
  6
CONTINUOUS
 62
    3
 10
876.18977
 20
1783.5583
 11
876.56464
 21
1783.7708
  0
LINE
  8
0-2
  6
CONTINUOUS
 62
    3
 10
876.56464
 20
1783.7708
 11
876.94991
 21
1783.9544
  0
LINE
  8
0-2
  6
CONTINUOUS
 62
    3
 10
876.94991
 20
1783.9544
 11
877.34457
 21
1784.1098
  0
LINE
  8
0-2
  6
CONTINUOUS
 62
    3
 10
877.34457
 20
1784.1098
 11
877.74716
 21
1784.2382
  0
LINE
  8
0-2
  6
CONTINUOUS
 62
    3
 10
877.74716
 20
1784.2382
 11
878.15642
 21
1784.339
  0
LINE
  8
0-2
  6
CONTINUOUS
 62
    3
 10
878.15642
 20
1784.339
 11
878.57212
 21
1784.4132
  0
LINE
  8
0-2
  6
CONTINUOUS
 62
    3
 10
878.57212
 20
1784.4132
 11
878.99302
 21
1784.4604
  0
LINE
  8
0-2
  6
CONTINUOUS
 62
    3
 10
879.09917
 20
1784.4553
 11
879.33622
 21
1784.4285
  0
LINE
  8
0-2
  6
CONTINUOUS
 62
    3
 10
879.33622
 20
1784.4285
 11
879.5693
 21
1784.3909
  0
LINE
  8
0-2
  6
CONTINUOUS
 62
    3
 10
879.5693
 20
1784.3909
 11
879.79794
 21
1784.3419
  0
LINE
  8
0-2
  6
CONTINUOUS
 62
    3
 10
879.79794
 20
1784.3419
 11
880.02286
 21
1784.2815
  0
LINE
  8
0-2
  6
CONTINUOUS
 62
    3
 10
880.02286
 20
1784.2815
 11
880.24358
 21
1784.2095
  0
LINE
  8
0-2
  6
CONTINUOUS
 62
    3
 10
880.24358
 20
1784.2095
 11
880.46009
 21
1784.1262
  0
LINE
  8
0-2
  6
CONTINUOUS
 62
    3
 10
880.46009
 20
1784.1262
 11
880.67264
 21
1784.0311
  0
LINE
  8
0-2
  6
CONTINUOUS
 62
    3
 10
880.67264
 20
1784.0311
 11
880.88098
 21
1783.925
  0
LINE
  8
0-2
  6
CONTINUOUS
 62
    3
 10
880.88098
 20
1783.925
 11
881.08537
 21
1783.8072
  0
LINE
  8
0-2
  6
CONTINUOUS
 62
    3
 10
783.30779
 20
1778.3968
 11
783.38895
 21
1779.075
  0
LINE
  8
0-2
  6
CONTINUOUS
 62
    3
 10
783.38895
 20
1779.075
 11
783.47456
 21
1779.6946
  0
LINE
  8
0-2
  6
CONTINUOUS
 62
    3
 10
783.47456
 20
1779.6946
 11
783.56537
 21
1780.2558
  0
LINE
  8
0-2
  6
CONTINUOUS
 62
    3
 10
783.56537
 20
1780.2558
 11
783.66063
 21
1780.7583
  0
LINE
  8
0-2
  6
CONTINUOUS
 62
    3
 10
783.66063
 20
1780.7583
 11
783.7606
 21
1781.2027
  0
LINE
  8
0-2
  6
CONTINUOUS
 62
    3
 10
783.7606
 20
1781.2027
 11
783.86527
 21
1781.5882
  0
LINE
  8
0-2
  6
CONTINUOUS
 62
    3
 10
783.86527
 20
1781.5882
 11
783.97464
 21
1781.915
  0
LINE
  8
0-2
  6
CONTINUOUS
 62
    3
 10
783.97464
 20
1781.915
 11
784.08871
 21
1782.1838
  0
LINE
  8
0-2
  6
CONTINUOUS
 62
    3
 10
784.08871
 20
1782.1838
 11
784.20748
 21
1782.3933
  0
LINE
  8
0-2
  6
CONTINUOUS
 62
    3
 10
798.06485
 20
1778.3968
 11
798.10964
 21
1778.9343
  0
LINE
  8
0-2
  6
CONTINUOUS
 62
    3
 10
798.10964
 20
1778.9343
 11
798.18387
 21
1779.442
  0
LINE
  8
0-2
  6
CONTINUOUS
 62
    3
 10
798.18387
 20
1779.442
 11
798.28408
 21
1779.9201
  0
LINE
  8
0-2
  6
CONTINUOUS
 62
    3
 10
798.28408
 20
1779.9201
 11
798.40755
 21
1780.3696
  0
LINE
  8
0-2
  6
CONTINUOUS
 62
    3
 10
798.40755
 20
1780.3696
 11
798.55156
 21
1780.7889
  0
LINE
  8
0-2
  6
CONTINUOUS
 62
    3
 10
798.55156
 20
1780.7889
 11
798.71339
 21
1781.1782
  0
LINE
  8
0-2
  6
CONTINUOUS
 62
    3
 10
798.71339
 20
1781.1782
 11
798.88957
 21
1781.5379
  0
LINE
  8
0-2
  6
CONTINUOUS
 62
    3
 10
798.88957
 20
1781.5379
 11
799.07762
 21
1781.8675
  0
LINE
  8
0-2
  6
CONTINUOUS
 62
    3
 10
799.07762
 20
1781.8675
 11
799.27458
 21
1782.1674
  0
LINE
  8
0-2
  6
CONTINUOUS
 62
    3
 10
799.27458
 20
1782.1674
 11
799.47773
 21
1782.4364
  0
LINE
  8
0-2
  6
CONTINUOUS
 62
    3
 10
799.47773
 20
1782.4364
 11
799.68385
 21
1782.6752
  0
LINE
  8
0-2
  6
CONTINUOUS
 62
    3
 10
799.68385
 20
1782.6752
 11
799.89021
 21
1782.8833
  0
LINE
  8
0-2
  6
CONTINUOUS
 62
    3
 10
799.89021
 20
1782.8833
 11
800.0941
 21
1783.0604
  0
LINE
  8
0-2
  6
CONTINUOUS
 62
    3
 10
800.0941
 20
1783.0604
 11
800.29255
 21
1783.2067
  0
LINE
  8
0-2
  6
CONTINUOUS
 62
    3
 10
818.27549
 20
1778.3968
 11
818.4096
 21
1778.9946
  0
LINE
  8
0-2
  6
CONTINUOUS
 62
    3
 10
818.4096
 20
1778.9946
 11
818.57266
 21
1779.5541
  0
LINE
  8
0-2
  6
CONTINUOUS
 62
    3
 10
818.57266
 20
1779.5541
 11
818.76393
 21
1780.0762
  0
LINE
  8
0-2
  6
CONTINUOUS
 62
    3
 10
818.76393
 20
1780.0762
 11
818.98168
 21
1780.5605
  0
LINE
  8
0-2
  6
CONTINUOUS
 62
    3
 10
818.98168
 20
1780.5605
 11
819.22516
 21
1781.0082
  0
LINE
  8
0-2
  6
CONTINUOUS
 62
    3
 10
819.22516
 20
1781.0082
 11
819.49314
 21
1781.4184
  0
LINE
  8
0-2
  6
CONTINUOUS
 62
    3
 10
819.49314
 20
1781.4184
 11
819.78413
 21
1781.7923
  0
LINE
  8
0-2
  6
CONTINUOUS
 62
    3
 10
819.78413
 20
1781.7923
 11
820.09739
 21
1782.1298
  0
LINE
  8
0-2
  6
CONTINUOUS
 62
    3
 10
820.09739
 20
1782.1298
 11
820.43168
 21
1782.4312
  0
LINE
  8
0-2
  6
CONTINUOUS
 62
    3
 10
820.43168
 20
1782.4312
 11
820.78552
 21
1782.6974
  0
LINE
  8
0-2
  6
CONTINUOUS
 62
    3
 10
820.78552
 20
1782.6974
 11
821.15816
 21
1782.9276
  0
LINE
  8
0-2
  6
CONTINUOUS
 62
    3
 10
821.15816
 20
1782.9276
 11
821.54813
 21
1783.123
  0
LINE
  8
0-2
  6
CONTINUOUS
 62
    3
 10
821.54813
 20
1783.123
 11
821.95418
 21
1783.2836
  0
LINE
  8
0-2
  6
CONTINUOUS
 62
    3
 10
821.95418
 20
1783.2836
 11
822.37557
 21
1783.4098
  0
LINE
  8
0-2
  6
CONTINUOUS
 62
    3
 10
843.49109
 20
1778.3968
 11
843.69375
 21
1779.0236
  0
LINE
  8
0-2
  6
CONTINUOUS
 62
    3
 10
843.69375
 20
1779.0236
 11
843.93104
 21
1779.6038
  0
LINE
  8
0-2
  6
CONTINUOUS
 62
    3
 10
843.93104
 20
1779.6038
 11
844.20025
 21
1780.1385
  0
LINE
  8
0-2
  6
CONTINUOUS
 62
    3
 10
844.20025
 20
1780.1385
 11
844.49867
 21
1780.6274
  0
LINE
  8
0-2
  6
CONTINUOUS
 62
    3
 10
844.49867
 20
1780.6274
 11
844.82281
 21
1781.07
  0
LINE
  8
0-2
  6
CONTINUOUS
 62
    3
 10
844.82281
 20
1781.07
 11
845.17022
 21
1781.4667
  0
LINE
  8
0-2
  6
CONTINUOUS
 62
    3
 10
845.17022
 20
1781.4667
 11
845.53742
 21
1781.8178
  0
LINE
  8
0-2
  6
CONTINUOUS
 62
    3
 10
845.53742
 20
1781.8178
 11
845.92145
 21
1782.1239
  0
LINE
  8
0-2
  6
CONTINUOUS
 62
    3
 10
845.92145
 20
1782.1239
 11
846.31933
 21
1782.3852
  0
LINE
  8
0-2
  6
CONTINUOUS
 62
    3
 10
846.31933
 20
1782.3852
 11
846.72711
 21
1782.6024
  0
LINE
  8
0-2
  6
CONTINUOUS
 62
    3
 10
846.72711
 20
1782.6024
 11
847.14207
 21
1782.7774
  0
LINE
  8
0-2
  6
CONTINUOUS
 62
    3
 10
847.14207
 20
1782.7774
 11
847.56024
 21
1782.9107
  0
LINE
  8
0-2
  6
CONTINUOUS
 62
    3
 10
847.56024
 20
1782.9107
 11
847.97817
 21
1783.0028
  0
LINE
  8
0-2
  6
CONTINUOUS
 62
    3
 10
847.97817
 20
1783.0028
 11
848.39263
 21
1783.0565
  0
LINE
  8
0-2
  6
CONTINUOUS
 62
    3
 10
848.39263
 20
1783.0565
 11
848.79917
 21
1783.0723
  0
LINE
  8
0-2
  6
CONTINUOUS
 62
    3
 10
848.79917
 20
1783.0723
 11
849.19458
 21
1783.0528
  0
LINE
  8
0-2
  6
CONTINUOUS
 62
    3
 10
849.19458
 20
1783.0528
 11
849.57514
 21
1782.9996
  0
LINE
  8
0-2
  6
CONTINUOUS
 62
    3
 10
849.57514
 20
1782.9996
 11
849.9364
 21
1782.9142
  0
LINE
  8
0-2
  6
CONTINUOUS
 62
    3
 10
849.9364
 20
1782.9142
 11
850.27441
 21
1782.7999
  0
LINE
  8
0-2
  6
CONTINUOUS
 62
    3
 10
783.30779
 20
1778.3968
 11
776.6665
 21
1778.3968
  0
LINE
  8
0-2
  6
CONTINUOUS
 62
    3
 10
718.2608
 20
1852.9582
 11
783.30779
 21
1778.3968
  0
LINE
  8
0-2
  6
CONTINUOUS
 62
    3
 10
787.59864
 20
1778.3968
 11
723.59808
 21
1852.9582
  0
LINE
  8
0-2
  6
CONTINUOUS
 62
    3
 10
736.61713
 20
1852.9582
 11
798.06485
 21
1778.3968
  0
LINE
  8
0-2
  6
CONTINUOUS
 62
    3
 10
798.06485
 20
1778.3968
 11
787.59864
 21
1778.3968
  0
LINE
  8
0-2
  6
CONTINUOUS
 62
    3
 10
804.21497
 20
1778.3968
 11
744.26722
 21
1852.9582
  0
LINE
  8
0-2
  6
CONTINUOUS
 62
    3
 10
818.27549
 20
1778.3968
 11
804.21497
 21
1778.3968
  0
LINE
  8
0-2
  6
CONTINUOUS
 62
    3
 10
761.75726
 20
1852.9582
 11
818.27549
 21
1778.3968
  0
LINE
  8
0-2
  6
CONTINUOUS
 62
    3
 10
826.15199
 20
1778.3968
 11
771.55489
 21
1852.9582
  0
LINE
  8
0-2
  6
CONTINUOUS
 62
    3
 10
843.50223
 20
1778.3968
 11
826.15199
 21
1778.3968
  0
LINE
  8
0-2
  6
CONTINUOUS
 62
    3
 10
793.13709
 20
1852.9582
 11
843.50223
 21
1778.3968
  0
LINE
  8
0-2
  6
CONTINUOUS
 62
    3
 10
852.93463
 20
1778.3968
 11
804.86969
 21
1852.9582
  0
LINE
  8
0-2
  6
CONTINUOUS
 62
    3
 10
873.19921
 20
1778.3968
 11
852.93463
 21
1778.3968
  0
LINE
  8
0-2
  6
CONTINUOUS
 62
    3
 10
830.07713
 20
1852.9582
 11
873.19921
 21
1778.3968
  0
LINE
  8
0-2
  6
CONTINUOUS
 62
    3
 10
883.98314
 20
1778.3968
 11
843.49109
 21
1852.9582
  0
LINE
  8
0-2
  6
CONTINUOUS
 62
    3
 10
906.72335
 20
1778.3968
 11
883.98314
 21
1778.3968
  0
LINE
  8
0-2
  6
CONTINUOUS
 62
    3
 10
918.62521
 20
1778.3968
 11
886.58249
 21
1852.9582
  0
LINE
  8
0-2
  6
CONTINUOUS
 62
    3
 10
943.3489
 20
1778.3968
 11
918.62521
 21
1778.3968
  0
LINE
  8
0-2
  6
CONTINUOUS
 62
    3
 10
917.33654
 20
1852.9582
 11
943.3489
 21
1778.3968
  0
LINE
  8
0-2
  6
CONTINUOUS
 62
    3
 10
933.21154
 20
1852.9582
 11
956.11135
 21
1778.3968
  0
LINE
  8
0-2
  6
CONTINUOUS
 62
    3
 10
982.28331
 20
1778.3968
 11
956.11135
 21
1778.3968
  0
LINE
  8
0-2
  6
CONTINUOUS
 62
    3
 10
982.28331
 20
1778.3968
 11
965.76695
 21
1852.9582
  0
LINE
  8
0-2
  6
CONTINUOUS
 62
    3
 10
982.36868
 20
1852.9582
 11
995.62997
 21
1778.3968
  0
LINE
  8
0-2
  6
CONTINUOUS
 62
    3
 10
1022.6835
 20
1778.3968
 11
995.62997
 21
1778.3968
  0
LINE
  8
0-2
  6
CONTINUOUS
 62
    3
 10
1022.6835
 20
1778.3968
 11
1016.0209
 21
1852.9582
  0
LINE
  8
0-2
  6
CONTINUOUS
 62
    3
 10
1036.3254
 20
1778.3968
 11
1032.9899
 21
1852.9582
  0
LINE
  8
0-2
  6
CONTINUOUS
 62
    3
 10
1050.0001
 20
1778.3968
 11
1036.3254
 21
1778.3968
  0
LINE
  8
0-2
  6
CONTINUOUS
 62
    3
 10
1390
 20
1852.9582
 11
1323.3333
 21
1778.3968
  0
LINE
  8
0-2
  6
CONTINUOUS
 62
    3
 10
1381.7395
 20
1852.9582
 11
1316.6925
 21
1778.3968
  0
LINE
  8
0-2
  6
CONTINUOUS
 62
    3
 10
1312.4014
 20
1778.3968
 11
1376.4017
 21
1852.9582
  0
LINE
  8
0-2
  6
CONTINUOUS
 62
    3
 10
1363.3829
 20
1852.9582
 11
1301.9352
 21
1778.3968
  0
LINE
  8
0-2
  6
CONTINUOUS
 62
    3
 10
1295.7853
 20
1778.3968
 11
1355.7326
 21
1852.9582
  0
LINE
  8
0-2
  6
CONTINUOUS
 62
    3
 10
1338.2425
 20
1852.9582
 11
1281.7248
 21
1778.3968
  0
LINE
  8
0-2
  6
CONTINUOUS
 62
    3
 10
871.77792
 20
1852.9582
 11
906.7236
 21
1778.3968
  0
LINE
  8
0-2
  6
CONTINUOUS
 62
    3
 10
912.62356
 20
1778.3968
 11
912.62356
 21
1666.5551
  0
LINE
  8
0-2
  6
CONTINUOUS
 62
    3
 10
885.95672
 20
1778.3968
 11
885.95672
 21
1666.5551
  0
LINE
  8
0-8
  6
CONTINUOUS
 62
    7
 10
580.00033
 20
1606.9055
 11
580.00033
 21
2456.9063
  0
LINE
  8
0-8
  6
CONTINUOUS
 62
    7
 10
718.63196
 20
1606.906
 11
580.00033
 21
1606.906
  0
LINE
  8
0-2
  6
CONTINUOUS
 62
    3
 10
912.17767
 20
2339.0002
 11
912.29966
 21
2338.9906
  0
LINE
  8
0-2
  6
CONTINUOUS
 62
    3
 10
912.29966
 20
2338.9906
 11
912.41917
 21
2338.9836
  0
LINE
  8
0-2
  6
CONTINUOUS
 62
    3
 10
912.41917
 20
2338.9836
 11
912.53596
 21
2338.9787
  0
LINE
  8
0-2
  6
CONTINUOUS
 62
    3
 10
912.53596
 20
2338.9787
 11
912.65003
 21
2338.9762
  0
LINE
  8
0-2
  6
CONTINUOUS
 62
    3
 10
912.65003
 20
2338.9762
 11
912.76187
 21
2338.9762
  0
LINE
  8
0-2
  6
CONTINUOUS
 62
    3
 10
912.76187
 20
2338.9762
 11
912.87099
 21
2338.9787
  0
LINE
  8
0-2
  6
CONTINUOUS
 62
    3
 10
912.87099
 20
2338.9787
 11
912.97764
 21
2338.9836
  0
LINE
  8
0-2
  6
CONTINUOUS
 62
    3
 10
912.97764
 20
2338.9836
 11
913.08181
 21
2338.9906
  0
LINE
  8
0-2
  6
CONTINUOUS
 62
    3
 10
913.08181
 20
2338.9906
 11
913.18326
 21
2339.0002
  0
LINE
  8
0-2
  6
CONTINUOUS
 62
    3
 10
987.7547
 20
2338.8681
 11
988.08108
 21
2338.8456
  0
LINE
  8
0-2
  6
CONTINUOUS
 62
    3
 10
988.08108
 20
2338.8456
 11
988.40968
 21
2338.8297
  0
LINE
  8
0-2
  6
CONTINUOUS
 62
    3
 10
988.40968
 20
2338.8297
 11
988.7405
 21
2338.8206
  0
LINE
  8
0-2
  6
CONTINUOUS
 62
    3
 10
988.7405
 20
2338.8206
 11
989.07331
 21
2338.8179
  0
LINE
  8
0-2
  6
CONTINUOUS
 62
    3
 10
989.07331
 20
2338.8179
 11
989.40834
 21
2338.8216
  0
LINE
  8
0-2
  6
CONTINUOUS
 62
    3
 10
989.40834
 20
2338.8216
 11
989.74511
 21
2338.8312
  0
LINE
  8
0-2
  6
CONTINUOUS
 62
    3
 10
989.74511
 20
2338.8312
 11
990.0841
 21
2338.8483
  0
LINE
  8
0-2
  6
CONTINUOUS
 62
    3
 10
990.0841
 20
2338.8483
 11
990.42532
 21
2338.8711
  0
LINE
  8
0-2
  6
CONTINUOUS
 62
    3
 10
990.42532
 20
2338.8711
 11
990.76852
 21
2338.901
  0
LINE
  8
0-2
  6
CONTINUOUS
 62
    3
 10
987.7547
 20
1784.5928
 11
988.08108
 21
1784.6153
  0
LINE
  8
0-2
  6
CONTINUOUS
 62
    3
 10
988.08108
 20
1784.6153
 11
988.40968
 21
1784.6309
  0
LINE
  8
0-2
  6
CONTINUOUS
 62
    3
 10
988.40968
 20
1784.6309
 11
988.7405
 21
1784.6403
  0
LINE
  8
0-2
  6
CONTINUOUS
 62
    3
 10
988.7405
 20
1784.6403
 11
989.07331
 21
1784.6431
  0
LINE
  8
0-2
  6
CONTINUOUS
 62
    3
 10
989.07331
 20
1784.6431
 11
989.40834
 21
1784.6393
  0
LINE
  8
0-2
  6
CONTINUOUS
 62
    3
 10
989.40834
 20
1784.6393
 11
989.74511
 21
1784.6295
  0
LINE
  8
0-2
  6
CONTINUOUS
 62
    3
 10
989.74511
 20
1784.6295
 11
990.0841
 21
1784.6129
  0
LINE
  8
0-2
  6
CONTINUOUS
 62
    3
 10
990.0841
 20
1784.6129
 11
990.42532
 21
1784.5896
  0
LINE
  8
0-2
  6
CONTINUOUS
 62
    3
 10
990.42532
 20
1784.5896
 11
990.76852
 21
1784.5599
  0
LINE
  8
0-2
  6
CONTINUOUS
 62
    3
 10
912.17767
 20
1784.4604
 11
912.29966
 21
1784.4701
  0
LINE
  8
0-2
  6
CONTINUOUS
 62
    3
 10
912.29966
 20
1784.4701
 11
912.41917
 21
1784.4773
  0
LINE
  8
0-2
  6
CONTINUOUS
 62
    3
 10
912.41917
 20
1784.4773
 11
912.53596
 21
1784.4822
  0
LINE
  8
0-2
  6
CONTINUOUS
 62
    3
 10
912.53596
 20
1784.4822
 11
912.65003
 21
1784.4847
  0
LINE
  8
0-2
  6
CONTINUOUS
 62
    3
 10
912.65003
 20
1784.4847
 11
912.76187
 21
1784.4847
  0
LINE
  8
0-2
  6
CONTINUOUS
 62
    3
 10
912.76187
 20
1784.4847
 11
912.87099
 21
1784.4822
  0
LINE
  8
0-2
  6
CONTINUOUS
 62
    3
 10
912.87099
 20
1784.4822
 11
912.97764
 21
1784.4773
  0
LINE
  8
0-2
  6
CONTINUOUS
 62
    3
 10
912.97764
 20
1784.4773
 11
913.08181
 21
1784.4701
  0
LINE
  8
0-2
  6
CONTINUOUS
 62
    3
 10
913.08181
 20
1784.4701
 11
913.18326
 21
1784.4604
  0
LINE
  8
0-8
  6
CONTINUOUS
 62
    7
 10
840.00021
 20
1506.3882
 11
1260.0001
 21
1506.3881
  0
LINE
  8
0-8
  6
CONTINUOUS
 62
    7
 10
840.00021
 20
1506.3882
 11
840.00021
 21
1590.8587
  0
LINE
  8
0-8
  6
CONTINUOUS
 62
    7
 10
1260.0001
 20
1590.8587
 11
1260.0001
 21
1506.3881
  0
LINE
  8
0-2
  6
CONTINUOUS
 62
    3
 10
840.00021
 20
1606.906
 11
1260.0001
 21
1606.9059
  0
LINE
  8
0-8
  6
CONTINUOUS
 62
    7
 10
949.13355
 20
2456.9063
 11
580.00033
 21
2456.9063
  0
LINE
  8
0-2
  6
CONTINUOUS
 62
    3
 10
1316.6925
 20
1778.3972
 11
1316.6114
 21
1779.0749
  0
LINE
  8
0-2
  6
CONTINUOUS
 62
    3
 10
1316.6114
 20
1779.0749
 11
1316.5252
 21
1779.695
  0
LINE
  8
0-2
  6
CONTINUOUS
 62
    3
 10
1316.5252
 20
1779.695
 11
1316.4352
 21
1780.2557
  0
LINE
  8
0-2
  6
CONTINUOUS
 62
    3
 10
1316.4352
 20
1780.2557
 11
1316.3397
 21
1780.7587
  0
LINE
  8
0-2
  6
CONTINUOUS
 62
    3
 10
1316.3397
 20
1780.7587
 11
1316.2397
 21
1781.2024
  0
LINE
  8
0-2
  6
CONTINUOUS
 62
    3
 10
1316.2397
 20
1781.2024
 11
1316.1348
 21
1781.5882
  0
LINE
  8
0-2
  6
CONTINUOUS
 62
    3
 10
1316.1348
 20
1781.5882
 11
1316.0254
 21
1781.9155
  0
LINE
  8
0-2
  6
CONTINUOUS
 62
    3
 10
1316.0254
 20
1781.9155
 11
1315.9116
 21
1782.1838
  0
LINE
  8
0-2
  6
CONTINUOUS
 62
    3
 10
1315.9116
 20
1782.1838
 11
1315.7928
 21
1782.3936
  0
LINE
  8
0-2
  6
CONTINUOUS
 62
    3
 10
1301.9352
 20
1778.3972
 11
1301.8907
 21
1778.9339
  0
LINE
  8
0-2
  6
CONTINUOUS
 62
    3
 10
1301.8907
 20
1778.9339
 11
1301.8164
 21
1779.4416
  0
LINE
  8
0-2
  6
CONTINUOUS
 62
    3
 10
1301.8164
 20
1779.4416
 11
1301.716
 21
1779.9202
  0
LINE
  8
0-2
  6
CONTINUOUS
 62
    3
 10
1301.716
 20
1779.9202
 11
1301.5927
 21
1780.3695
  0
LINE
  8
0-2
  6
CONTINUOUS
 62
    3
 10
1301.5927
 20
1780.3695
 11
1301.4482
 21
1780.7889
  0
LINE
  8
0-2
  6
CONTINUOUS
 62
    3
 10
1301.4482
 20
1780.7889
 11
1301.2869
 21
1781.1782
  0
LINE
  8
0-2
  6
CONTINUOUS
 62
    3
 10
1301.2869
 20
1781.1782
 11
1301.1107
 21
1781.5384
  0
LINE
  8
0-2
  6
CONTINUOUS
 62
    3
 10
1301.1107
 20
1781.5384
 11
1300.9227
 21
1781.8678
  0
LINE
  8
0-2
  6
CONTINUOUS
 62
    3
 10
1300.9227
 20
1781.8678
 11
1300.7257
 21
1782.1679
  0
LINE
  8
0-2
  6
CONTINUOUS
 62
    3
 10
1300.7257
 20
1782.1679
 11
1300.5228
 21
1782.4369
  0
LINE
  8
0-2
  6
CONTINUOUS
 62
    3
 10
1300.5228
 20
1782.4369
 11
1300.3165
 21
1782.6752
  0
LINE
  8
0-2
  6
CONTINUOUS
 62
    3
 10
1300.3165
 20
1782.6752
 11
1300.1101
 21
1782.8833
  0
LINE
  8
0-2
  6
CONTINUOUS
 62
    3
 10
1300.1101
 20
1782.8833
 11
1299.9062
 21
1783.0604
  0
LINE
  8
0-2
  6
CONTINUOUS
 62
    3
 10
1299.9062
 20
1783.0604
 11
1299.7077
 21
1783.2067
  0
LINE
  8
0-2
  6
CONTINUOUS
 62
    3
 10
1281.7248
 20
1778.3972
 11
1281.5907
 21
1778.9948
  0
LINE
  8
0-2
  6
CONTINUOUS
 62
    3
 10
1281.5907
 20
1778.9948
 11
1281.4274
 21
1779.5542
  0
LINE
  8
0-2
  6
CONTINUOUS
 62
    3
 10
1281.4274
 20
1779.5542
 11
1281.2364
 21
1780.0763
  0
LINE
  8
0-2
  6
CONTINUOUS
 62
    3
 10
1281.2364
 20
1780.0763
 11
1281.0186
 21
1780.5605
  0
LINE
  8
0-2
  6
CONTINUOUS
 62
    3
 10
1281.0186
 20
1780.5605
 11
1280.7749
 21
1781.0082
  0
LINE
  8
0-2
  6
CONTINUOUS
 62
    3
 10
1280.7749
 20
1781.0082
 11
1280.5069
 21
1781.4187
  0
LINE
  8
0-2
  6
CONTINUOUS
 62
    3
 10
1280.5069
 20
1781.4187
 11
1280.2159
 21
1781.7923
  0
LINE
  8
0-2
  6
CONTINUOUS
 62
    3
 10
1280.2159
 20
1781.7923
 11
1279.9027
 21
1782.1303
  0
LINE
  8
0-2
  6
CONTINUOUS
 62
    3
 10
1279.9027
 20
1782.1303
 11
1279.5686
 21
1782.4312
  0
LINE
  8
0-2
  6
CONTINUOUS
 62
    3
 10
1279.5686
 20
1782.4312
 11
1279.2148
 21
1782.6977
  0
LINE
  8
0-2
  6
CONTINUOUS
 62
    3
 10
1279.2148
 20
1782.6977
 11
1278.8421
 21
1782.9281
  0
LINE
  8
0-2
  6
CONTINUOUS
 62
    3
 10
1278.8421
 20
1782.9281
 11
1278.4522
 21
1783.1235
  0
LINE
  8
0-2
  6
CONTINUOUS
 62
    3
 10
1278.4522
 20
1783.1235
 11
1278.0459
 21
1783.2836
  0
LINE
  8
0-2
  6
CONTINUOUS
 62
    3
 10
1278.0459
 20
1783.2836
 11
1277.6247
 21
1783.4098
  0
LINE
  8
0-2
  6
CONTINUOUS
 62
    3
 10
1316.6925
 20
1778.3972
 11
1323.3333
 21
1778.3972
  0
LINE
  8
0-2
  6
CONTINUOUS
 62
    3
 10
1301.9352
 20
1778.3972
 11
1312.4014
 21
1778.3972
  0
LINE
  8
0-2
  6
CONTINUOUS
 62
    3
 10
1281.7248
 20
1778.3972
 11
1295.7853
 21
1778.3972
  0
LINE
  8
0-2
  6
CONTINUOUS
 62
    3
 10
1273.8481
 20
1778.3972
 11
1328.4449
 21
1852.9585
  0
LINE
  8
0-2
  6
CONTINUOUS
 62
    3
 10
710.00027
 20
1867.8702
 11
1050.0001
 21
1867.8702
  0
LINE
  8
0-2
  6
CONTINUOUS
 62
    3
 10
710.00002
 20
1852.9582
 11
1050.0001
 21
1852.9582
  0
LINE
  8
0-2
  6
CONTINUOUS
 62
    3
 10
1260.0008
 20
1852.9582
 11
1390.001
 21
1852.9582
  0
LINE
  8
0-2
  6
CONTINUOUS
 62
    3
 10
1260.0008
 20
1867.8702
 11
1390.001
 21
1867.8702
  0
LINE
  8
0-3
  6
CONTINUOUS
 62
    3
 10
1050.0001
 20
1891.906
 11
1260.0001
 21
1891.906
  0
LINE
  8
0-2
  6
CONTINUOUS
 62
    3
 10
710.00101
 20
1942.4327
 11
1050.0001
 21
1942.4327
  0
LINE
  8
0-2
  6
CONTINUOUS
 62
    3
 10
710.00027
 20
1852.9582
 11
1050.0001
 21
1852.9582
  0
LINE
  8
0-2
  6
CONTINUOUS
 62
    3
 10
1050.0001
 20
1966.3817
 11
1016.0209
 21
1975.4192
  0
LINE
  8
0-2
  6
CONTINUOUS
 62
    3
 10
1329.9998
 20
1891.906
 11
1050.0001
 21
1891.906
  0
LINE
  8
0-2
  6
CONTINUOUS
 62
    3
 10
1329.9998
 20
1881.906
 11
1050.0001
 21
1881.906
  0
LINE
  8
0-2
  6
CONTINUOUS
 62
    3
 10
710.00002
 20
2181.0284
 11
1050.0001
 21
2181.0284
  0
LINE
  8
0-2
  6
CONTINUOUS
 62
    3
 10
1329.9998
 20
2181.0284
 11
1390.001
 21
2181.0284
  0
LINE
  8
0-2
  6
CONTINUOUS
 62
    3
 10
1329.9998
 20
2166.1165
 11
1390.001
 21
2166.1165
  0
LINE
  8
0-2
  6
CONTINUOUS
 62
    3
 10
1260.0011
 20
1881.906
 11
1259.9991
 21
1666.555
  0
LINE
  8
0-2
  6
CONTINUOUS
 62
    3
 10
710.00002
 20
2166.1165
 11
1050.0001
 21
2166.1165
  0
LINE
  8
0-2
  6
CONTINUOUS
 62
    3
 10
1329.9998
 20
1942.4327
 11
1390.002
 21
1942.4327
  0
LINE
  8
0-2
  6
CONTINUOUS
 62
    3
 10
1329.9998
 20
1957.3442
 11
1390.002
 21
1957.3442
  0
LINE
  8
0-2
  6
CONTINUOUS
 62
    3
 10
710.00101
 20
1957.3442
 11
1050.0001
 21
1957.3442
  0
LINE
  8
0-2
  6
CONTINUOUS
 62
    3
 10
1247.0657
 20
2345.0637
 11
1264.0796
 21
2318.6706
  0
LINE
  8
0-2
  6
CONTINUOUS
 62
    3
 10
1282.2528
 20
2306.9357
 11
1256.4978
 21
2345.0637
  0
LINE
  8
0-2
  6
CONTINUOUS
 62
    3
 10
1273.8481
 20
2345.0637
 11
1319.2694
 21
2283.0333
  0
LINE
  8
0-2
  6
CONTINUOUS
 62
    3
 10
1050.0001
 20
2456.9063
 11
1322.0194
 21
2281.2574
  0
LINE
  8
0-2
  6
CONTINUOUS
 62
    3
 10
1046.8935
 20
2281.2574
 11
1322.0194
 21
2281.2574
  0
LINE
  8
0-2
  6
CONTINUOUS
 62
    3
 10
1329.9998
 20
2222.675
 11
1329.9998
 21
1891.906
  0
LINE
  8
0-2
  6
CONTINUOUS
 62
    3
 10
1329.9998
 20
2222.675
 11
1050.0001
 21
2222.675
  0
LINE
  8
0-2
  6
CONTINUOUS
 62
    3
 10
1329.9998
 20
2232.6751
 11
1050.0001
 21
2232.6751
  0
LINE
  8
0-2
  6
CONTINUOUS
 62
    3
 10
1260.0003
 20
1798.4621
 11
1295.1306
 21
1852.9585
  0
LINE
  8
0-2
  6
CONTINUOUS
 62
    3
 10
1306.8632
 20
1852.9585
 11
1260.0001
 21
1783.582
  0
LINE
  8
0-2
  6
CONTINUOUS
 62
    3
 10
1260.0001
 20
1778.3972
 11
1273.8481
 21
1778.3972
  0
LINE
  8
0-3
  6
CONTINUOUS
 62
    7
 10
1209.9999
 20
2162.6751
 11
1209.9999
 21
1951.906
  0
LINE
  8
0-3
  6
CONTINUOUS
 62
    7
 10
1279.9999
 20
2162.6751
 11
1279.9999
 21
1951.906
  0
LINE
  8
0-3
  6
CONTINUOUS
 62
    7
 10
1139.9999
 20
2162.6751
 11
1100
 21
2162.6751
  0
LINE
  8
0-3
  6
CONTINUOUS
 62
    7
 10
1139.9999
 20
2162.6751
 11
1139.9999
 21
1951.906
  0
LINE
  8
0-3
  6
CONTINUOUS
 62
    7
 10
1139.9999
 20
1951.906
 11
1100
 21
1951.906
  0
LINE
  8
0-3
  6
CONTINUOUS
 62
    7
 10
1209.9999
 20
2162.6751
 11
1170
 21
2162.6751
  0
LINE
  8
0-3
  6
CONTINUOUS
 62
    7
 10
1279.9999
 20
2162.6751
 11
1240
 21
2162.6751
  0
LINE
  8
0-3
  6
CONTINUOUS
 62
    7
 10
1279.9999
 20
1951.906
 11
1240
 21
1951.906
  0
LINE
  8
0-3
  6
CONTINUOUS
 62
    7
 10
1209.9999
 20
1951.906
 11
1170
 21
1951.906
  0
LINE
  8
0-3
  6
DASHED1
 62
    7
 10
1116.6656
 20
2140.1368
 11
1050.0001
 21
2140.1368
  0
LINE
  8
0-3
  6
CONTINUOUS
 62
    7
 10
1240.5479
 20
1891.906
 11
1230.4973
 21
1911.9056
  0
LINE
  8
0-3
  6
CONTINUOUS
 62
    7
 10
1221.0956
 20
1891.906
 11
1212.4152
 21
1911.9056
  0
LINE
  8
0-3
  6
CONTINUOUS
 62
    7
 10
1201.6434
 20
1891.906
 11
1194.2212
 21
1911.9056
  0
LINE
  8
0-3
  6
CONTINUOUS
 62
    7
 10
1064.6265
 20
1911.9056
 11
1065.4775
 21
1891.906
  0
LINE
  8
0-3
  6
CONTINUOUS
 62
    7
 10
1084.9297
 20
1891.906
 11
1083.3246
 21
1911.9056
  0
LINE
  8
0-3
  6
CONTINUOUS
 62
    7
 10
1104.382
 20
1891.906
 11
1101.9716
 21
1911.9056
  0
LINE
  8
0-3
  6
CONTINUOUS
 62
    7
 10
1123.8344
 20
1891.906
 11
1120.5623
 21
1911.9056
  0
LINE
  8
0-3
  6
CONTINUOUS
 62
    7
 10
1143.2867
 20
1891.906
 11
1139.0901
 21
1911.9056
  0
LINE
  8
0-3
  6
CONTINUOUS
 62
    7
 10
1162.7389
 20
1891.906
 11
1157.5484
 21
1911.9056
  0
LINE
  8
0-3
  6
CONTINUOUS
 62
    7
 10
1182.1911
 20
1891.906
 11
1175.9284
 21
1911.9056
  0
LINE
  8
0-3
  6
CONTINUOUS
 62
    7
 10
1260.0001
 20
1891.906
 11
1248.4518
 21
1911.9056
  0
LINE
  8
0-3
  6
CONTINUOUS
 62
    7
 10
1248.4518
 20
1911.9056
 11
1050.0001
 21
1911.9056
  0
LINE
  8
0-3
  6
DASHED1
 62
    7
 10
1248.4518
 20
1911.9056
 11
1116.6656
 21
2140.1368
  0
LINE
  8
0-2
  6
CENTER2
 62
    7
 10
1050.0001
 20
2545.3658
 11
1050.0001
 21
1437.8378
  0
LINE
  8
0-5
  6
DASHED3
 62
    7
 10
1050.0001
 20
1756.5551
 11
1260.0001
 21
1756.5551
  0
LINE
  8
0-d
  6
CONTINUOUS
 62
    4
 10
1197.4174
 20
1756.9707
 11
1304.8484
 21
1694.9454
  0
LINE
  8
0-d
  6
CONTINUOUS
 62
    4
 10
1304.8484
 20
1694.9454
 11
1362.1935
 21
1694.9454
  0
LINE
  8
0-2
  6
CONTINUOUS
 62
    3
 10
840.00021
 20
1621.8174
 11
838.84263
 21
1621.7042
  0
LINE
  8
0-2
  6
CONTINUOUS
 62
    3
 10
838.84263
 20
1621.7042
 11
837.72023
 21
1621.3678
  0
LINE
  8
0-2
  6
CONTINUOUS
 62
    3
 10
837.72023
 20
1621.3678
 11
836.6671
 21
1620.8186
  0
LINE
  8
0-2
  6
CONTINUOUS
 62
    3
 10
836.6671
 20
1620.8186
 11
835.71524
 21
1620.0731
  0
LINE
  8
0-2
  6
CONTINUOUS
 62
    3
 10
835.71524
 20
1620.0731
 11
834.89359
 21
1619.1541
  0
LINE
  8
0-2
  6
CONTINUOUS
 62
    3
 10
834.89359
 20
1619.1541
 11
834.22709
 21
1618.0895
  0
LINE
  8
0-2
  6
CONTINUOUS
 62
    3
 10
834.22709
 20
1618.0895
 11
833.73601
 21
1616.9117
  0
LINE
  8
0-2
  6
CONTINUOUS
 62
    3
 10
833.73601
 20
1616.9117
 11
833.43526
 21
1615.6563
  0
LINE
  8
0-2
  6
CONTINUOUS
 62
    3
 10
833.43526
 20
1615.6563
 11
833.33399
 21
1614.3616
  0
LINE
  8
0-2
  6
CONTINUOUS
 62
    3
 10
833.33399
 20
1614.3616
 11
833.43526
 21
1613.067
  0
LINE
  8
0-2
  6
CONTINUOUS
 62
    3
 10
833.43526
 20
1613.067
 11
833.73601
 21
1611.8116
  0
LINE
  8
0-2
  6
CONTINUOUS
 62
    3
 10
833.73601
 20
1611.8116
 11
834.22709
 21
1610.6337
  0
LINE
  8
0-2
  6
CONTINUOUS
 62
    3
 10
834.22709
 20
1610.6337
 11
834.89359
 21
1609.5692
  0
LINE
  8
0-2
  6
CONTINUOUS
 62
    3
 10
834.89359
 20
1609.5692
 11
835.71524
 21
1608.6502
  0
LINE
  8
0-2
  6
CONTINUOUS
 62
    3
 10
835.71524
 20
1608.6502
 11
836.6671
 21
1607.9047
  0
LINE
  8
0-2
  6
CONTINUOUS
 62
    3
 10
836.6671
 20
1607.9047
 11
837.72023
 21
1607.3555
  0
LINE
  8
0-2
  6
CONTINUOUS
 62
    3
 10
837.72023
 20
1607.3555
 11
838.84263
 21
1607.0191
  0
LINE
  8
0-2
  6
CONTINUOUS
 62
    3
 10
838.84263
 20
1607.0191
 11
840.00021
 21
1606.9059
  0
LINE
  8
0-2
  6
CONTINUOUS
 62
    3
 10
839.99922
 20
1666.5548
 11
838.84164
 21
1666.4415
  0
LINE
  8
0-2
  6
CONTINUOUS
 62
    3
 10
838.84164
 20
1666.4415
 11
837.71924
 21
1666.1052
  0
LINE
  8
0-2
  6
CONTINUOUS
 62
    3
 10
837.71924
 20
1666.1052
 11
836.66611
 21
1665.5559
  0
LINE
  8
0-2
  6
CONTINUOUS
 62
    3
 10
836.66611
 20
1665.5559
 11
835.71425
 21
1664.8105
  0
LINE
  8
0-2
  6
CONTINUOUS
 62
    3
 10
835.71425
 20
1664.8105
 11
834.8926
 21
1663.8915
  0
LINE
  8
0-2
  6
CONTINUOUS
 62
    3
 10
834.8926
 20
1663.8915
 11
834.2261
 21
1662.8269
  0
LINE
  8
0-2
  6
CONTINUOUS
 62
    3
 10
834.2261
 20
1662.8269
 11
833.73502
 21
1661.649
  0
LINE
  8
0-2
  6
CONTINUOUS
 62
    3
 10
833.73502
 20
1661.649
 11
833.43427
 21
1660.3937
  0
LINE
  8
0-2
  6
CONTINUOUS
 62
    3
 10
833.43427
 20
1660.3937
 11
833.333
 21
1659.099
  0
LINE
  8
0-2
  6
CONTINUOUS
 62
    3
 10
833.333
 20
1659.099
 11
833.43427
 21
1657.8043
  0
LINE
  8
0-2
  6
CONTINUOUS
 62
    3
 10
833.43427
 20
1657.8043
 11
833.73502
 21
1656.549
  0
LINE
  8
0-2
  6
CONTINUOUS
 62
    3
 10
833.73502
 20
1656.549
 11
834.2261
 21
1655.3711
  0
LINE
  8
0-2
  6
CONTINUOUS
 62
    3
 10
834.2261
 20
1655.3711
 11
834.8926
 21
1654.3065
  0
LINE
  8
0-2
  6
CONTINUOUS
 62
    3
 10
834.8926
 20
1654.3065
 11
835.71425
 21
1653.3875
  0
LINE
  8
0-2
  6
CONTINUOUS
 62
    3
 10
835.71425
 20
1653.3875
 11
836.66611
 21
1652.6421
  0
LINE
  8
0-2
  6
CONTINUOUS
 62
    3
 10
836.66611
 20
1652.6421
 11
837.71924
 21
1652.0929
  0
LINE
  8
0-2
  6
CONTINUOUS
 62
    3
 10
837.71924
 20
1652.0929
 11
838.84164
 21
1651.7565
  0
LINE
  8
0-2
  6
CONTINUOUS
 62
    3
 10
838.84164
 20
1651.7565
 11
839.99922
 21
1651.6432
  0
LINE
  8
0-2
  6
CONTINUOUS
 62
    3
 10
1260.0001
 20
1606.9059
 11
1261.1577
 21
1607.0191
  0
LINE
  8
0-2
  6
CONTINUOUS
 62
    3
 10
1261.1577
 20
1607.0191
 11
1262.2801
 21
1607.3555
  0
LINE
  8
0-2
  6
CONTINUOUS
 62
    3
 10
1262.2801
 20
1607.3555
 11
1263.3332
 21
1607.9047
  0
LINE
  8
0-2
  6
CONTINUOUS
 62
    3
 10
1263.3332
 20
1607.9047
 11
1264.2851
 21
1608.6502
  0
LINE
  8
0-2
  6
CONTINUOUS
 62
    3
 10
1264.2851
 20
1608.6502
 11
1265.1067
 21
1609.5692
  0
LINE
  8
0-2
  6
CONTINUOUS
 62
    3
 10
1265.1067
 20
1609.5692
 11
1265.7732
 21
1610.6337
  0
LINE
  8
0-2
  6
CONTINUOUS
 62
    3
 10
1265.7732
 20
1610.6337
 11
1266.2643
 21
1611.8116
  0
LINE
  8
0-2
  6
CONTINUOUS
 62
    3
 10
1266.2643
 20
1611.8116
 11
1266.565
 21
1613.067
  0
LINE
  8
0-2
  6
CONTINUOUS
 62
    3
 10
1266.565
 20
1613.067
 11
1266.6663
 21
1614.3616
  0
LINE
  8
0-2
  6
CONTINUOUS
 62
    3
 10
1266.6663
 20
1614.3616
 11
1266.565
 21
1615.6563
  0
LINE
  8
0-2
  6
CONTINUOUS
 62
    3
 10
1266.565
 20
1615.6563
 11
1266.2643
 21
1616.9117
  0
LINE
  8
0-2
  6
CONTINUOUS
 62
    3
 10
1266.2643
 20
1616.9117
 11
1265.7732
 21
1618.0895
  0
LINE
  8
0-2
  6
CONTINUOUS
 62
    3
 10
1265.7732
 20
1618.0895
 11
1265.1067
 21
1619.1541
  0
LINE
  8
0-2
  6
CONTINUOUS
 62
    3
 10
1265.1067
 20
1619.1541
 11
1264.2851
 21
1620.0731
  0
LINE
  8
0-2
  6
CONTINUOUS
 62
    3
 10
1264.2851
 20
1620.0731
 11
1263.3332
 21
1620.8186
  0
LINE
  8
0-2
  6
CONTINUOUS
 62
    3
 10
1263.3332
 20
1620.8186
 11
1262.2801
 21
1621.3678
  0
LINE
  8
0-2
  6
CONTINUOUS
 62
    3
 10
1262.2801
 20
1621.3678
 11
1261.1577
 21
1621.7042
  0
LINE
  8
0-2
  6
CONTINUOUS
 62
    3
 10
1261.1577
 20
1621.7042
 11
1260.0001
 21
1621.8174
  0
LINE
  8
0-2
  6
CONTINUOUS
 62
    3
 10
1259.9991
 20
1651.6432
 11
1261.1567
 21
1651.7565
  0
LINE
  8
0-2
  6
CONTINUOUS
 62
    3
 10
1261.1567
 20
1651.7565
 11
1262.2791
 21
1652.0929
  0
LINE
  8
0-2
  6
CONTINUOUS
 62
    3
 10
1262.2791
 20
1652.0929
 11
1263.3322
 21
1652.6421
  0
LINE
  8
0-2
  6
CONTINUOUS
 62
    3
 10
1263.3322
 20
1652.6421
 11
1264.2841
 21
1653.3875
  0
LINE
  8
0-2
  6
CONTINUOUS
 62
    3
 10
1264.2841
 20
1653.3875
 11
1265.1057
 21
1654.3065
  0
LINE
  8
0-2
  6
CONTINUOUS
 62
    3
 10
1265.1057
 20
1654.3065
 11
1265.7722
 21
1655.3711
  0
LINE
  8
0-2
  6
CONTINUOUS
 62
    3
 10
1265.7722
 20
1655.3711
 11
1266.2633
 21
1656.549
  0
LINE
  8
0-2
  6
CONTINUOUS
 62
    3
 10
1266.2633
 20
1656.549
 11
1266.564
 21
1657.8043
  0
LINE
  8
0-2
  6
CONTINUOUS
 62
    3
 10
1266.564
 20
1657.8043
 11
1266.6653
 21
1659.099
  0
LINE
  8
0-2
  6
CONTINUOUS
 62
    3
 10
1266.6653
 20
1659.099
 11
1266.564
 21
1660.3937
  0
LINE
  8
0-2
  6
CONTINUOUS
 62
    3
 10
1266.564
 20
1660.3937
 11
1266.2633
 21
1661.649
  0
LINE
  8
0-2
  6
CONTINUOUS
 62
    3
 10
1266.2633
 20
1661.649
 11
1265.7722
 21
1662.8269
  0
LINE
  8
0-2
  6
CONTINUOUS
 62
    3
 10
1265.7722
 20
1662.8269
 11
1265.1057
 21
1663.8915
  0
LINE
  8
0-2
  6
CONTINUOUS
 62
    3
 10
1265.1057
 20
1663.8915
 11
1264.2841
 21
1664.8105
  0
LINE
  8
0-2
  6
CONTINUOUS
 62
    3
 10
1264.2841
 20
1664.8105
 11
1263.3322
 21
1665.5559
  0
LINE
  8
0-2
  6
CONTINUOUS
 62
    3
 10
1263.3322
 20
1665.5559
 11
1262.2791
 21
1666.1052
  0
LINE
  8
0-2
  6
CONTINUOUS
 62
    3
 10
1262.2791
 20
1666.1052
 11
1261.1567
 21
1666.4415
  0
LINE
  8
0-2
  6
CONTINUOUS
 62
    3
 10
1261.1567
 20
1666.4415
 11
1259.9991
 21
1666.5548
  0
LINE
  8
0-2
  6
CONTINUOUS
 62
    3
 10
710.00101
 20
1957.3446
 11
708.84343
 21
1957.2313
  0
LINE
  8
0-2
  6
CONTINUOUS
 62
    3
 10
708.84343
 20
1957.2313
 11
707.72103
 21
1956.895
  0
LINE
  8
0-2
  6
CONTINUOUS
 62
    3
 10
707.72103
 20
1956.895
 11
706.6679
 21
1956.3457
  0
LINE
  8
0-2
  6
CONTINUOUS
 62
    3
 10
706.6679
 20
1956.3457
 11
705.71605
 21
1955.6003
  0
LINE
  8
0-2
  6
CONTINUOUS
 62
    3
 10
705.71605
 20
1955.6003
 11
704.89439
 21
1954.6813
  0
LINE
  8
0-2
  6
CONTINUOUS
 62
    3
 10
704.89439
 20
1954.6813
 11
704.22789
 21
1953.6167
  0
LINE
  8
0-2
  6
CONTINUOUS
 62
    3
 10
704.22789
 20
1953.6167
 11
703.73681
 21
1952.4389
  0
LINE
  8
0-2
  6
CONTINUOUS
 62
    3
 10
703.73681
 20
1952.4389
 11
703.43606
 21
1951.1835
  0
LINE
  8
0-2
  6
CONTINUOUS
 62
    3
 10
703.43606
 20
1951.1835
 11
703.33479
 21
1949.8888
  0
LINE
  8
0-2
  6
CONTINUOUS
 62
    3
 10
703.33479
 20
1949.8888
 11
703.43606
 21
1948.5941
  0
LINE
  8
0-2
  6
CONTINUOUS
 62
    3
 10
703.43606
 20
1948.5941
 11
703.73681
 21
1947.3388
  0
LINE
  8
0-2
  6
CONTINUOUS
 62
    3
 10
703.73681
 20
1947.3388
 11
704.22789
 21
1946.1609
  0
LINE
  8
0-2
  6
CONTINUOUS
 62
    3
 10
704.22789
 20
1946.1609
 11
704.89439
 21
1945.0963
  0
LINE
  8
0-2
  6
CONTINUOUS
 62
    3
 10
704.89439
 20
1945.0963
 11
705.71605
 21
1944.1774
  0
LINE
  8
0-2
  6
CONTINUOUS
 62
    3
 10
705.71605
 20
1944.1774
 11
706.6679
 21
1943.4319
  0
LINE
  8
0-2
  6
CONTINUOUS
 62
    3
 10
706.6679
 20
1943.4319
 11
707.72103
 21
1942.8827
  0
LINE
  8
0-2
  6
CONTINUOUS
 62
    3
 10
707.72103
 20
1942.8827
 11
708.84343
 21
1942.5463
  0
LINE
  8
0-2
  6
CONTINUOUS
 62
    3
 10
708.84343
 20
1942.5463
 11
710.00101
 21
1942.433
  0
LINE
  8
0-2
  6
CONTINUOUS
 62
    3
 10
710.00027
 20
1867.8699
 11
708.84269
 21
1867.7566
  0
LINE
  8
0-2
  6
CONTINUOUS
 62
    3
 10
708.84269
 20
1867.7566
 11
707.72029
 21
1867.4202
  0
LINE
  8
0-2
  6
CONTINUOUS
 62
    3
 10
707.72029
 20
1867.4202
 11
706.66716
 21
1866.871
  0
LINE
  8
0-2
  6
CONTINUOUS
 62
    3
 10
706.66716
 20
1866.871
 11
705.7153
 21
1866.1256
  0
LINE
  8
0-2
  6
CONTINUOUS
 62
    3
 10
705.7153
 20
1866.1256
 11
704.89365
 21
1865.2066
  0
LINE
  8
0-2
  6
CONTINUOUS
 62
    3
 10
704.89365
 20
1865.2066
 11
704.22715
 21
1864.142
  0
LINE
  8
0-2
  6
CONTINUOUS
 62
    3
 10
704.22715
 20
1864.142
 11
703.73607
 21
1862.9641
  0
LINE
  8
0-2
  6
CONTINUOUS
 62
    3
 10
703.73607
 20
1862.9641
 11
703.43532
 21
1861.7088
  0
LINE
  8
0-2
  6
CONTINUOUS
 62
    3
 10
703.43532
 20
1861.7088
 11
703.33405
 21
1860.4141
  0
LINE
  8
0-2
  6
CONTINUOUS
 62
    3
 10
703.33405
 20
1860.4141
 11
703.43532
 21
1859.1194
  0
LINE
  8
0-2
  6
CONTINUOUS
 62
    3
 10
703.43532
 20
1859.1194
 11
703.73607
 21
1857.8641
  0
LINE
  8
0-2
  6
CONTINUOUS
 62
    3
 10
703.73607
 20
1857.8641
 11
704.22715
 21
1856.6862
  0
LINE
  8
0-2
  6
CONTINUOUS
 62
    3
 10
704.22715
 20
1856.6862
 11
704.89365
 21
1855.6216
  0
LINE
  8
0-2
  6
CONTINUOUS
 62
    3
 10
704.89365
 20
1855.6216
 11
705.7153
 21
1854.7026
  0
LINE
  8
0-2
  6
CONTINUOUS
 62
    3
 10
705.7153
 20
1854.7026
 11
706.66716
 21
1853.9572
  0
LINE
  8
0-2
  6
CONTINUOUS
 62
    3
 10
706.66716
 20
1853.9572
 11
707.72029
 21
1853.4079
  0
LINE
  8
0-2
  6
CONTINUOUS
 62
    3
 10
707.72029
 20
1853.4079
 11
708.84269
 21
1853.0716
  0
LINE
  8
0-2
  6
CONTINUOUS
 62
    3
 10
708.84269
 20
1853.0716
 11
710.00027
 21
1852.9583
  0
LINE
  8
0-2
  6
CONTINUOUS
 62
    3
 10
1390.001
 20
1942.433
 11
1391.1586
 21
1942.5463
  0
LINE
  8
0-2
  6
CONTINUOUS
 62
    3
 10
1391.1586
 20
1942.5463
 11
1392.281
 21
1942.8827
  0
LINE
  8
0-2
  6
CONTINUOUS
 62
    3
 10
1392.281
 20
1942.8827
 11
1393.3341
 21
1943.4319
  0
LINE
  8
0-2
  6
CONTINUOUS
 62
    3
 10
1393.3341
 20
1943.4319
 11
1394.286
 21
1944.1774
  0
LINE
  8
0-2
  6
CONTINUOUS
 62
    3
 10
1394.286
 20
1944.1774
 11
1395.1076
 21
1945.0963
  0
LINE
  8
0-2
  6
CONTINUOUS
 62
    3
 10
1395.1076
 20
1945.0963
 11
1395.7741
 21
1946.1609
  0
LINE
  8
0-2
  6
CONTINUOUS
 62
    3
 10
1395.7741
 20
1946.1609
 11
1396.2652
 21
1947.3388
  0
LINE
  8
0-2
  6
CONTINUOUS
 62
    3
 10
1396.2652
 20
1947.3388
 11
1396.566
 21
1948.5941
  0
LINE
  8
0-2
  6
CONTINUOUS
 62
    3
 10
1396.566
 20
1948.5941
 11
1396.6672
 21
1949.8888
  0
LINE
  8
0-2
  6
CONTINUOUS
 62
    3
 10
1396.6672
 20
1949.8888
 11
1396.566
 21
1951.1835
  0
LINE
  8
0-2
  6
CONTINUOUS
 62
    3
 10
1396.566
 20
1951.1835
 11
1396.2652
 21
1952.4389
  0
LINE
  8
0-2
  6
CONTINUOUS
 62
    3
 10
1396.2652
 20
1952.4389
 11
1395.7741
 21
1953.6167
  0
LINE
  8
0-2
  6
CONTINUOUS
 62
    3
 10
1395.7741
 20
1953.6167
 11
1395.1076
 21
1954.6813
  0
LINE
  8
0-2
  6
CONTINUOUS
 62
    3
 10
1395.1076
 20
1954.6813
 11
1394.286
 21
1955.6003
  0
LINE
  8
0-2
  6
CONTINUOUS
 62
    3
 10
1394.286
 20
1955.6003
 11
1393.3341
 21
1956.3457
  0
LINE
  8
0-2
  6
CONTINUOUS
 62
    3
 10
1393.3341
 20
1956.3457
 11
1392.281
 21
1956.895
  0
LINE
  8
0-2
  6
CONTINUOUS
 62
    3
 10
1392.281
 20
1956.895
 11
1391.1586
 21
1957.2313
  0
LINE
  8
0-2
  6
CONTINUOUS
 62
    3
 10
1391.1586
 20
1957.2313
 11
1390.001
 21
1957.3446
  0
LINE
  8
0-2
  6
CONTINUOUS
 62
    3
 10
1390
 20
1852.9583
 11
1391.1576
 21
1853.0716
  0
LINE
  8
0-2
  6
CONTINUOUS
 62
    3
 10
1391.1576
 20
1853.0716
 11
1392.28
 21
1853.4079
  0
LINE
  8
0-2
  6
CONTINUOUS
 62
    3
 10
1392.28
 20
1853.4079
 11
1393.3331
 21
1853.9572
  0
LINE
  8
0-2
  6
CONTINUOUS
 62
    3
 10
1393.3331
 20
1853.9572
 11
1394.285
 21
1854.7026
  0
LINE
  8
0-2
  6
CONTINUOUS
 62
    3
 10
1394.285
 20
1854.7026
 11
1395.1067
 21
1855.6216
  0
LINE
  8
0-2
  6
CONTINUOUS
 62
    3
 10
1395.1067
 20
1855.6216
 11
1395.7731
 21
1856.6862
  0
LINE
  8
0-2
  6
CONTINUOUS
 62
    3
 10
1395.7731
 20
1856.6862
 11
1396.2642
 21
1857.8641
  0
LINE
  8
0-2
  6
CONTINUOUS
 62
    3
 10
1396.2642
 20
1857.8641
 11
1396.565
 21
1859.1194
  0
LINE
  8
0-2
  6
CONTINUOUS
 62
    3
 10
1396.565
 20
1859.1194
 11
1396.6663
 21
1860.4141
  0
LINE
  8
0-2
  6
CONTINUOUS
 62
    3
 10
1396.6663
 20
1860.4141
 11
1396.565
 21
1861.7088
  0
LINE
  8
0-2
  6
CONTINUOUS
 62
    3
 10
1396.565
 20
1861.7088
 11
1396.2642
 21
1862.9641
  0
LINE
  8
0-2
  6
CONTINUOUS
 62
    3
 10
1396.2642
 20
1862.9641
 11
1395.7731
 21
1864.142
  0
LINE
  8
0-2
  6
CONTINUOUS
 62
    3
 10
1395.7731
 20
1864.142
 11
1395.1067
 21
1865.2066
  0
LINE
  8
0-2
  6
CONTINUOUS
 62
    3
 10
1395.1067
 20
1865.2066
 11
1394.285
 21
1866.1256
  0
LINE
  8
0-2
  6
CONTINUOUS
 62
    3
 10
1394.285
 20
1866.1256
 11
1393.3331
 21
1866.871
  0
LINE
  8
0-2
  6
CONTINUOUS
 62
    3
 10
1393.3331
 20
1866.871
 11
1392.28
 21
1867.4202
  0
LINE
  8
0-2
  6
CONTINUOUS
 62
    3
 10
1392.28
 20
1867.4202
 11
1391.1576
 21
1867.7566
  0
LINE
  8
0-2
  6
CONTINUOUS
 62
    3
 10
1391.1576
 20
1867.7566
 11
1390
 21
1867.8699
  0
LINE
  8
0-2
  6
CONTINUOUS
 62
    3
 10
710.00002
 20
2270.5024
 11
708.84245
 21
2270.3891
  0
LINE
  8
0-2
  6
CONTINUOUS
 62
    3
 10
708.84245
 20
2270.3891
 11
707.72004
 21
2270.0527
  0
LINE
  8
0-2
  6
CONTINUOUS
 62
    3
 10
707.72004
 20
2270.0527
 11
706.66691
 21
2269.5035
  0
LINE
  8
0-2
  6
CONTINUOUS
 62
    3
 10
706.66691
 20
2269.5035
 11
705.71506
 21
2268.758
  0
LINE
  8
0-2
  6
CONTINUOUS
 62
    3
 10
705.71506
 20
2268.758
 11
704.8934
 21
2267.8391
  0
LINE
  8
0-2
  6
CONTINUOUS
 62
    3
 10
704.8934
 20
2267.8391
 11
704.2269
 21
2266.7745
  0
LINE
  8
0-2
  6
CONTINUOUS
 62
    3
 10
704.2269
 20
2266.7745
 11
703.73582
 21
2265.5966
  0
LINE
  8
0-2
  6
CONTINUOUS
 62
    3
 10
703.73582
 20
2265.5966
 11
703.43507
 21
2264.3413
  0
LINE
  8
0-2
  6
CONTINUOUS
 62
    3
 10
703.43507
 20
2264.3413
 11
703.3338
 21
2263.0466
  0
LINE
  8
0-2
  6
CONTINUOUS
 62
    3
 10
703.3338
 20
2263.0466
 11
703.43507
 21
2261.7519
  0
LINE
  8
0-2
  6
CONTINUOUS
 62
    3
 10
703.43507
 20
2261.7519
 11
703.73582
 21
2260.4965
  0
LINE
  8
0-2
  6
CONTINUOUS
 62
    3
 10
703.73582
 20
2260.4965
 11
704.2269
 21
2259.3187
  0
LINE
  8
0-2
  6
CONTINUOUS
 62
    3
 10
704.2269
 20
2259.3187
 11
704.8934
 21
2258.2541
  0
LINE
  8
0-2
  6
CONTINUOUS
 62
    3
 10
704.8934
 20
2258.2541
 11
705.71506
 21
2257.3351
  0
LINE
  8
0-2
  6
CONTINUOUS
 62
    3
 10
705.71506
 20
2257.3351
 11
706.66691
 21
2256.5897
  0
LINE
  8
0-2
  6
CONTINUOUS
 62
    3
 10
706.66691
 20
2256.5897
 11
707.72004
 21
2256.0404
  0
LINE
  8
0-2
  6
CONTINUOUS
 62
    3
 10
707.72004
 20
2256.0404
 11
708.84245
 21
2255.7041
  0
LINE
  8
0-2
  6
CONTINUOUS
 62
    3
 10
708.84245
 20
2255.7041
 11
710.00002
 21
2255.5908
  0
LINE
  8
0-2
  6
CONTINUOUS
 62
    3
 10
710.00002
 20
2181.0281
 11
708.84245
 21
2180.9149
  0
LINE
  8
0-2
  6
CONTINUOUS
 62
    3
 10
708.84245
 20
2180.9149
 11
707.72004
 21
2180.5785
  0
LINE
  8
0-2
  6
CONTINUOUS
 62
    3
 10
707.72004
 20
2180.5785
 11
706.66691
 21
2180.0292
  0
LINE
  8
0-2
  6
CONTINUOUS
 62
    3
 10
706.66691
 20
2180.0292
 11
705.71506
 21
2179.2838
  0
LINE
  8
0-2
  6
CONTINUOUS
 62
    3
 10
705.71506
 20
2179.2838
 11
704.8934
 21
2178.3648
  0
LINE
  8
0-2
  6
CONTINUOUS
 62
    3
 10
704.8934
 20
2178.3648
 11
704.2269
 21
2177.3002
  0
LINE
  8
0-2
  6
CONTINUOUS
 62
    3
 10
704.2269
 20
2177.3002
 11
703.73582
 21
2176.1224
  0
LINE
  8
0-2
  6
CONTINUOUS
 62
    3
 10
703.73582
 20
2176.1224
 11
703.43507
 21
2174.867
  0
LINE
  8
0-2
  6
CONTINUOUS
 62
    3
 10
703.43507
 20
2174.867
 11
703.3338
 21
2173.5723
  0
LINE
  8
0-2
  6
CONTINUOUS
 62
    3
 10
703.3338
 20
2173.5723
 11
703.43507
 21
2172.2776
  0
LINE
  8
0-2
  6
CONTINUOUS
 62
    3
 10
703.43507
 20
2172.2776
 11
703.73582
 21
2171.0223
  0
LINE
  8
0-2
  6
CONTINUOUS
 62
    3
 10
703.73582
 20
2171.0223
 11
704.2269
 21
2169.8444
  0
LINE
  8
0-2
  6
CONTINUOUS
 62
    3
 10
704.2269
 20
2169.8444
 11
704.8934
 21
2168.7798
  0
LINE
  8
0-2
  6
CONTINUOUS
 62
    3
 10
704.8934
 20
2168.7798
 11
705.71506
 21
2167.8609
  0
LINE
  8
0-2
  6
CONTINUOUS
 62
    3
 10
705.71506
 20
2167.8609
 11
706.66691
 21
2167.1154
  0
LINE
  8
0-2
  6
CONTINUOUS
 62
    3
 10
706.66691
 20
2167.1154
 11
707.72004
 21
2166.5662
  0
LINE
  8
0-2
  6
CONTINUOUS
 62
    3
 10
707.72004
 20
2166.5662
 11
708.84245
 21
2166.2298
  0
LINE
  8
0-2
  6
CONTINUOUS
 62
    3
 10
708.84245
 20
2166.2298
 11
710.00002
 21
2166.1165
  0
LINE
  8
0-2
  6
CONTINUOUS
 62
    3
 10
1390
 20
2255.5908
 11
1391.1576
 21
2255.7041
  0
LINE
  8
0-2
  6
CONTINUOUS
 62
    3
 10
1391.1576
 20
2255.7041
 11
1392.28
 21
2256.0404
  0
LINE
  8
0-2
  6
CONTINUOUS
 62
    3
 10
1392.28
 20
2256.0404
 11
1393.3331
 21
2256.5897
  0
LINE
  8
0-2
  6
CONTINUOUS
 62
    3
 10
1393.3331
 20
2256.5897
 11
1394.285
 21
2257.3351
  0
LINE
  8
0-2
  6
CONTINUOUS
 62
    3
 10
1394.285
 20
2257.3351
 11
1395.1067
 21
2258.2541
  0
LINE
  8
0-2
  6
CONTINUOUS
 62
    3
 10
1395.1067
 20
2258.2541
 11
1395.7731
 21
2259.3187
  0
LINE
  8
0-2
  6
CONTINUOUS
 62
    3
 10
1395.7731
 20
2259.3187
 11
1396.2642
 21
2260.4965
  0
LINE
  8
0-2
  6
CONTINUOUS
 62
    3
 10
1396.2642
 20
2260.4965
 11
1396.565
 21
2261.7519
  0
LINE
  8
0-2
  6
CONTINUOUS
 62
    3
 10
1396.565
 20
2261.7519
 11
1396.6663
 21
2263.0466
  0
LINE
  8
0-2
  6
CONTINUOUS
 62
    3
 10
1396.6663
 20
2263.0466
 11
1396.565
 21
2264.3413
  0
LINE
  8
0-2
  6
CONTINUOUS
 62
    3
 10
1396.565
 20
2264.3413
 11
1396.2642
 21
2265.5966
  0
LINE
  8
0-2
  6
CONTINUOUS
 62
    3
 10
1396.2642
 20
2265.5966
 11
1395.7731
 21
2266.7745
  0
LINE
  8
0-2
  6
CONTINUOUS
 62
    3
 10
1395.7731
 20
2266.7745
 11
1395.1067
 21
2267.8391
  0
LINE
  8
0-2
  6
CONTINUOUS
 62
    3
 10
1395.1067
 20
2267.8391
 11
1394.285
 21
2268.758
  0
LINE
  8
0-2
  6
CONTINUOUS
 62
    3
 10
1394.285
 20
2268.758
 11
1393.3331
 21
2269.5035
  0
LINE
  8
0-2
  6
CONTINUOUS
 62
    3
 10
1393.3331
 20
2269.5035
 11
1392.28
 21
2270.0527
  0
LINE
  8
0-2
  6
CONTINUOUS
 62
    3
 10
1392.28
 20
2270.0527
 11
1391.1576
 21
2270.3891
  0
LINE
  8
0-2
  6
CONTINUOUS
 62
    3
 10
1391.1576
 20
2270.3891
 11
1390
 21
2270.5024
  0
LINE
  8
0-2
  6
CONTINUOUS
 62
    3
 10
1390
 20
2166.1165
 11
1391.1576
 21
2166.2298
  0
LINE
  8
0-2
  6
CONTINUOUS
 62
    3
 10
1391.1576
 20
2166.2298
 11
1392.28
 21
2166.5662
  0
LINE
  8
0-2
  6
CONTINUOUS
 62
    3
 10
1392.28
 20
2166.5662
 11
1393.3331
 21
2167.1154
  0
LINE
  8
0-2
  6
CONTINUOUS
 62
    3
 10
1393.3331
 20
2167.1154
 11
1394.285
 21
2167.8609
  0
LINE
  8
0-2
  6
CONTINUOUS
 62
    3
 10
1394.285
 20
2167.8609
 11
1395.1067
 21
2168.7798
  0
LINE
  8
0-2
  6
CONTINUOUS
 62
    3
 10
1395.1067
 20
2168.7798
 11
1395.7731
 21
2169.8444
  0
LINE
  8
0-2
  6
CONTINUOUS
 62
    3
 10
1395.7731
 20
2169.8444
 11
1396.2642
 21
2171.0223
  0
LINE
  8
0-2
  6
CONTINUOUS
 62
    3
 10
1396.2642
 20
2171.0223
 11
1396.565
 21
2172.2776
  0
LINE
  8
0-2
  6
CONTINUOUS
 62
    3
 10
1396.565
 20
2172.2776
 11
1396.6663
 21
2173.5723
  0
LINE
  8
0-2
  6
CONTINUOUS
 62
    3
 10
1396.6663
 20
2173.5723
 11
1396.565
 21
2174.867
  0
LINE
  8
0-2
  6
CONTINUOUS
 62
    3
 10
1396.565
 20
2174.867
 11
1396.2642
 21
2176.1224
  0
LINE
  8
0-2
  6
CONTINUOUS
 62
    3
 10
1396.2642
 20
2176.1224
 11
1395.7731
 21
2177.3002
  0
LINE
  8
0-2
  6
CONTINUOUS
 62
    3
 10
1395.7731
 20
2177.3002
 11
1395.1067
 21
2178.3648
  0
LINE
  8
0-2
  6
CONTINUOUS
 62
    3
 10
1395.1067
 20
2178.3648
 11
1394.285
 21
2179.2838
  0
LINE
  8
0-2
  6
CONTINUOUS
 62
    3
 10
1394.285
 20
2179.2838
 11
1393.3331
 21
2180.0292
  0
LINE
  8
0-2
  6
CONTINUOUS
 62
    3
 10
1393.3331
 20
2180.0292
 11
1392.28
 21
2180.5785
  0
LINE
  8
0-2
  6
CONTINUOUS
 62
    3
 10
1392.28
 20
2180.5785
 11
1391.1576
 21
2180.9149
  0
LINE
  8
0-2
  6
CONTINUOUS
 62
    3
 10
1391.1576
 20
2180.9149
 11
1390
 21
2181.0281
  0
LINE
  8
0-2
  6
CONTINUOUS
 62
    3
 10
1022.6837
 20
2345.064
 11
1023.0329
 21
2343.7634
  0
LINE
  8
0-2
  6
CONTINUOUS
 62
    3
 10
1023.0329
 20
2343.7634
 11
1023.5788
 21
2342.5503
  0
LINE
  8
0-2
  6
CONTINUOUS
 62
    3
 10
1023.5788
 20
2342.5503
 11
1024.3047
 21
2341.4617
  0
LINE
  8
0-2
  6
CONTINUOUS
 62
    3
 10
1024.3047
 20
2341.4617
 11
1025.1887
 21
2340.5306
  0
LINE
  8
0-2
  6
CONTINUOUS
 62
    3
 10
1025.1887
 20
2340.5306
 11
1026.2037
 21
2339.7853
  0
LINE
  8
0-2
  6
CONTINUOUS
 62
    3
 10
1026.2037
 20
2339.7853
 11
1027.3191
 21
2339.2485
  0
LINE
  8
0-2
  6
CONTINUOUS
 62
    3
 10
1027.3191
 20
2339.2485
 11
1028.5008
 21
2338.9364
  0
LINE
  8
0-2
  6
CONTINUOUS
 62
    3
 10
1028.5008
 20
2338.9364
 11
1029.7131
 21
2338.8586
  0
LINE
  8
0-2
  6
CONTINUOUS
 62
    3
 10
1029.7131
 20
2338.8586
 11
1030.919
 21
2339.0174
  0
LINE
  8
0-2
  6
CONTINUOUS
 62
    3
 10
1030.919
 20
2339.0174
 11
1032.0819
 21
2339.4081
  0
LINE
  8
0-2
  6
CONTINUOUS
 62
    3
 10
1032.0819
 20
2339.4081
 11
1033.1665
 21
2340.0186
  0
LINE
  8
0-2
  6
CONTINUOUS
 62
    3
 10
1033.1665
 20
2340.0186
 11
1034.1399
 21
2340.8305
  0
LINE
  8
0-2
  6
CONTINUOUS
 62
    3
 10
1034.1399
 20
2340.8305
 11
1034.9723
 21
2341.8192
  0
LINE
  8
0-2
  6
CONTINUOUS
 62
    3
 10
1034.9723
 20
2341.8192
 11
1035.6387
 21
2342.9544
  0
LINE
  8
0-2
  6
CONTINUOUS
 62
    3
 10
1035.6387
 20
2342.9544
 11
1036.1187
 21
2344.2019
  0
LINE
  8
0-2
  6
CONTINUOUS
 62
    3
 10
1036.1187
 20
2344.2019
 11
1036.3252
 21
2345.064
  0
LINE
  8
0-2
  6
CONTINUOUS
 62
    3
 10
852.1503
 20
2187.8887
 11
852.08954
 21
2188.6656
  0
LINE
  8
0-2
  6
CONTINUOUS
 62
    3
 10
852.08954
 20
2188.6656
 11
851.90908
 21
2189.4188
  0
LINE
  8
0-2
  6
CONTINUOUS
 62
    3
 10
851.90908
 20
2189.4188
 11
851.61442
 21
2190.1255
  0
LINE
  8
0-2
  6
CONTINUOUS
 62
    3
 10
851.61442
 20
2190.1255
 11
851.2145
 21
2190.7643
  0
LINE
  8
0-2
  6
CONTINUOUS
 62
    3
 10
851.2145
 20
2190.7643
 11
850.72148
 21
2191.3157
  0
LINE
  8
0-2
  6
CONTINUOUS
 62
    3
 10
850.72148
 20
2191.3157
 11
850.15034
 21
2191.763
  0
LINE
  8
0-2
  6
CONTINUOUS
 62
    3
 10
850.15034
 20
2191.763
 11
849.51844
 21
2192.0926
  0
LINE
  8
0-2
  6
CONTINUOUS
 62
    3
 10
849.51844
 20
2192.0926
 11
848.84496
 21
2192.2944
  0
LINE
  8
0-2
  6
CONTINUOUS
 62
    3
 10
848.84496
 20
2192.2944
 11
848.15038
 21
2192.3624
  0
LINE
  8
0-2
  6
CONTINUOUS
 62
    3
 10
848.15038
 20
2192.3624
 11
847.45581
 21
2192.2944
  0
LINE
  8
0-2
  6
CONTINUOUS
 62
    3
 10
847.45581
 20
2192.2944
 11
846.78233
 21
2192.0926
  0
LINE
  8
0-2
  6
CONTINUOUS
 62
    3
 10
846.78233
 20
2192.0926
 11
846.15042
 21
2191.763
  0
LINE
  8
0-2
  6
CONTINUOUS
 62
    3
 10
846.15042
 20
2191.763
 11
845.57929
 21
2191.3157
  0
LINE
  8
0-2
  6
CONTINUOUS
 62
    3
 10
845.57929
 20
2191.3157
 11
845.08627
 21
2190.7643
  0
LINE
  8
0-2
  6
CONTINUOUS
 62
    3
 10
845.08627
 20
2190.7643
 11
844.68635
 21
2190.1255
  0
LINE
  8
0-2
  6
CONTINUOUS
 62
    3
 10
844.68635
 20
2190.1255
 11
844.39169
 21
2189.4188
  0
LINE
  8
0-2
  6
CONTINUOUS
 62
    3
 10
844.39169
 20
2189.4188
 11
844.21123
 21
2188.6656
  0
LINE
  8
0-2
  6
CONTINUOUS
 62
    3
 10
844.21123
 20
2188.6656
 11
844.15046
 21
2187.8887
  0
LINE
  8
0-2
  6
CONTINUOUS
 62
    3
 10
844.15046
 20
2187.8887
 11
844.21123
 21
2187.1119
  0
LINE
  8
0-2
  6
CONTINUOUS
 62
    3
 10
844.21123
 20
2187.1119
 11
844.39169
 21
2186.3586
  0
LINE
  8
0-2
  6
CONTINUOUS
 62
    3
 10
844.39169
 20
2186.3586
 11
844.68635
 21
2185.6519
  0
LINE
  8
0-2
  6
CONTINUOUS
 62
    3
 10
844.68635
 20
2185.6519
 11
845.08627
 21
2185.0131
  0
LINE
  8
0-2
  6
CONTINUOUS
 62
    3
 10
845.08627
 20
2185.0131
 11
845.57929
 21
2184.4617
  0
LINE
  8
0-2
  6
CONTINUOUS
 62
    3
 10
845.57929
 20
2184.4617
 11
846.15042
 21
2184.0144
  0
LINE
  8
0-2
  6
CONTINUOUS
 62
    3
 10
846.15042
 20
2184.0144
 11
846.78233
 21
2183.6848
  0
LINE
  8
0-2
  6
CONTINUOUS
 62
    3
 10
846.78233
 20
2183.6848
 11
847.45581
 21
2183.483
  0
LINE
  8
0-2
  6
CONTINUOUS
 62
    3
 10
847.45581
 20
2183.483
 11
848.15038
 21
2183.415
  0
LINE
  8
0-2
  6
CONTINUOUS
 62
    3
 10
848.15038
 20
2183.415
 11
848.84496
 21
2183.483
  0
LINE
  8
0-2
  6
CONTINUOUS
 62
    3
 10
848.84496
 20
2183.483
 11
849.51844
 21
2183.6848
  0
LINE
  8
0-2
  6
CONTINUOUS
 62
    3
 10
849.51844
 20
2183.6848
 11
850.15034
 21
2184.0144
  0
LINE
  8
0-2
  6
CONTINUOUS
 62
    3
 10
850.15034
 20
2184.0144
 11
850.72148
 21
2184.4617
  0
LINE
  8
0-2
  6
CONTINUOUS
 62
    3
 10
850.72148
 20
2184.4617
 11
851.2145
 21
2185.0131
  0
LINE
  8
0-2
  6
CONTINUOUS
 62
    3
 10
851.2145
 20
2185.0131
 11
851.61442
 21
2185.6519
  0
LINE
  8
0-2
  6
CONTINUOUS
 62
    3
 10
851.61442
 20
2185.6519
 11
851.90908
 21
2186.3586
  0
LINE
  8
0-2
  6
CONTINUOUS
 62
    3
 10
851.90908
 20
2186.3586
 11
852.08954
 21
2187.1119
  0
LINE
  8
0-2
  6
CONTINUOUS
 62
    3
 10
852.08954
 20
2187.1119
 11
852.1503
 21
2187.8887
  0
LINE
  8
0-2
  6
CONTINUOUS
 62
    3
 10
852.1503
 20
2241.3318
 11
852.08954
 21
2242.1086
  0
LINE
  8
0-2
  6
CONTINUOUS
 62
    3
 10
852.08954
 20
2242.1086
 11
851.90908
 21
2242.8618
  0
LINE
  8
0-2
  6
CONTINUOUS
 62
    3
 10
851.90908
 20
2242.8618
 11
851.61442
 21
2243.5686
  0
LINE
  8
0-2
  6
CONTINUOUS
 62
    3
 10
851.61442
 20
2243.5686
 11
851.2145
 21
2244.2074
  0
LINE
  8
0-2
  6
CONTINUOUS
 62
    3
 10
851.2145
 20
2244.2074
 11
850.72148
 21
2244.7588
  0
LINE
  8
0-2
  6
CONTINUOUS
 62
    3
 10
850.72148
 20
2244.7588
 11
850.15034
 21
2245.2061
  0
LINE
  8
0-2
  6
CONTINUOUS
 62
    3
 10
850.15034
 20
2245.2061
 11
849.51844
 21
2245.5356
  0
LINE
  8
0-2
  6
CONTINUOUS
 62
    3
 10
849.51844
 20
2245.5356
 11
848.84496
 21
2245.7375
  0
LINE
  8
0-2
  6
CONTINUOUS
 62
    3
 10
848.84496
 20
2245.7375
 11
848.15038
 21
2245.8054
  0
LINE
  8
0-2
  6
CONTINUOUS
 62
    3
 10
848.15038
 20
2245.8054
 11
847.45581
 21
2245.7375
  0
LINE
  8
0-2
  6
CONTINUOUS
 62
    3
 10
847.45581
 20
2245.7375
 11
846.78233
 21
2245.5356
  0
LINE
  8
0-2
  6
CONTINUOUS
 62
    3
 10
846.78233
 20
2245.5356
 11
846.15042
 21
2245.2061
  0
LINE
  8
0-2
  6
CONTINUOUS
 62
    3
 10
846.15042
 20
2245.2061
 11
845.57929
 21
2244.7588
  0
LINE
  8
0-2
  6
CONTINUOUS
 62
    3
 10
845.57929
 20
2244.7588
 11
845.08627
 21
2244.2074
  0
LINE
  8
0-2
  6
CONTINUOUS
 62
    3
 10
845.08627
 20
2244.2074
 11
844.68635
 21
2243.5686
  0
LINE
  8
0-2
  6
CONTINUOUS
 62
    3
 10
844.68635
 20
2243.5686
 11
844.39169
 21
2242.8618
  0
LINE
  8
0-2
  6
CONTINUOUS
 62
    3
 10
844.39169
 20
2242.8618
 11
844.21123
 21
2242.1086
  0
LINE
  8
0-2
  6
CONTINUOUS
 62
    3
 10
844.21123
 20
2242.1086
 11
844.15046
 21
2241.3318
  0
LINE
  8
0-2
  6
CONTINUOUS
 62
    3
 10
844.15046
 20
2241.3318
 11
844.21123
 21
2240.5549
  0
LINE
  8
0-2
  6
CONTINUOUS
 62
    3
 10
844.21123
 20
2240.5549
 11
844.39169
 21
2239.8017
  0
LINE
  8
0-2
  6
CONTINUOUS
 62
    3
 10
844.39169
 20
2239.8017
 11
844.68635
 21
2239.0949
  0
LINE
  8
0-2
  6
CONTINUOUS
 62
    3
 10
844.68635
 20
2239.0949
 11
845.08627
 21
2238.4561
  0
LINE
  8
0-2
  6
CONTINUOUS
 62
    3
 10
845.08627
 20
2238.4561
 11
845.57929
 21
2237.9047
  0
LINE
  8
0-2
  6
CONTINUOUS
 62
    3
 10
845.57929
 20
2237.9047
 11
846.15042
 21
2237.4574
  0
LINE
  8
0-2
  6
CONTINUOUS
 62
    3
 10
846.15042
 20
2237.4574
 11
846.78233
 21
2237.1279
  0
LINE
  8
0-2
  6
CONTINUOUS
 62
    3
 10
846.78233
 20
2237.1279
 11
847.45581
 21
2236.926
  0
LINE
  8
0-2
  6
CONTINUOUS
 62
    3
 10
847.45581
 20
2236.926
 11
848.15038
 21
2236.8581
  0
LINE
  8
0-2
  6
CONTINUOUS
 62
    3
 10
848.15038
 20
2236.8581
 11
848.84496
 21
2236.926
  0
LINE
  8
0-2
  6
CONTINUOUS
 62
    3
 10
848.84496
 20
2236.926
 11
849.51844
 21
2237.1279
  0
LINE
  8
0-2
  6
CONTINUOUS
 62
    3
 10
849.51844
 20
2237.1279
 11
850.15034
 21
2237.4574
  0
LINE
  8
0-2
  6
CONTINUOUS
 62
    3
 10
850.15034
 20
2237.4574
 11
850.72148
 21
2237.9047
  0
LINE
  8
0-2
  6
CONTINUOUS
 62
    3
 10
850.72148
 20
2237.9047
 11
851.2145
 21
2238.4561
  0
LINE
  8
0-2
  6
CONTINUOUS
 62
    3
 10
851.2145
 20
2238.4561
 11
851.61442
 21
2239.0949
  0
LINE
  8
0-2
  6
CONTINUOUS
 62
    3
 10
851.61442
 20
2239.0949
 11
851.90908
 21
2239.8017
  0
LINE
  8
0-2
  6
CONTINUOUS
 62
    3
 10
851.90908
 20
2239.8017
 11
852.08954
 21
2240.5549
  0
LINE
  8
0-2
  6
CONTINUOUS
 62
    3
 10
852.08954
 20
2240.5549
 11
852.1503
 21
2241.3318
  0
LINE
  8
0-2
  6
CONTINUOUS
 62
    3
 10
852.1503
 20
1935.5725
 11
852.08954
 21
1936.3493
  0
LINE
  8
0-2
  6
CONTINUOUS
 62
    3
 10
852.08954
 20
1936.3493
 11
851.90908
 21
1937.1025
  0
LINE
  8
0-2
  6
CONTINUOUS
 62
    3
 10
851.90908
 20
1937.1025
 11
851.61442
 21
1937.8093
  0
LINE
  8
0-2
  6
CONTINUOUS
 62
    3
 10
851.61442
 20
1937.8093
 11
851.2145
 21
1938.4481
  0
LINE
  8
0-2
  6
CONTINUOUS
 62
    3
 10
851.2145
 20
1938.4481
 11
850.72148
 21
1938.9995
  0
LINE
  8
0-2
  6
CONTINUOUS
 62
    3
 10
850.72148
 20
1938.9995
 11
850.15034
 21
1939.4468
  0
LINE
  8
0-2
  6
CONTINUOUS
 62
    3
 10
850.15034
 20
1939.4468
 11
849.51844
 21
1939.7763
  0
LINE
  8
0-2
  6
CONTINUOUS
 62
    3
 10
849.51844
 20
1939.7763
 11
848.84496
 21
1939.9782
  0
LINE
  8
0-2
  6
CONTINUOUS
 62
    3
 10
848.84496
 20
1939.9782
 11
848.15038
 21
1940.0461
  0
LINE
  8
0-2
  6
CONTINUOUS
 62
    3
 10
848.15038
 20
1940.0461
 11
847.45581
 21
1939.9782
  0
LINE
  8
0-2
  6
CONTINUOUS
 62
    3
 10
847.45581
 20
1939.9782
 11
846.78233
 21
1939.7763
  0
LINE
  8
0-2
  6
CONTINUOUS
 62
    3
 10
846.78233
 20
1939.7763
 11
846.15042
 21
1939.4468
  0
LINE
  8
0-2
  6
CONTINUOUS
 62
    3
 10
846.15042
 20
1939.4468
 11
845.57929
 21
1938.9995
  0
LINE
  8
0-2
  6
CONTINUOUS
 62
    3
 10
845.57929
 20
1938.9995
 11
845.08627
 21
1938.4481
  0
LINE
  8
0-2
  6
CONTINUOUS
 62
    3
 10
845.08627
 20
1938.4481
 11
844.68635
 21
1937.8093
  0
LINE
  8
0-2
  6
CONTINUOUS
 62
    3
 10
844.68635
 20
1937.8093
 11
844.39169
 21
1937.1025
  0
LINE
  8
0-2
  6
CONTINUOUS
 62
    3
 10
844.39169
 20
1937.1025
 11
844.21123
 21
1936.3493
  0
LINE
  8
0-2
  6
CONTINUOUS
 62
    3
 10
844.21123
 20
1936.3493
 11
844.15046
 21
1935.5725
  0
LINE
  8
0-2
  6
CONTINUOUS
 62
    3
 10
844.15046
 20
1935.5725
 11
844.21123
 21
1934.7956
  0
LINE
  8
0-2
  6
CONTINUOUS
 62
    3
 10
844.21123
 20
1934.7956
 11
844.39169
 21
1934.0424
  0
LINE
  8
0-2
  6
CONTINUOUS
 62
    3
 10
844.39169
 20
1934.0424
 11
844.68635
 21
1933.3356
  0
LINE
  8
0-2
  6
CONTINUOUS
 62
    3
 10
844.68635
 20
1933.3356
 11
845.08627
 21
1932.6968
  0
LINE
  8
0-2
  6
CONTINUOUS
 62
    3
 10
845.08627
 20
1932.6968
 11
845.57929
 21
1932.1454
  0
LINE
  8
0-2
  6
CONTINUOUS
 62
    3
 10
845.57929
 20
1932.1454
 11
846.15042
 21
1931.6981
  0
LINE
  8
0-2
  6
CONTINUOUS
 62
    3
 10
846.15042
 20
1931.6981
 11
846.78233
 21
1931.3686
  0
LINE
  8
0-2
  6
CONTINUOUS
 62
    3
 10
846.78233
 20
1931.3686
 11
847.45581
 21
1931.1667
  0
LINE
  8
0-2
  6
CONTINUOUS
 62
    3
 10
847.45581
 20
1931.1667
 11
848.15038
 21
1931.0988
  0
LINE
  8
0-2
  6
CONTINUOUS
 62
    3
 10
848.15038
 20
1931.0988
 11
848.84496
 21
1931.1667
  0
LINE
  8
0-2
  6
CONTINUOUS
 62
    3
 10
848.84496
 20
1931.1667
 11
849.51844
 21
1931.3686
  0
LINE
  8
0-2
  6
CONTINUOUS
 62
    3
 10
849.51844
 20
1931.3686
 11
850.15034
 21
1931.6981
  0
LINE
  8
0-2
  6
CONTINUOUS
 62
    3
 10
850.15034
 20
1931.6981
 11
850.72148
 21
1932.1454
  0
LINE
  8
0-2
  6
CONTINUOUS
 62
    3
 10
850.72148
 20
1932.1454
 11
851.2145
 21
1932.6968
  0
LINE
  8
0-2
  6
CONTINUOUS
 62
    3
 10
851.2145
 20
1932.6968
 11
851.61442
 21
1933.3356
  0
LINE
  8
0-2
  6
CONTINUOUS
 62
    3
 10
851.61442
 20
1933.3356
 11
851.90908
 21
1934.0424
  0
LINE
  8
0-2
  6
CONTINUOUS
 62
    3
 10
851.90908
 20
1934.0424
 11
852.08954
 21
1934.7956
  0
LINE
  8
0-2
  6
CONTINUOUS
 62
    3
 10
852.08954
 20
1934.7956
 11
852.1503
 21
1935.5725
  0
LINE
  8
0-2
  6
CONTINUOUS
 62
    3
 10
852.1503
 20
1882.1292
 11
852.08954
 21
1882.906
  0
LINE
  8
0-2
  6
CONTINUOUS
 62
    3
 10
852.08954
 20
1882.906
 11
851.90908
 21
1883.6592
  0
LINE
  8
0-2
  6
CONTINUOUS
 62
    3
 10
851.90908
 20
1883.6592
 11
851.61442
 21
1884.366
  0
LINE
  8
0-2
  6
CONTINUOUS
 62
    3
 10
851.61442
 20
1884.366
 11
851.2145
 21
1885.0048
  0
LINE
  8
0-2
  6
CONTINUOUS
 62
    3
 10
851.2145
 20
1885.0048
 11
850.72148
 21
1885.5562
  0
LINE
  8
0-2
  6
CONTINUOUS
 62
    3
 10
850.72148
 20
1885.5562
 11
850.15034
 21
1886.0035
  0
LINE
  8
0-2
  6
CONTINUOUS
 62
    3
 10
850.15034
 20
1886.0035
 11
849.51844
 21
1886.333
  0
LINE
  8
0-2
  6
CONTINUOUS
 62
    3
 10
849.51844
 20
1886.333
 11
848.84496
 21
1886.5349
  0
LINE
  8
0-2
  6
CONTINUOUS
 62
    3
 10
848.84496
 20
1886.5349
 11
848.15038
 21
1886.6028
  0
LINE
  8
0-2
  6
CONTINUOUS
 62
    3
 10
848.15038
 20
1886.6028
 11
847.45581
 21
1886.5349
  0
LINE
  8
0-2
  6
CONTINUOUS
 62
    3
 10
847.45581
 20
1886.5349
 11
846.78233
 21
1886.333
  0
LINE
  8
0-2
  6
CONTINUOUS
 62
    3
 10
846.78233
 20
1886.333
 11
846.15042
 21
1886.0035
  0
LINE
  8
0-2
  6
CONTINUOUS
 62
    3
 10
846.15042
 20
1886.0035
 11
845.57929
 21
1885.5562
  0
LINE
  8
0-2
  6
CONTINUOUS
 62
    3
 10
845.57929
 20
1885.5562
 11
845.08627
 21
1885.0048
  0
LINE
  8
0-2
  6
CONTINUOUS
 62
    3
 10
845.08627
 20
1885.0048
 11
844.68635
 21
1884.366
  0
LINE
  8
0-2
  6
CONTINUOUS
 62
    3
 10
844.68635
 20
1884.366
 11
844.39169
 21
1883.6592
  0
LINE
  8
0-2
  6
CONTINUOUS
 62
    3
 10
844.39169
 20
1883.6592
 11
844.21123
 21
1882.906
  0
LINE
  8
0-2
  6
CONTINUOUS
 62
    3
 10
844.21123
 20
1882.906
 11
844.15046
 21
1882.1292
  0
LINE
  8
0-2
  6
CONTINUOUS
 62
    3
 10
844.15046
 20
1882.1292
 11
844.21123
 21
1881.3523
  0
LINE
  8
0-2
  6
CONTINUOUS
 62
    3
 10
844.21123
 20
1881.3523
 11
844.39169
 21
1880.5991
  0
LINE
  8
0-2
  6
CONTINUOUS
 62
    3
 10
844.39169
 20
1880.5991
 11
844.68635
 21
1879.8923
  0
LINE
  8
0-2
  6
CONTINUOUS
 62
    3
 10
844.68635
 20
1879.8923
 11
845.08627
 21
1879.2535
  0
LINE
  8
0-2
  6
CONTINUOUS
 62
    3
 10
845.08627
 20
1879.2535
 11
845.57929
 21
1878.7021
  0
LINE
  8
0-2
  6
CONTINUOUS
 62
    3
 10
845.57929
 20
1878.7021
 11
846.15042
 21
1878.2548
  0
LINE
  8
0-2
  6
CONTINUOUS
 62
    3
 10
846.15042
 20
1878.2548
 11
846.78233
 21
1877.9253
  0
LINE
  8
0-2
  6
CONTINUOUS
 62
    3
 10
846.78233
 20
1877.9253
 11
847.45581
 21
1877.7234
  0
LINE
  8
0-2
  6
CONTINUOUS
 62
    3
 10
847.45581
 20
1877.7234
 11
848.15038
 21
1877.6555
  0
LINE
  8
0-2
  6
CONTINUOUS
 62
    3
 10
848.15038
 20
1877.6555
 11
848.84496
 21
1877.7234
  0
LINE
  8
0-2
  6
CONTINUOUS
 62
    3
 10
848.84496
 20
1877.7234
 11
849.51844
 21
1877.9253
  0
LINE
  8
0-2
  6
CONTINUOUS
 62
    3
 10
849.51844
 20
1877.9253
 11
850.15034
 21
1878.2548
  0
LINE
  8
0-2
  6
CONTINUOUS
 62
    3
 10
850.15034
 20
1878.2548
 11
850.72148
 21
1878.7021
  0
LINE
  8
0-2
  6
CONTINUOUS
 62
    3
 10
850.72148
 20
1878.7021
 11
851.2145
 21
1879.2535
  0
LINE
  8
0-2
  6
CONTINUOUS
 62
    3
 10
851.2145
 20
1879.2535
 11
851.61442
 21
1879.8923
  0
LINE
  8
0-2
  6
CONTINUOUS
 62
    3
 10
851.61442
 20
1879.8923
 11
851.90908
 21
1880.5991
  0
LINE
  8
0-2
  6
CONTINUOUS
 62
    3
 10
851.90908
 20
1880.5991
 11
852.08954
 21
1881.3523
  0
LINE
  8
0-2
  6
CONTINUOUS
 62
    3
 10
852.08954
 20
1881.3523
 11
852.1503
 21
1882.1292
  0
LINE
  8
0-2
  6
CONTINUOUS
 62
    3
 10
1036.3252
 20
1778.397
 11
1035.976
 21
1779.6977
  0
LINE
  8
0-2
  6
CONTINUOUS
 62
    3
 10
1035.976
 20
1779.6977
 11
1035.4301
 21
1780.9107
  0
LINE
  8
0-2
  6
CONTINUOUS
 62
    3
 10
1035.4301
 20
1780.9107
 11
1034.7041
 21
1781.9994
  0
LINE
  8
0-2
  6
CONTINUOUS
 62
    3
 10
1034.7041
 20
1781.9994
 11
1033.8202
 21
1782.9305
  0
LINE
  8
0-2
  6
CONTINUOUS
 62
    3
 10
1033.8202
 20
1782.9305
 11
1032.8052
 21
1783.6758
  0
LINE
  8
0-2
  6
CONTINUOUS
 62
    3
 10
1032.8052
 20
1783.6758
 11
1031.6898
 21
1784.2126
  0
LINE
  8
0-2
  6
CONTINUOUS
 62
    3
 10
1031.6898
 20
1784.2126
 11
1030.5081
 21
1784.5246
  0
LINE
  8
0-2
  6
CONTINUOUS
 62
    3
 10
1030.5081
 20
1784.5246
 11
1029.2958
 21
1784.6024
  0
LINE
  8
0-2
  6
CONTINUOUS
 62
    3
 10
1029.2958
 20
1784.6024
 11
1028.0899
 21
1784.4436
  0
LINE
  8
0-2
  6
CONTINUOUS
 62
    3
 10
1028.0899
 20
1784.4436
 11
1026.927
 21
1784.053
  0
LINE
  8
0-2
  6
CONTINUOUS
 62
    3
 10
1026.927
 20
1784.053
 11
1025.8424
 21
1783.4424
  0
LINE
  8
0-2
  6
CONTINUOUS
 62
    3
 10
1025.8424
 20
1783.4424
 11
1024.869
 21
1782.6305
  0
LINE
  8
0-2
  6
CONTINUOUS
 62
    3
 10
1024.869
 20
1782.6305
 11
1024.0365
 21
1781.6419
  0
LINE
  8
0-2
  6
CONTINUOUS
 62
    3
 10
1024.0365
 20
1781.6419
 11
1023.3702
 21
1780.5066
  0
LINE
  8
0-2
  6
CONTINUOUS
 62
    3
 10
1023.3702
 20
1780.5066
 11
1022.8902
 21
1779.2591
  0
LINE
  8
0-2
  6
CONTINUOUS
 62
    3
 10
1022.8902
 20
1779.2591
 11
1022.6837
 21
1778.397
  0
LINE
  8
0-2
  6
CONTINUOUS
 62
    3
 10
903.28993
 20
1765.267
 11
903.22916
 21
1766.0439
  0
LINE
  8
0-2
  6
CONTINUOUS
 62
    3
 10
903.22916
 20
1766.0439
 11
903.04871
 21
1766.7971
  0
LINE
  8
0-2
  6
CONTINUOUS
 62
    3
 10
903.04871
 20
1766.7971
 11
902.75404
 21
1767.5039
  0
LINE
  8
0-2
  6
CONTINUOUS
 62
    3
 10
902.75404
 20
1767.5039
 11
902.35413
 21
1768.1427
  0
LINE
  8
0-2
  6
CONTINUOUS
 62
    3
 10
902.35413
 20
1768.1427
 11
901.86111
 21
1768.6941
  0
LINE
  8
0-2
  6
CONTINUOUS
 62
    3
 10
901.86111
 20
1768.6941
 11
901.28997
 21
1769.1414
  0
LINE
  8
0-2
  6
CONTINUOUS
 62
    3
 10
901.28997
 20
1769.1414
 11
900.65807
 21
1769.4709
  0
LINE
  8
0-2
  6
CONTINUOUS
 62
    3
 10
900.65807
 20
1769.4709
 11
899.98459
 21
1769.6728
  0
LINE
  8
0-2
  6
CONTINUOUS
 62
    3
 10
899.98459
 20
1769.6728
 11
899.29001
 21
1769.7407
  0
LINE
  8
0-2
  6
CONTINUOUS
 62
    3
 10
899.29001
 20
1769.7407
 11
898.59543
 21
1769.6728
  0
LINE
  8
0-2
  6
CONTINUOUS
 62
    3
 10
898.59543
 20
1769.6728
 11
897.92196
 21
1769.4709
  0
LINE
  8
0-2
  6
CONTINUOUS
 62
    3
 10
897.92196
 20
1769.4709
 11
897.29005
 21
1769.1414
  0
LINE
  8
0-2
  6
CONTINUOUS
 62
    3
 10
897.29005
 20
1769.1414
 11
896.71891
 21
1768.6941
  0
LINE
  8
0-2
  6
CONTINUOUS
 62
    3
 10
896.71891
 20
1768.6941
 11
896.2259
 21
1768.1427
  0
LINE
  8
0-2
  6
CONTINUOUS
 62
    3
 10
896.2259
 20
1768.1427
 11
895.82598
 21
1767.5039
  0
LINE
  8
0-2
  6
CONTINUOUS
 62
    3
 10
895.82598
 20
1767.5039
 11
895.53132
 21
1766.7971
  0
LINE
  8
0-2
  6
CONTINUOUS
 62
    3
 10
895.53132
 20
1766.7971
 11
895.35086
 21
1766.0439
  0
LINE
  8
0-2
  6
CONTINUOUS
 62
    3
 10
895.35086
 20
1766.0439
 11
895.29009
 21
1765.267
  0
LINE
  8
0-2
  6
CONTINUOUS
 62
    3
 10
895.29009
 20
1765.267
 11
895.35086
 21
1764.4902
  0
LINE
  8
0-2
  6
CONTINUOUS
 62
    3
 10
895.35086
 20
1764.4902
 11
895.53132
 21
1763.7369
  0
LINE
  8
0-2
  6
CONTINUOUS
 62
    3
 10
895.53132
 20
1763.7369
 11
895.82598
 21
1763.0302
  0
LINE
  8
0-2
  6
CONTINUOUS
 62
    3
 10
895.82598
 20
1763.0302
 11
896.2259
 21
1762.3914
  0
LINE
  8
0-2
  6
CONTINUOUS
 62
    3
 10
896.2259
 20
1762.3914
 11
896.71891
 21
1761.84
  0
LINE
  8
0-2
  6
CONTINUOUS
 62
    3
 10
896.71891
 20
1761.84
 11
897.29005
 21
1761.3927
  0
LINE
  8
0-2
  6
CONTINUOUS
 62
    3
 10
897.29005
 20
1761.3927
 11
897.92196
 21
1761.0631
  0
LINE
  8
0-2
  6
CONTINUOUS
 62
    3
 10
897.92196
 20
1761.0631
 11
898.59543
 21
1760.8613
  0
LINE
  8
0-2
  6
CONTINUOUS
 62
    3
 10
898.59543
 20
1760.8613
 11
899.29001
 21
1760.7934
  0
LINE
  8
0-2
  6
CONTINUOUS
 62
    3
 10
899.29001
 20
1760.7934
 11
899.98459
 21
1760.8613
  0
LINE
  8
0-2
  6
CONTINUOUS
 62
    3
 10
899.98459
 20
1760.8613
 11
900.65807
 21
1761.0631
  0
LINE
  8
0-2
  6
CONTINUOUS
 62
    3
 10
900.65807
 20
1761.0631
 11
901.28997
 21
1761.3927
  0
LINE
  8
0-2
  6
CONTINUOUS
 62
    3
 10
901.28997
 20
1761.3927
 11
901.86111
 21
1761.84
  0
LINE
  8
0-2
  6
CONTINUOUS
 62
    3
 10
901.86111
 20
1761.84
 11
902.35413
 21
1762.3914
  0
LINE
  8
0-2
  6
CONTINUOUS
 62
    3
 10
902.35413
 20
1762.3914
 11
902.75404
 21
1763.0302
  0
LINE
  8
0-2
  6
CONTINUOUS
 62
    3
 10
902.75404
 20
1763.0302
 11
903.04871
 21
1763.7369
  0
LINE
  8
0-2
  6
CONTINUOUS
 62
    3
 10
903.04871
 20
1763.7369
 11
903.22916
 21
1764.4902
  0
LINE
  8
0-2
  6
CONTINUOUS
 62
    3
 10
903.22916
 20
1764.4902
 11
903.28993
 21
1765.267
  0
LINE
  8
0-2
  6
CONTINUOUS
 62
    3
 10
903.28993
 20
1679.1595
 11
903.22916
 21
1679.9363
  0
LINE
  8
0-2
  6
CONTINUOUS
 62
    3
 10
903.22916
 20
1679.9363
 11
903.04871
 21
1680.6895
  0
LINE
  8
0-2
  6
CONTINUOUS
 62
    3
 10
903.04871
 20
1680.6895
 11
902.75404
 21
1681.3963
  0
LINE
  8
0-2
  6
CONTINUOUS
 62
    3
 10
902.75404
 20
1681.3963
 11
902.35413
 21
1682.0351
  0
LINE
  8
0-2
  6
CONTINUOUS
 62
    3
 10
902.35413
 20
1682.0351
 11
901.86111
 21
1682.5865
  0
LINE
  8
0-2
  6
CONTINUOUS
 62
    3
 10
901.86111
 20
1682.5865
 11
901.28997
 21
1683.0338
  0
LINE
  8
0-2
  6
CONTINUOUS
 62
    3
 10
901.28997
 20
1683.0338
 11
900.65807
 21
1683.3633
  0
LINE
  8
0-2
  6
CONTINUOUS
 62
    3
 10
900.65807
 20
1683.3633
 11
899.98459
 21
1683.5652
  0
LINE
  8
0-2
  6
CONTINUOUS
 62
    3
 10
899.98459
 20
1683.5652
 11
899.29001
 21
1683.6331
  0
LINE
  8
0-2
  6
CONTINUOUS
 62
    3
 10
899.29001
 20
1683.6331
 11
898.59543
 21
1683.5652
  0
LINE
  8
0-2
  6
CONTINUOUS
 62
    3
 10
898.59543
 20
1683.5652
 11
897.92196
 21
1683.3633
  0
LINE
  8
0-2
  6
CONTINUOUS
 62
    3
 10
897.92196
 20
1683.3633
 11
897.29005
 21
1683.0338
  0
LINE
  8
0-2
  6
CONTINUOUS
 62
    3
 10
897.29005
 20
1683.0338
 11
896.71891
 21
1682.5865
  0
LINE
  8
0-2
  6
CONTINUOUS
 62
    3
 10
896.71891
 20
1682.5865
 11
896.2259
 21
1682.0351
  0
LINE
  8
0-2
  6
CONTINUOUS
 62
    3
 10
896.2259
 20
1682.0351
 11
895.82598
 21
1681.3963
  0
LINE
  8
0-2
  6
CONTINUOUS
 62
    3
 10
895.82598
 20
1681.3963
 11
895.53132
 21
1680.6895
  0
LINE
  8
0-2
  6
CONTINUOUS
 62
    3
 10
895.53132
 20
1680.6895
 11
895.35086
 21
1679.9363
  0
LINE
  8
0-2
  6
CONTINUOUS
 62
    3
 10
895.35086
 20
1679.9363
 11
895.29009
 21
1679.1595
  0
LINE
  8
0-2
  6
CONTINUOUS
 62
    3
 10
895.29009
 20
1679.1595
 11
895.35086
 21
1678.3826
  0
LINE
  8
0-2
  6
CONTINUOUS
 62
    3
 10
895.35086
 20
1678.3826
 11
895.53132
 21
1677.6294
  0
LINE
  8
0-2
  6
CONTINUOUS
 62
    3
 10
895.53132
 20
1677.6294
 11
895.82598
 21
1676.9226
  0
LINE
  8
0-2
  6
CONTINUOUS
 62
    3
 10
895.82598
 20
1676.9226
 11
896.2259
 21
1676.2838
  0
LINE
  8
0-2
  6
CONTINUOUS
 62
    3
 10
896.2259
 20
1676.2838
 11
896.71891
 21
1675.7324
  0
LINE
  8
0-2
  6
CONTINUOUS
 62
    3
 10
896.71891
 20
1675.7324
 11
897.29005
 21
1675.2851
  0
LINE
  8
0-2
  6
CONTINUOUS
 62
    3
 10
897.29005
 20
1675.2851
 11
897.92196
 21
1674.9556
  0
LINE
  8
0-2
  6
CONTINUOUS
 62
    3
 10
897.92196
 20
1674.9556
 11
898.59543
 21
1674.7537
  0
LINE
  8
0-2
  6
CONTINUOUS
 62
    3
 10
898.59543
 20
1674.7537
 11
899.29001
 21
1674.6858
  0
LINE
  8
0-2
  6
CONTINUOUS
 62
    3
 10
899.29001
 20
1674.6858
 11
899.98459
 21
1674.7537
  0
LINE
  8
0-2
  6
CONTINUOUS
 62
    3
 10
899.98459
 20
1674.7537
 11
900.65807
 21
1674.9556
  0
LINE
  8
0-2
  6
CONTINUOUS
 62
    3
 10
900.65807
 20
1674.9556
 11
901.28997
 21
1675.2851
  0
LINE
  8
0-2
  6
CONTINUOUS
 62
    3
 10
901.28997
 20
1675.2851
 11
901.86111
 21
1675.7324
  0
LINE
  8
0-2
  6
CONTINUOUS
 62
    3
 10
901.86111
 20
1675.7324
 11
902.35413
 21
1676.2838
  0
LINE
  8
0-2
  6
CONTINUOUS
 62
    3
 10
902.35413
 20
1676.2838
 11
902.75404
 21
1676.9226
  0
LINE
  8
0-2
  6
CONTINUOUS
 62
    3
 10
902.75404
 20
1676.9226
 11
903.04871
 21
1677.6294
  0
LINE
  8
0-2
  6
CONTINUOUS
 62
    3
 10
903.04871
 20
1677.6294
 11
903.22916
 21
1678.3826
  0
LINE
  8
0-2
  6
CONTINUOUS
 62
    3
 10
903.22916
 20
1678.3826
 11
903.28993
 21
1679.1595
  0
ARC
  8
0-2
  6
CONTINUOUS
 62
    3
 10
1330.1072
 20
1886.906
 40
5.0011679
 50
268.77102
 51
91.228973
  0
ARC
  8
0-2
  6
CONTINUOUS
 62
    3
 10
1330.1072
 20
2227.6751
 40
5.0011679
 50
268.77102
 51
91.228973
  0
ARC
  8
0-3
  6
CONTINUOUS
 62
    7
 10
1260.1075
 20
1886.906
 40
5.0011679
 50
268.77102
 51
91.228973
  0
TEXT
  8
0-d
 10
254.9998
 20
157.4999
 40
25
 41
1
 50
0
  1
図
  0
TEXT
  8
0-d
 10
254.9998
 20
97.499963
 40
25
 41
1
 50
0
  1
番
  0
TEXT
  8
0-d
 10
655.00046
 20
157.4999
 40
25
 41
1
 50
0
  1
承
  0
TEXT
  8
0-d
 10
655.00046
 20
97.499963
 40
25
 41
1
 50
0
  1
認
  0
TEXT
  8
0-d
 10
1020.0003
 20
237.49994
 40
25
 41
1
 50
0
  1
尺
  0
TEXT
  8
0-d
 10
1020.0003
 20
197.49978
 40
25
 41
1
 50
0.0000762
  1
度
  0
TEXT
  8
0-d
 10
855.00014
 20
157.4999
 40
25
 41
1
 50
0
  1
製
  0
TEXT
  8
0-d
 10
855.00014
 20
97.499963
 40
25
 41
1
 50
0
  1
図
  0
TEXT
  8
0-d
 10
1555.0001
 20
237.49994
 40
25
 41
1
 50
0
  1
日
  0
TEXT
  8
0-d
 10
1555.0001
 20
197.49978
 40
25
 41
1
 50
0.0000762
  1
付
  0
TEXT
  8
0-d
 10
1111.4263
 20
163.48226
 40
20
 41
1
 50
0
  1
株式
  0
TEXT
  8
0-d
 10
1111.4263
 20
141.85179
 40
20
 41
1
 50
0.0000152
  1
会社
  0
TEXT
  8
0-d
 10
1174.2247
 20
143.24712
 40
40
 41
1
 50
0
  1
スズキベンチレーター
  0
TEXT
  8
0-d
 10
1237.9182
 20
94.024183
 40
20
 41
1
 50
0
  1
TEL(054)296-7000  FAX(054)296-7001
  0
TEXT
  8
0-d
 10
1084.349
 20
210.10065
 40
40
 41
1
 50
0
  1
１／１０
  0
TEXT
  8
0-8
 10
1007.3759
 20
2598.8816
 40
30
 41
1
 50
0
  1
680φ
  0
TEXT
  8
0-8
 10
574.00041
 20
1997.9802
 40
30
 41
1
 50
90
  1
850
  0
TEXT
  8
0-8
 10
996.81199
 20
1508.6445
 40
30
 41
1
 50
0
  1
415φ
  0
TEXT
  8
0-d
 10
1382.3454
 20
1693.7875
 40
30
 41
1
 50
0
  1
網、水平付け
  0
TEXT
  8
0-d
 10
308.45927
 20
140.30214
 40
30
 41
1
 50
0
  1
40-B10c
  0
TEXT
  8
0-d
 10
255.00005
 20
2776.1895
 40
50
 41
1
 50
0
  1
ＡＳ－４００　自然回転  直付型（網付）断面
  0
TEXT
  8
0-d
 10
260.84368
 20
210.88021
 40
30
 41
1
 50
0
  1
ＡＳ－４００　自然回転  直付型（網付）断面
  0
TEXT
  8
0-d
 10
1235.6792
 20
118.64593
 40
20
 41
1
 50
0
  1
〒421-2114　静岡市葵区安倍口新田１５２番地
  0
POINT
  8
0-8
 62
    2
 10
710.00002
 20
2587.0369
  0
POINT
  8
0-8
 62
    2
 10
1390
 20
2587.0369
  0
POINT
  8
0-8
 62
    2
 10
580.00033
 20
1606.9055
  0
POINT
  8
0-8
 62
    2
 10
580.00033
 20
2456.9063
  0
POINT
  8
0-8
 62
    2
 10
580.00033
 20
1606.906
  0
POINT
  8
0-8
 62
    2
 10
840.00021
 20
1506.3882
  0
POINT
  8
0-8
 62
    2
 10
1260.0001
 20
1506.3881
  0
POINT
  8
0-d
 62
    2
 10
1197.4174
 20
1756.9707
  0
ENDSEC
  0
EOF
