  0
SECTION
  2
HEADER
  9
$EXTMIN
 10
0
 20
0
  9
$EXTMAX
 10
4200
 20
2970
  0
ENDSEC
  0
SECTION
  2
TABLES
  0
TABLE
  2
LTYPE
 70
     9
  0
LTYPE
  2
CONTINUOUS
 70
    64
  3
実線
 72
    65
 73
     0
 40
0.0
  0
LTYPE
  2
DASHED1
 70
    64
  3
--  --  --  --  --  --  --  --  
 72
    65
 73
     2
 40
2.5
 49
1.25
 49
-1.25
  0
LTYPE
  2
DASHED2
 70
    64
  3
----    ----    ----    ----    
 72
    65
 73
     2
 40
5.0
 49
2.5
 49
-2.5
  0
LTYPE
  2
DASHED3
 70
    64
  3
------  ------  ------  ------  
 72
    65
 73
     2
 40
5.0
 49
3.75
 49
-1.25
  0
LTYPE
  2
CENTER1
 70
    64
  3
----- - ----- - ----- - ----- - 
 72
    65
 73
     4
 40
10.0
 49
6.25
 49
-1.25
 49
1.25
 49
-1.25
  0
LTYPE
  2
CENTER2
 70
    64
  3
----------  --  ----------  --  
 72
    65
 73
     4
 40
20.0
 49
12.5
 49
-2.5
 49
2.5
 49
-2.5
  0
LTYPE
  2
PHANTOM1
 70
    64
  3
--- - - --- - - --- - - --- - - 
 72
    65
 73
     6
 40
10.0
 49
3.25
 49
-1.25
 49
1.25
 49
-1.25
 49
1.25
 49
-1.25
  0
LTYPE
  2
PHANTOM2
 70
    64
  3
--------  -  -  --------  -  -  
 72
    65
 73
     6
 40
20.0
 49
10.0
 49
-2.5
 49
1.25
 49
-2.5
 49
1.25
 49
-2.5
  0
LTYPE
  2
DOT
 70
    64
  3
-   -   -   -   -   -   -   -   
 72
    65
 73
     2
 40
2.5
 49
0.625
 49
-1.875
  0
ENDTAB
  0
TABLE
  2
STYLE
 70
    1
  0
STYLE
  2
STANDARD
 70
    64
 40
0.0
 41
1.0
 42
0.0
 50
0.0
 71
     0
  3
TXT
  4
BIGFONT
  0
ENDTAB
  0
TABLE
  2
LAYER
 70
    6
  0
LAYER
  2
1-1
 70
   64
 62
    7
  6
CONTINUOUS
  0
LAYER
  2
1-2
 70
   64
 62
    7
  6
CONTINUOUS
  0
LAYER
  2
1-5
 70
   64
 62
    7
  6
CONTINUOUS
  0
LAYER
  2
1-8
 70
   64
 62
    7
  6
CONTINUOUS
  0
LAYER
  2
1-d
 70
   64
 62
    7
  6
CONTINUOUS
  0
LAYER
  2
ADD_LINE
 70
   64
 62
    7
  6
CONTINUOUS
  0
ENDTAB
  0
ENDSEC
  0
SECTION
  2
ENTITIES
  0
LINE
  8
1-d
  6
CONTINUOUS
 62
    7
 10
250.00004
 20
2757.7013
 11
1850.0001
 21
2757.7013
  0
LINE
  8
1-d
  6
CONTINUOUS
 62
    7
 10
250.00004
 20
2767.7016
 11
1850.0001
 21
2767.7016
  0
LINE
  8
1-d
  6
CONTINUOUS
 62
    7
 10
249.99967
 20
189.99989
 11
1850.0003
 21
189.99989
  0
LINE
  8
1-d
  6
CONTINUOUS
 62
    7
 10
249.99967
 20
89.999806
 11
249.99967
 21
269.99991
  0
LINE
  8
1-d
  6
CONTINUOUS
 62
    7
 10
249.99967
 20
89.999806
 11
1850.0003
 21
89.999806
  0
LINE
  8
1-d
  6
CONTINUOUS
 62
    7
 10
1850.0003
 20
269.99991
 11
1850.0003
 21
89.999806
  0
LINE
  8
1-d
  6
CONTINUOUS
 62
    7
 10
249.99967
 20
269.99991
 11
1850.0003
 21
269.99991
  0
LINE
  8
1-d
  6
CONTINUOUS
 62
    7
 10
1050
 20
269.99991
 11
1050
 21
89.999806
  0
LINE
  8
1-d
  6
CONTINUOUS
 62
    7
 10
650.00019
 20
89.999806
 11
650.00019
 21
189.99989
  0
LINE
  8
1-d
  6
CONTINUOUS
 62
    7
 10
1050
 20
189.99989
 11
1050
 21
269.99991
  0
LINE
  8
1-d
  6
CONTINUOUS
 62
    7
 10
849.99975
 20
89.999806
 11
849.99975
 21
189.99989
  0
LINE
  8
1-d
  6
CONTINUOUS
 62
    7
 10
285.00002
 20
89.999806
 11
285.00002
 21
189.99989
  0
LINE
  8
1-d
  6
CONTINUOUS
 62
    7
 10
685.00006
 20
89.999806
 11
685.00006
 21
189.99989
  0
LINE
  8
1-d
  6
CONTINUOUS
 62
    7
 10
885.00011
 20
89.999806
 11
885.00011
 21
189.99989
  0
LINE
  8
1-d
  6
CONTINUOUS
 62
    7
 10
1015
 20
189.99989
 11
1015
 21
269.99991
  0
LINE
  8
1-d
  6
CONTINUOUS
 62
    7
 10
1550.0004
 20
189.99989
 11
1550.0004
 21
269.99991
  0
LINE
  8
1-d
  6
CONTINUOUS
 62
    7
 10
1585.0002
 20
189.99989
 11
1585.0002
 21
269.99991
  0
LINE
  8
1-8
  6
CONTINUOUS
 62
    7
 10
437.91889
 20
1596.459
 11
250.00096
 21
1596.459
  0
LINE
  8
1-8
  6
CONTINUOUS
 62
    7
 10
525.00015
 20
2583.3394
 11
1575.0004
 21
2583.3394
  0
LINE
  8
1-2
  6
CONTINUOUS
 62
    3
 10
524.9999
 20
1888.5408
 11
524.9999
 21
1851.4581
  0
LINE
  8
1-8
  6
CONTINUOUS
 62
    7
 10
525.00015
 20
2463.1259
 11
525.00015
 21
2583.3394
  0
LINE
  8
1-8
  6
CONTINUOUS
 62
    7
 10
1575.0004
 20
2463.1259
 11
1575.0004
 21
2583.3394
  0
LINE
  8
1-2
  6
CONTINUOUS
 62
    3
 10
1574.9984
 20
1888.5412
 11
1574.9984
 21
1851.4582
  0
LINE
  8
1-2
  6
CONTINUOUS
 62
    3
 10
525.00015
 20
2358.1261
 11
525.00015
 21
2321.043
  0
LINE
  8
1-2
  6
CONTINUOUS
 62
    3
 10
1574.9989
 20
2358.1266
 11
1574.9989
 21
2321.0435
  0
LINE
  8
1-2
  6
CONTINUOUS
 62
    3
 10
524.9999
 20
2299.3772
 11
524.9999
 21
1910.207
  0
LINE
  8
1-2
  6
CONTINUOUS
 62
    3
 10
1575.0004
 20
2299.3777
 11
1575.0004
 21
1910.2076
  0
LINE
  8
1-8
  6
CONTINUOUS
 62
    7
 10
437.91889
 20
2529.7924
 11
250.00096
 21
2529.7924
  0
LINE
  8
1-2
  6
CONTINUOUS
 62
    3
 10
1050.0001
 20
2529.7924
 11
790.19329
 21
2379.7927
  0
LINE
  8
1-2
  6
CONTINUOUS
 62
    3
 10
525.00015
 20
2379.7924
 11
1050.0001
 21
2379.7927
  0
LINE
  8
1-2
  6
CONTINUOUS
 62
    3
 10
525.00015
 20
2358.1261
 11
1050.0001
 21
2358.1263
  0
LINE
  8
1-2
  6
CONTINUOUS
 62
    3
 10
525.00015
 20
2321.0435
 11
1050.0001
 21
2321.0435
  0
LINE
  8
1-2
  6
CONTINUOUS
 62
    3
 10
525.00015
 20
2299.3772
 11
1050.0001
 21
2299.3774
  0
LINE
  8
1-2
  6
CONTINUOUS
 62
    3
 10
524.9999
 20
1910.207
 11
1050.0001
 21
1910.2075
  0
LINE
  8
1-2
  6
CONTINUOUS
 62
    3
 10
524.9999
 20
1888.5408
 11
1050.0001
 21
1888.5411
  0
LINE
  8
1-2
  6
CONTINUOUS
 62
    3
 10
524.9999
 20
1851.4582
 11
1050.0001
 21
1851.4585
  0
LINE
  8
1-2
  6
CONTINUOUS
 62
    3
 10
524.9999
 20
1829.7922
 11
1050.0001
 21
1829.7924
  0
LINE
  8
1-2
  6
CONTINUOUS
 62
    3
 10
1395.8337
 20
1829.7924
 11
1575.0004
 21
1829.7924
  0
LINE
  8
1-2
  6
CONTINUOUS
 62
    3
 10
1395.8337
 20
1851.4587
 11
1575.0004
 21
1851.4587
  0
LINE
  8
1-2
  6
CONTINUOUS
 62
    3
 10
1395.8337
 20
1888.5412
 11
1575.0004
 21
1888.5412
  0
LINE
  8
1-2
  6
CONTINUOUS
 62
    3
 10
1395.8337
 20
1910.2075
 11
1575.0004
 21
1910.2076
  0
LINE
  8
1-2
  6
CONTINUOUS
 62
    3
 10
1395.8337
 20
2330.125
 11
1050.0001
 21
2330.125
  0
LINE
  8
1-2
  6
CONTINUOUS
 62
    3
 10
1395.8337
 20
2221.7919
 11
1050.0001
 21
2221.7919
  0
LINE
  8
1-2
  6
CONTINUOUS
 62
    3
 10
1395.8337
 20
2213.4584
 11
1050.0001
 21
2213.4584
  0
LINE
  8
1-2
  6
CONTINUOUS
 62
    3
 10
1309.8073
 20
2379.7927
 11
1575.0004
 21
2379.7927
  0
LINE
  8
1-2
  6
CONTINUOUS
 62
    3
 10
1347.334
 20
2358.1263
 11
1575.0004
 21
2358.1266
  0
LINE
  8
1-2
  6
CONTINUOUS
 62
    3
 10
1411.5629
 20
2321.0438
 11
1575.0004
 21
2321.0438
  0
LINE
  8
1-2
  6
CONTINUOUS
 62
    3
 10
1449.0897
 20
2299.3777
 11
1575.0004
 21
2299.3777
  0
LINE
  8
1-2
  6
CONTINUOUS
 62
    3
 10
1050.0001
 20
2529.7924
 11
1485.5361
 21
2278.3354
  0
LINE
  8
1-2
  6
CONTINUOUS
 62
    3
 10
1485.5361
 20
2278.3354
 11
1395.8337
 21
2278.3354
  0
LINE
  8
1-5
  6
CONTINUOUS
 62
    4
 10
1395.8337
 20
2325.1253
 11
1050.0001
 21
2325.1253
  0
LINE
  8
1-5
  6
CONTINUOUS
 62
    4
 10
1395.8337
 20
2320.125
 11
1050.0001
 21
2320.125
  0
LINE
  8
1-5
  6
CONTINUOUS
 62
    4
 10
1395.8337
 20
2315.1252
 11
1050.0001
 21
2315.1252
  0
LINE
  8
1-5
  6
CONTINUOUS
 62
    4
 10
1395.8337
 20
2310.1252
 11
1050.0001
 21
2310.1252
  0
LINE
  8
1-5
  6
CONTINUOUS
 62
    4
 10
1395.8337
 20
2305.1252
 11
1050.0001
 21
2305.1252
  0
LINE
  8
1-5
  6
CONTINUOUS
 62
    4
 10
1395.8337
 20
2300.1252
 11
1050.0001
 21
2300.1252
  0
LINE
  8
1-5
  6
CONTINUOUS
 62
    4
 10
1395.8337
 20
2295.1252
 11
1050.0001
 21
2295.1252
  0
LINE
  8
1-5
  6
CONTINUOUS
 62
    4
 10
1395.8337
 20
2290.1252
 11
1050.0001
 21
2290.1252
  0
LINE
  8
1-5
  6
CONTINUOUS
 62
    4
 10
1395.8337
 20
2285.1251
 11
1050.0001
 21
2285.1251
  0
LINE
  8
1-5
  6
CONTINUOUS
 62
    4
 10
1395.8337
 20
2280.1251
 11
1050.0001
 21
2280.1251
  0
LINE
  8
1-5
  6
CONTINUOUS
 62
    4
 10
1395.8337
 20
2275.1251
 11
1050.0001
 21
2275.1251
  0
LINE
  8
1-5
  6
CONTINUOUS
 62
    4
 10
1395.8337
 20
2270.1253
 11
1050.0001
 21
2270.1253
  0
LINE
  8
1-5
  6
CONTINUOUS
 62
    4
 10
1395.8337
 20
2265.1251
 11
1050.0001
 21
2265.1251
  0
LINE
  8
1-5
  6
CONTINUOUS
 62
    4
 10
1395.8337
 20
2260.1253
 11
1050.0001
 21
2260.1253
  0
LINE
  8
1-5
  6
CONTINUOUS
 62
    4
 10
1395.8337
 20
2255.125
 11
1050.0001
 21
2255.125
  0
LINE
  8
1-5
  6
CONTINUOUS
 62
    4
 10
1395.8337
 20
2250.1253
 11
1050.0001
 21
2250.1253
  0
LINE
  8
1-5
  6
CONTINUOUS
 62
    4
 10
1395.8337
 20
2245.125
 11
1050.0001
 21
2245.125
  0
LINE
  8
1-5
  6
CONTINUOUS
 62
    4
 10
1395.8337
 20
2240.1252
 11
1050.0001
 21
2240.1252
  0
LINE
  8
1-5
  6
CONTINUOUS
 62
    4
 10
1395.8337
 20
2235.125
 11
1050.0001
 21
2235.125
  0
LINE
  8
1-5
  6
CONTINUOUS
 62
    4
 10
1395.8337
 20
2230.1252
 11
1050.0001
 21
2230.1252
  0
LINE
  8
1-5
  6
CONTINUOUS
 62
    4
 10
1395.8337
 20
2225.1252
 11
1050.0001
 21
2225.1252
  0
LINE
  8
1-5
  6
CONTINUOUS
 62
    4
 10
1390.8334
 20
2330.125
 11
1390.8334
 21
2221.7919
  0
LINE
  8
1-5
  6
CONTINUOUS
 62
    4
 10
1385.8336
 20
2330.125
 11
1385.8336
 21
2221.7919
  0
LINE
  8
1-5
  6
CONTINUOUS
 62
    4
 10
1380.8334
 20
2330.125
 11
1380.8334
 21
2221.7919
  0
LINE
  8
1-5
  6
CONTINUOUS
 62
    4
 10
1375.8336
 20
2330.125
 11
1375.8336
 21
2221.7919
  0
LINE
  8
1-5
  6
CONTINUOUS
 62
    4
 10
1370.8333
 20
2330.125
 11
1370.8333
 21
2221.7919
  0
LINE
  8
1-5
  6
CONTINUOUS
 62
    4
 10
1365.8336
 20
2330.125
 11
1365.8336
 21
2221.7919
  0
LINE
  8
1-5
  6
CONTINUOUS
 62
    4
 10
1360.8333
 20
2330.125
 11
1360.8333
 21
2221.7919
  0
LINE
  8
1-5
  6
CONTINUOUS
 62
    4
 10
1355.8335
 20
2330.125
 11
1355.8335
 21
2221.7919
  0
LINE
  8
1-5
  6
CONTINUOUS
 62
    4
 10
1350.8333
 20
2330.125
 11
1350.8333
 21
2221.7919
  0
LINE
  8
1-5
  6
CONTINUOUS
 62
    4
 10
1345.8335
 20
2330.125
 11
1345.8335
 21
2221.7919
  0
LINE
  8
1-5
  6
CONTINUOUS
 62
    4
 10
1340.8337
 20
2330.125
 11
1340.8337
 21
2221.7919
  0
LINE
  8
1-5
  6
CONTINUOUS
 62
    4
 10
1335.8335
 20
2330.125
 11
1335.8335
 21
2221.7919
  0
LINE
  8
1-5
  6
CONTINUOUS
 62
    4
 10
1330.8337
 20
2330.125
 11
1330.8337
 21
2221.7919
  0
LINE
  8
1-5
  6
CONTINUOUS
 62
    4
 10
1325.8334
 20
2330.125
 11
1325.8334
 21
2221.7919
  0
LINE
  8
1-5
  6
CONTINUOUS
 62
    4
 10
1320.8337
 20
2330.125
 11
1320.8337
 21
2221.7919
  0
LINE
  8
1-5
  6
CONTINUOUS
 62
    4
 10
1315.8334
 20
2330.125
 11
1315.8334
 21
2221.7919
  0
LINE
  8
1-5
  6
CONTINUOUS
 62
    4
 10
1310.8336
 20
2330.125
 11
1310.8336
 21
2221.7919
  0
LINE
  8
1-5
  6
CONTINUOUS
 62
    4
 10
1305.8334
 20
2330.125
 11
1305.8334
 21
2221.7919
  0
LINE
  8
1-5
  6
CONTINUOUS
 62
    4
 10
1300.8336
 20
2330.125
 11
1300.8336
 21
2221.7919
  0
LINE
  8
1-5
  6
CONTINUOUS
 62
    4
 10
1295.8333
 20
2330.125
 11
1295.8333
 21
2221.7919
  0
LINE
  8
1-5
  6
CONTINUOUS
 62
    4
 10
1290.8336
 20
2330.125
 11
1290.8336
 21
2221.7919
  0
LINE
  8
1-5
  6
CONTINUOUS
 62
    4
 10
1285.8333
 20
2330.125
 11
1285.8333
 21
2221.7919
  0
LINE
  8
1-5
  6
CONTINUOUS
 62
    4
 10
1280.8335
 20
2330.125
 11
1280.8335
 21
2221.7919
  0
LINE
  8
1-5
  6
CONTINUOUS
 62
    4
 10
1275.8335
 20
2330.125
 11
1275.8335
 21
2221.7919
  0
LINE
  8
1-5
  6
CONTINUOUS
 62
    4
 10
1270.8335
 20
2330.125
 11
1270.8335
 21
2221.7919
  0
LINE
  8
1-5
  6
CONTINUOUS
 62
    4
 10
1265.8335
 20
2330.125
 11
1265.8335
 21
2221.7919
  0
LINE
  8
1-5
  6
CONTINUOUS
 62
    4
 10
1260.8335
 20
2330.125
 11
1260.8335
 21
2221.7919
  0
LINE
  8
1-5
  6
CONTINUOUS
 62
    4
 10
1255.8337
 20
2330.125
 11
1255.8337
 21
2221.7919
  0
LINE
  8
1-5
  6
CONTINUOUS
 62
    4
 10
1250.8337
 20
2330.125
 11
1250.8337
 21
2221.7919
  0
LINE
  8
1-5
  6
CONTINUOUS
 62
    4
 10
1245.8337
 20
2330.125
 11
1245.8337
 21
2221.7919
  0
LINE
  8
1-5
  6
CONTINUOUS
 62
    4
 10
1240.8334
 20
2330.125
 11
1240.8334
 21
2221.7919
  0
LINE
  8
1-5
  6
CONTINUOUS
 62
    4
 10
1235.8336
 20
2330.125
 11
1235.8336
 21
2221.7919
  0
LINE
  8
1-5
  6
CONTINUOUS
 62
    4
 10
1230.8336
 20
2330.125
 11
1230.8336
 21
2221.7919
  0
LINE
  8
1-5
  6
CONTINUOUS
 62
    4
 10
1225.8336
 20
2330.125
 11
1225.8336
 21
2221.7919
  0
LINE
  8
1-5
  6
CONTINUOUS
 62
    4
 10
1220.8336
 20
2330.125
 11
1220.8336
 21
2221.7919
  0
LINE
  8
1-5
  6
CONTINUOUS
 62
    4
 10
1215.8336
 20
2330.125
 11
1215.8336
 21
2221.7919
  0
LINE
  8
1-5
  6
CONTINUOUS
 62
    4
 10
1210.8338
 20
2330.125
 11
1210.8338
 21
2221.7919
  0
LINE
  8
1-5
  6
CONTINUOUS
 62
    4
 10
1205.8335
 20
2330.125
 11
1205.8335
 21
2221.7919
  0
LINE
  8
1-5
  6
CONTINUOUS
 62
    4
 10
1200.8335
 20
2330.125
 11
1200.8335
 21
2221.7919
  0
LINE
  8
1-5
  6
CONTINUOUS
 62
    4
 10
1195.8335
 20
2330.125
 11
1195.8335
 21
2221.7919
  0
LINE
  8
1-5
  6
CONTINUOUS
 62
    4
 10
1190.8337
 20
2330.125
 11
1190.8337
 21
2221.7919
  0
LINE
  8
1-5
  6
CONTINUOUS
 62
    4
 10
1185.8337
 20
2330.125
 11
1185.8337
 21
2221.7919
  0
LINE
  8
1-5
  6
CONTINUOUS
 62
    4
 10
1180.8337
 20
2330.125
 11
1180.8337
 21
2221.7919
  0
LINE
  8
1-5
  6
CONTINUOUS
 62
    4
 10
1175.8337
 20
2330.125
 11
1175.8337
 21
2221.7919
  0
LINE
  8
1-5
  6
CONTINUOUS
 62
    4
 10
1170.8337
 20
2330.125
 11
1170.8337
 21
2221.7919
  0
LINE
  8
1-5
  6
CONTINUOUS
 62
    4
 10
1165.8334
 20
2330.125
 11
1165.8334
 21
2221.7919
  0
LINE
  8
1-5
  6
CONTINUOUS
 62
    4
 10
1160.8336
 20
2330.125
 11
1160.8336
 21
2221.7919
  0
LINE
  8
1-5
  6
CONTINUOUS
 62
    4
 10
1155.8336
 20
2330.125
 11
1155.8336
 21
2221.7919
  0
LINE
  8
1-5
  6
CONTINUOUS
 62
    4
 10
1150.8336
 20
2330.125
 11
1150.8336
 21
2221.7919
  0
LINE
  8
1-5
  6
CONTINUOUS
 62
    4
 10
1145.8336
 20
2330.125
 11
1145.8336
 21
2221.7919
  0
LINE
  8
1-5
  6
CONTINUOUS
 62
    4
 10
1140.8336
 20
2330.125
 11
1140.8336
 21
2221.7919
  0
LINE
  8
1-5
  6
CONTINUOUS
 62
    4
 10
1135.8338
 20
2330.125
 11
1135.8338
 21
2221.7919
  0
LINE
  8
1-5
  6
CONTINUOUS
 62
    4
 10
1130.8338
 20
2330.125
 11
1130.8338
 21
2221.7919
  0
LINE
  8
1-5
  6
CONTINUOUS
 62
    4
 10
1125.8338
 20
2330.125
 11
1125.8338
 21
2221.7919
  0
LINE
  8
1-5
  6
CONTINUOUS
 62
    4
 10
1120.8335
 20
2330.125
 11
1120.8335
 21
2221.7919
  0
LINE
  8
1-5
  6
CONTINUOUS
 62
    4
 10
1115.8337
 20
2330.125
 11
1115.8337
 21
2221.7919
  0
LINE
  8
1-5
  6
CONTINUOUS
 62
    4
 10
1110.8337
 20
2330.125
 11
1110.8337
 21
2221.7919
  0
LINE
  8
1-5
  6
CONTINUOUS
 62
    4
 10
1105.8337
 20
2330.125
 11
1105.8337
 21
2221.7919
  0
LINE
  8
1-5
  6
CONTINUOUS
 62
    4
 10
1100.8337
 20
2330.125
 11
1100.8337
 21
2221.7919
  0
LINE
  8
1-5
  6
CONTINUOUS
 62
    4
 10
1095.8337
 20
2330.125
 11
1095.8337
 21
2221.7919
  0
LINE
  8
1-5
  6
CONTINUOUS
 62
    4
 10
1090.8336
 20
2330.125
 11
1090.8336
 21
2221.7919
  0
LINE
  8
1-5
  6
CONTINUOUS
 62
    4
 10
1085.8336
 20
2330.125
 11
1085.8336
 21
2221.7919
  0
LINE
  8
1-5
  6
CONTINUOUS
 62
    4
 10
1080.8336
 20
2330.125
 11
1080.8336
 21
2221.7919
  0
LINE
  8
1-5
  6
CONTINUOUS
 62
    4
 10
1075.8336
 20
2330.125
 11
1075.8336
 21
2221.7919
  0
LINE
  8
1-5
  6
CONTINUOUS
 62
    4
 10
1070.8338
 20
2330.125
 11
1070.8338
 21
2221.7919
  0
LINE
  8
1-5
  6
CONTINUOUS
 62
    4
 10
1065.8338
 20
2330.125
 11
1065.8338
 21
2221.7919
  0
LINE
  8
1-5
  6
CONTINUOUS
 62
    4
 10
1060.8338
 20
2330.125
 11
1060.8338
 21
2221.7919
  0
LINE
  8
1-5
  6
CONTINUOUS
 62
    4
 10
1055.8338
 20
2330.125
 11
1055.8338
 21
2221.7919
  0
LINE
  8
1-2
  6
CONTINUOUS
 62
    3
 10
1395.8337
 20
2330.125
 11
1395.8337
 21
2221.7919
  0
LINE
  8
1-2
  6
CONTINUOUS
 62
    3
 10
704.16663
 20
1829.7924
 11
704.16663
 21
1779.7922
  0
LINE
  8
1-2
  6
CONTINUOUS
 62
    3
 10
1395.8337
 20
2213.4584
 11
1395.8337
 21
1779.7922
  0
LINE
  8
1-1
  6
CENTER2
 62
    7
 10
1050.0001
 20
2529.7924
 11
1050.0001
 21
1596.459
  0
LINE
  8
1-8
  6
CONTINUOUS
 62
    7
 10
533.33342
 20
1406.9503
 11
1566.6666
 21
1406.9503
  0
LINE
  8
1-8
  6
CONTINUOUS
 62
    7
 10
533.33342
 20
1553.4898
 11
533.33342
 21
1406.9503
  0
LINE
  8
1-8
  6
CONTINUOUS
 62
    7
 10
1566.6666
 20
1553.4898
 11
1566.6666
 21
1406.9503
  0
LINE
  8
1-8
  6
CONTINUOUS
 62
    7
 10
250.00096
 20
1596.459
 11
250.00096
 21
2529.7924
  0
LINE
  8
1-2
  6
CONTINUOUS
 62
    3
 10
533.33342
 20
1596.459
 11
533.33342
 21
1696.4591
  0
LINE
  8
1-2
  6
CONTINUOUS
 62
    3
 10
533.33342
 20
1696.4591
 11
1566.6666
 21
1696.4591
  0
LINE
  8
1-2
  6
CONTINUOUS
 62
    3
 10
1566.6666
 20
1596.459
 11
1566.6666
 21
1696.4591
  0
LINE
  8
1-2
  6
CONTINUOUS
 62
    3
 10
533.33342
 20
1596.459
 11
1566.6666
 21
1596.459
  0
LINE
  8
1-2
  6
CONTINUOUS
 62
    3
 10
823.05621
 20
1801.0428
 11
823.05621
 21
1696.459
  0
LINE
  8
1-2
  6
CONTINUOUS
 62
    3
 10
823.05621
 20
1801.0428
 11
533.33342
 21
1696.459
  0
LINE
  8
1-2
  6
CONTINUOUS
 62
    3
 10
704.16663
 20
1779.7921
 11
764.18675
 21
1779.7921
  0
LINE
  8
1-2
  6
CONTINUOUS
 62
    3
 10
1395.834
 20
1758.126
 11
1566.6669
 21
1696.459
  0
LINE
  8
1-2
  6
CONTINUOUS
 62
    3
 10
1395.834
 20
1758.126
 11
1395.834
 21
1696.4591
  0
LINE
  8
1-2
  6
CONTINUOUS
 62
    3
 10
823.05621
 20
1779.7922
 11
1395.834
 21
1779.7922
  0
LINE
  8
1-2
  6
CONTINUOUS
 62
    3
 10
823.05621
 20
1758.1262
 11
1395.834
 21
1758.1262
  0
ARC
  8
1-2
  6
CONTINUOUS
 62
    3
 10
524.9999
 20
1899.3741
 40
10.832832
 50
90
 51
270
  0
ARC
  8
1-2
  6
CONTINUOUS
 62
    3
 10
524.9999
 20
1840.6251
 40
10.832832
 50
90
 51
270
  0
ARC
  8
1-2
  6
CONTINUOUS
 62
    3
 10
1574.9984
 20
1899.3747
 40
10.832832
 50
270
 51
90
  0
ARC
  8
1-2
  6
CONTINUOUS
 62
    3
 10
1574.9984
 20
1840.6253
 40
10.832832
 50
270
 51
90
  0
ARC
  8
1-2
  6
CONTINUOUS
 62
    3
 10
525.00015
 20
2368.9595
 40
10.832832
 50
90
 51
270
  0
ARC
  8
1-2
  6
CONTINUOUS
 62
    3
 10
525.00015
 20
2310.2101
 40
10.832832
 50
90
 51
270
  0
ARC
  8
1-2
  6
CONTINUOUS
 62
    3
 10
1574.9989
 20
2368.9597
 40
10.832832
 50
270
 51
90
  0
ARC
  8
1-2
  6
CONTINUOUS
 62
    3
 10
1574.9989
 20
2310.2106
 40
10.832832
 50
270
 51
90
  0
ARC
  8
1-2
  6
CONTINUOUS
 62
    3
 10
1394.5247
 20
2217.625
 40
4.3672831
 50
287.43554
 51
72.564453
  0
ARC
  8
1-2
  6
CONTINUOUS
 62
    3
 10
704.16663
 20
1768.9588
 40
10.832832
 50
90
 51
270
  0
ARC
  8
1-2
  6
CONTINUOUS
 62
    3
 10
704.16663
 20
1768.959
 40
10.832832
 50
90
 51
270
  0
ARC
  8
1-2
  6
CONTINUOUS
 62
    3
 10
1395.8337
 20
1768.9588
 40
10.832832
 50
270
 51
90
  0
ARC
  8
1-2
  6
CONTINUOUS
 62
    3
 10
1395.8337
 20
1768.959
 40
10.832832
 50
270
 51
90
  0
TEXT
  8
1-d
 10
254.9998
 20
157.4999
 40
25
 41
1
 50
0
  1
図
  0
TEXT
  8
1-d
 10
254.9998
 20
97.499963
 40
25
 41
1
 50
0
  1
番
  0
TEXT
  8
1-d
 10
655.00046
 20
157.4999
 40
25
 41
1
 50
0
  1
承
  0
TEXT
  8
1-d
 10
655.00046
 20
97.499963
 40
25
 41
1
 50
0
  1
認
  0
TEXT
  8
1-d
 10
1020.0003
 20
237.49994
 40
25
 41
1
 50
0
  1
尺
  0
TEXT
  8
1-d
 10
1020.0003
 20
197.49978
 40
25
 41
1
 50
0.0000762
  1
度
  0
TEXT
  8
1-d
 10
855.00014
 20
157.4999
 40
25
 41
1
 50
0
  1
製
  0
TEXT
  8
1-d
 10
855.00014
 20
97.499963
 40
25
 41
1
 50
0
  1
図
  0
TEXT
  8
1-d
 10
1555.0001
 20
237.49994
 40
25
 41
1
 50
0
  1
日
  0
TEXT
  8
1-d
 10
1555.0001
 20
197.49978
 40
25
 41
1
 50
0.0000762
  1
付
  0
TEXT
  8
1-d
 10
1111.4263
 20
163.48226
 40
20
 41
1
 50
0
  1
株式
  0
TEXT
  8
1-d
 10
1111.4263
 20
141.85179
 40
20
 41
1
 50
0.0000152
  1
会社
  0
TEXT
  8
1-d
 10
1174.2247
 20
143.24712
 40
40
 41
1
 50
0
  1
スズキベンチレーター
  0
TEXT
  8
1-d
 10
1237.9182
 20
94.024183
 40
20
 41
1
 50
0
  1
TEL(054)296-7000  FAX(054)296-7001
  0
TEXT
  8
1-d
 10
1084.349
 20
210.10065
 40
40
 41
1
 50
0
  1
１／６
  0
TEXT
  8
1-8
 10
213.91892
 20
2088.7839
 40
30
 41
1
 50
90
  1
560
  0
TEXT
  8
1-8
 10
1022.0829
 20
2592.6322
 40
30
 41
1
 50
0
  1
630
  0
TEXT
  8
1-8
 10
1028.75
 20
1416.9503
 40
30
 41
1
 50
0
  1
620x620
  0
TEXT
  8
1-d
 10
255.00005
 20
2776.1895
 40
50
 41
1
 50
0
  1
ＤＳ－４００　自然換気　架台型（網付）断面
  0
TEXT
  8
1-d
 10
269.92361
 20
212.06523
 40
30
 41
1
 50
0
  1
ＤＳ－４００ 自然換気 架台型（網付）断面
  0
TEXT
  8
1-d
 10
1235.6792
 20
118.64593
 40
20
 41
1
 50
0
  1
〒421-2114　静岡市葵区安倍口新田１５２番地
  0
TEXT
  8
1-d
 10
308.45927
 20
140.30214
 40
30
 41
1
 50
0
  1
40-B09b
  0
POINT
  8
1-8
 62
    2
 10
250.00096
 20
1596.459
  0
POINT
  8
1-8
 62
    2
 10
250.00096
 20
2529.7924
  0
POINT
  8
1-8
 62
    2
 10
525.00015
 20
2583.3394
  0
POINT
  8
1-8
 62
    2
 10
1575.0004
 20
2583.3394
  0
POINT
  8
1-8
 62
    2
 10
533.33342
 20
1406.9503
  0
POINT
  8
1-8
 62
    2
 10
1566.6666
 20
1406.9503
  0
ENDSEC
  0
EOF
