  0
SECTION
  2
HEADER
  9
$EXTMIN
 10
0
 20
0
  9
$EXTMAX
 10
4200
 20
2970
  0
ENDSEC
  0
SECTION
  2
TABLES
  0
TABLE
  2
LTYPE
 70
     9
  0
LTYPE
  2
CONTINUOUS
 70
    64
  3
実線
 72
    65
 73
     0
 40
0.0
  0
LTYPE
  2
DASHED1
 70
    64
  3
--  --  --  --  --  --  --  --  
 72
    65
 73
     2
 40
2.5
 49
1.25
 49
-1.25
  0
LTYPE
  2
DASHED2
 70
    64
  3
----    ----    ----    ----    
 72
    65
 73
     2
 40
5.0
 49
2.5
 49
-2.5
  0
LTYPE
  2
DASHED3
 70
    64
  3
------  ------  ------  ------  
 72
    65
 73
     2
 40
5.0
 49
3.75
 49
-1.25
  0
LTYPE
  2
CENTER1
 70
    64
  3
----- - ----- - ----- - ----- - 
 72
    65
 73
     4
 40
10.0
 49
6.25
 49
-1.25
 49
1.25
 49
-1.25
  0
LTYPE
  2
CENTER2
 70
    64
  3
----------  --  ----------  --  
 72
    65
 73
     4
 40
20.0
 49
12.5
 49
-2.5
 49
2.5
 49
-2.5
  0
LTYPE
  2
PHANTOM1
 70
    64
  3
--- - - --- - - --- - - --- - - 
 72
    65
 73
     6
 40
10.0
 49
3.25
 49
-1.25
 49
1.25
 49
-1.25
 49
1.25
 49
-1.25
  0
LTYPE
  2
PHANTOM2
 70
    64
  3
--------  -  -  --------  -  -  
 72
    65
 73
     6
 40
20.0
 49
10.0
 49
-2.5
 49
1.25
 49
-2.5
 49
1.25
 49
-2.5
  0
LTYPE
  2
DOT
 70
    64
  3
-   -   -   -   -   -   -   -   
 72
    65
 73
     2
 40
2.5
 49
0.625
 49
-1.875
  0
ENDTAB
  0
TABLE
  2
STYLE
 70
    1
  0
STYLE
  2
STANDARD
 70
    64
 40
0.0
 41
1.0
 42
0.0
 50
0.0
 71
     0
  3
TXT
  4
BIGFONT
  0
ENDTAB
  0
TABLE
  2
LAYER
 70
    6
  0
LAYER
  2
1-1
 70
   64
 62
    7
  6
CONTINUOUS
  0
LAYER
  2
1-2
 70
   64
 62
    7
  6
CONTINUOUS
  0
LAYER
  2
1-5
 70
   64
 62
    7
  6
CONTINUOUS
  0
LAYER
  2
1-8
 70
   64
 62
    7
  6
CONTINUOUS
  0
LAYER
  2
1-d
 70
   64
 62
    7
  6
CONTINUOUS
  0
LAYER
  2
ADD_LINE
 70
   64
 62
    7
  6
CONTINUOUS
  0
ENDTAB
  0
ENDSEC
  0
SECTION
  2
ENTITIES
  0
LINE
  8
1-d
  6
CONTINUOUS
 62
    7
 10
250.00004
 20
2757.7013
 11
1850.0001
 21
2757.7013
  0
LINE
  8
1-d
  6
CONTINUOUS
 62
    7
 10
250.00004
 20
2767.7016
 11
1850.0001
 21
2767.7016
  0
LINE
  8
1-d
  6
CONTINUOUS
 62
    7
 10
249.99967
 20
189.99989
 11
1850.0003
 21
189.99989
  0
LINE
  8
1-d
  6
CONTINUOUS
 62
    7
 10
249.99967
 20
89.999806
 11
249.99967
 21
269.99991
  0
LINE
  8
1-d
  6
CONTINUOUS
 62
    7
 10
249.99967
 20
89.999806
 11
1850.0003
 21
89.999806
  0
LINE
  8
1-d
  6
CONTINUOUS
 62
    7
 10
1850.0003
 20
269.99991
 11
1850.0003
 21
89.999806
  0
LINE
  8
1-d
  6
CONTINUOUS
 62
    7
 10
249.99967
 20
269.99991
 11
1850.0003
 21
269.99991
  0
LINE
  8
1-d
  6
CONTINUOUS
 62
    7
 10
1050
 20
269.99991
 11
1050
 21
89.999806
  0
LINE
  8
1-d
  6
CONTINUOUS
 62
    7
 10
650.00019
 20
89.999806
 11
650.00019
 21
189.99989
  0
LINE
  8
1-d
  6
CONTINUOUS
 62
    7
 10
1050
 20
189.99989
 11
1050
 21
269.99991
  0
LINE
  8
1-d
  6
CONTINUOUS
 62
    7
 10
849.99975
 20
89.999806
 11
849.99975
 21
189.99989
  0
LINE
  8
1-d
  6
CONTINUOUS
 62
    7
 10
285.00002
 20
89.999806
 11
285.00002
 21
189.99989
  0
LINE
  8
1-d
  6
CONTINUOUS
 62
    7
 10
685.00006
 20
89.999806
 11
685.00006
 21
189.99989
  0
LINE
  8
1-d
  6
CONTINUOUS
 62
    7
 10
885.00011
 20
89.999806
 11
885.00011
 21
189.99989
  0
LINE
  8
1-d
  6
CONTINUOUS
 62
    7
 10
1015
 20
189.99989
 11
1015
 21
269.99991
  0
LINE
  8
1-d
  6
CONTINUOUS
 62
    7
 10
1550.0004
 20
189.99989
 11
1550.0004
 21
269.99991
  0
LINE
  8
1-d
  6
CONTINUOUS
 62
    7
 10
1585.0002
 20
189.99989
 11
1585.0002
 21
269.99991
  0
LINE
  8
1-8
  6
CONTINUOUS
 62
    7
 10
437.91902
 20
1679.792
 11
250.00096
 21
1679.792
  0
LINE
  8
1-8
  6
CONTINUOUS
 62
    7
 10
525.00015
 20
2583.3394
 11
1575.0003
 21
2583.3394
  0
LINE
  8
1-8
  6
CONTINUOUS
 62
    7
 10
704.16675
 20
1563.8927
 11
1395.8335
 21
1563.8927
  0
LINE
  8
1-2
  6
CONTINUOUS
 62
    3
 10
525.00002
 20
1896.8742
 11
525.00002
 21
1859.7912
  0
LINE
  8
1-2
  6
CONTINUOUS
 62
    3
 10
704.16675
 20
1749.7928
 11
1395.8353
 21
1749.7928
  0
LINE
  8
1-2
  6
CONTINUOUS
 62
    3
 10
704.16675
 20
1771.4588
 11
1395.8353
 21
1771.4588
  0
LINE
  8
1-2
  6
CONTINUOUS
 62
    3
 10
704.16675
 20
1701.4586
 11
1395.8353
 21
1701.4586
  0
LINE
  8
1-2
  6
CONTINUOUS
 62
    3
 10
704.16675
 20
1679.7923
 11
1395.8353
 21
1679.7923
  0
LINE
  8
1-2
  6
CONTINUOUS
 62
    3
 10
704.16675
 20
1749.7928
 11
704.16675
 21
1701.4581
  0
LINE
  8
1-2
  6
CONTINUOUS
 62
    3
 10
1395.8335
 20
1749.7928
 11
1395.8335
 21
1701.4581
  0
LINE
  8
1-2
  6
CONTINUOUS
 62
    3
 10
704.16675
 20
1838.1258
 11
704.16675
 21
1771.4588
  0
LINE
  8
1-8
  6
CONTINUOUS
 62
    7
 10
525.00015
 20
2463.1259
 11
525.00015
 21
2583.3394
  0
LINE
  8
1-8
  6
CONTINUOUS
 62
    7
 10
1575.0003
 20
2463.1259
 11
1575.0003
 21
2583.3394
  0
LINE
  8
1-2
  6
CONTINUOUS
 62
    3
 10
1395.8335
 20
1749.7928
 11
1395.8335
 21
1701.4581
  0
LINE
  8
1-2
  6
CONTINUOUS
 62
    3
 10
1574.9985
 20
1896.8747
 11
1574.9985
 21
1859.7917
  0
LINE
  8
1-8
  6
CONTINUOUS
 62
    7
 10
704.16675
 20
1653.4899
 11
704.16675
 21
1563.8927
  0
LINE
  8
1-8
  6
CONTINUOUS
 62
    7
 10
1395.8335
 20
1653.4899
 11
1395.8335
 21
1563.8927
  0
LINE
  8
1-2
  6
CONTINUOUS
 62
    3
 10
525.00015
 20
2358.1261
 11
525.00015
 21
2321.043
  0
LINE
  8
1-2
  6
CONTINUOUS
 62
    3
 10
1574.9988
 20
2358.1263
 11
1574.9988
 21
2321.0435
  0
LINE
  8
1-2
  6
CONTINUOUS
 62
    3
 10
525.00002
 20
2299.3772
 11
525.00002
 21
1918.5405
  0
LINE
  8
1-2
  6
CONTINUOUS
 62
    3
 10
1575.0003
 20
2299.3777
 11
1575.0003
 21
1918.5408
  0
LINE
  8
1-8
  6
CONTINUOUS
 62
    7
 10
437.91902
 20
2379.7927
 11
250.00096
 21
2379.7927
  0
LINE
  8
1-2
  6
CONTINUOUS
 62
    3
 10
1050.0001
 20
2529.7924
 11
790.19329
 21
2379.7927
  0
LINE
  8
1-8
  6
CONTINUOUS
 62
    7
 10
250.00096
 20
1679.792
 11
250.00096
 21
2379.7927
  0
LINE
  8
1-2
  6
CONTINUOUS
 62
    3
 10
525.00015
 20
2379.7922
 11
1050.0001
 21
2379.7924
  0
LINE
  8
1-2
  6
CONTINUOUS
 62
    3
 10
525.00015
 20
2358.1261
 11
1050.0001
 21
2358.1263
  0
LINE
  8
1-2
  6
CONTINUOUS
 62
    3
 10
525.00015
 20
2321.0435
 11
1050.0001
 21
2321.0435
  0
LINE
  8
1-2
  6
CONTINUOUS
 62
    3
 10
525.00015
 20
2299.3772
 11
1050.0001
 21
2299.3772
  0
LINE
  8
1-2
  6
CONTINUOUS
 62
    3
 10
525.00002
 20
1918.5405
 11
1050.0001
 21
1918.5407
  0
LINE
  8
1-2
  6
CONTINUOUS
 62
    3
 10
525.00002
 20
1896.8742
 11
1050.0001
 21
1896.8745
  0
LINE
  8
1-2
  6
CONTINUOUS
 62
    3
 10
525.00002
 20
1859.7917
 11
1050.0001
 21
1859.7919
  0
LINE
  8
1-2
  6
CONTINUOUS
 62
    3
 10
525.00002
 20
1838.1253
 11
1050.0001
 21
1838.1256
  0
LINE
  8
1-2
  6
CONTINUOUS
 62
    3
 10
1395.8335
 20
1838.1257
 11
1575.0003
 21
1838.1258
  0
LINE
  8
1-2
  6
CONTINUOUS
 62
    3
 10
1395.8335
 20
1859.792
 11
1575.0003
 21
1859.7921
  0
LINE
  8
1-2
  6
CONTINUOUS
 62
    3
 10
1395.8335
 20
1896.8746
 11
1575.0003
 21
1896.8747
  0
LINE
  8
1-2
  6
CONTINUOUS
 62
    3
 10
1395.8335
 20
1918.5408
 11
1575.0003
 21
1918.5408
  0
LINE
  8
1-2
  6
CONTINUOUS
 62
    3
 10
1395.8335
 20
2330.125
 11
1050.0001
 21
2330.125
  0
LINE
  8
1-2
  6
CONTINUOUS
 62
    3
 10
1395.8335
 20
2221.7919
 11
1050.0001
 21
2221.7919
  0
LINE
  8
1-2
  6
CONTINUOUS
 62
    3
 10
1395.8335
 20
2213.4586
 11
1050.0001
 21
2213.4586
  0
LINE
  8
1-2
  6
CONTINUOUS
 62
    3
 10
1309.8071
 20
2379.7924
 11
1575.0005
 21
2379.7927
  0
LINE
  8
1-2
  6
CONTINUOUS
 62
    3
 10
1347.334
 20
2358.1263
 11
1575.0005
 21
2358.1263
  0
LINE
  8
1-2
  6
CONTINUOUS
 62
    3
 10
1411.563
 20
2321.0435
 11
1575.0005
 21
2321.0435
  0
LINE
  8
1-2
  6
CONTINUOUS
 62
    3
 10
1449.0898
 20
2299.3777
 11
1575.0005
 21
2299.3777
  0
LINE
  8
1-2
  6
CONTINUOUS
 62
    3
 10
1050.0001
 20
2529.7924
 11
1485.5362
 21
2278.3354
  0
LINE
  8
1-2
  6
CONTINUOUS
 62
    3
 10
1485.5362
 20
2278.3354
 11
1395.8335
 21
2278.3354
  0
LINE
  8
1-2
  6
CONTINUOUS
 62
    3
 10
1395.8335
 20
2330.125
 11
1395.8335
 21
2221.7919
  0
LINE
  8
1-2
  6
CONTINUOUS
 62
    3
 10
1395.8335
 20
2213.4586
 11
1395.8335
 21
1771.4588
  0
LINE
  8
1-1
  6
CENTER2
 62
    7
 10
1050.0001
 20
2557.9516
 11
1050.0001
 21
1629.7298
  0
LINE
  8
1-5
  6
CONTINUOUS
 62
    4
 10
1395.8335
 20
2321.7918
 11
1050.0001
 21
2321.7918
  0
LINE
  8
1-5
  6
CONTINUOUS
 62
    4
 10
1395.8335
 20
2313.4585
 11
1050.0001
 21
2313.4585
  0
LINE
  8
1-5
  6
CONTINUOUS
 62
    4
 10
1395.8335
 20
2305.125
 11
1050.0001
 21
2305.125
  0
LINE
  8
1-5
  6
CONTINUOUS
 62
    4
 10
1395.8335
 20
2296.7917
 11
1050.0001
 21
2296.7917
  0
LINE
  8
1-5
  6
CONTINUOUS
 62
    4
 10
1395.8335
 20
2288.4584
 11
1050.0001
 21
2288.4584
  0
LINE
  8
1-5
  6
CONTINUOUS
 62
    4
 10
1395.8335
 20
2280.1251
 11
1050.0001
 21
2280.1251
  0
LINE
  8
1-5
  6
CONTINUOUS
 62
    4
 10
1395.8335
 20
2271.7916
 11
1050.0001
 21
2271.7916
  0
LINE
  8
1-5
  6
CONTINUOUS
 62
    4
 10
1395.8335
 20
2263.4583
 11
1050.0001
 21
2263.4583
  0
LINE
  8
1-5
  6
CONTINUOUS
 62
    4
 10
1395.8335
 20
2255.125
 11
1050.0001
 21
2255.125
  0
LINE
  8
1-5
  6
CONTINUOUS
 62
    4
 10
1395.8335
 20
2246.7918
 11
1050.0001
 21
2246.7918
  0
LINE
  8
1-5
  6
CONTINUOUS
 62
    4
 10
1395.8335
 20
2238.4585
 11
1050.0001
 21
2238.4585
  0
LINE
  8
1-5
  6
CONTINUOUS
 62
    4
 10
1395.8335
 20
2230.125
 11
1050.0001
 21
2230.125
  0
LINE
  8
1-5
  6
CONTINUOUS
 62
    4
 10
1387.5003
 20
2330.125
 11
1387.5003
 21
2221.7919
  0
LINE
  8
1-5
  6
CONTINUOUS
 62
    4
 10
1379.1669
 20
2330.125
 11
1379.1669
 21
2221.7919
  0
LINE
  8
1-5
  6
CONTINUOUS
 62
    4
 10
1370.8336
 20
2330.125
 11
1370.8336
 21
2221.7919
  0
LINE
  8
1-5
  6
CONTINUOUS
 62
    4
 10
1362.5002
 20
2330.125
 11
1362.5002
 21
2221.7919
  0
LINE
  8
1-5
  6
CONTINUOUS
 62
    4
 10
1354.1669
 20
2330.125
 11
1354.1669
 21
2221.7919
  0
LINE
  8
1-5
  6
CONTINUOUS
 62
    4
 10
1345.8335
 20
2330.125
 11
1345.8335
 21
2221.7919
  0
LINE
  8
1-5
  6
CONTINUOUS
 62
    4
 10
1337.5002
 20
2330.125
 11
1337.5002
 21
2221.7919
  0
LINE
  8
1-5
  6
CONTINUOUS
 62
    4
 10
1329.1668
 20
2330.125
 11
1329.1668
 21
2221.7919
  0
LINE
  8
1-5
  6
CONTINUOUS
 62
    4
 10
1320.8335
 20
2330.125
 11
1320.8335
 21
2221.7919
  0
LINE
  8
1-5
  6
CONTINUOUS
 62
    4
 10
1312.5003
 20
2330.125
 11
1312.5003
 21
2221.7919
  0
LINE
  8
1-5
  6
CONTINUOUS
 62
    4
 10
1304.167
 20
2330.125
 11
1304.167
 21
2221.7919
  0
LINE
  8
1-5
  6
CONTINUOUS
 62
    4
 10
1295.8336
 20
2330.125
 11
1295.8336
 21
2221.7919
  0
LINE
  8
1-5
  6
CONTINUOUS
 62
    4
 10
1287.5003
 20
2330.125
 11
1287.5003
 21
2221.7919
  0
LINE
  8
1-5
  6
CONTINUOUS
 62
    4
 10
1279.1669
 20
2330.125
 11
1279.1669
 21
2221.7919
  0
LINE
  8
1-5
  6
CONTINUOUS
 62
    4
 10
1270.8336
 20
2330.125
 11
1270.8336
 21
2221.7919
  0
LINE
  8
1-5
  6
CONTINUOUS
 62
    4
 10
1262.5002
 20
2330.125
 11
1262.5002
 21
2221.7919
  0
LINE
  8
1-5
  6
CONTINUOUS
 62
    4
 10
1254.1669
 20
2330.125
 11
1254.1669
 21
2221.7919
  0
LINE
  8
1-5
  6
CONTINUOUS
 62
    4
 10
1245.8335
 20
2330.125
 11
1245.8335
 21
2221.7919
  0
LINE
  8
1-5
  6
CONTINUOUS
 62
    4
 10
1237.5003
 20
2330.125
 11
1237.5003
 21
2221.7919
  0
LINE
  8
1-5
  6
CONTINUOUS
 62
    4
 10
1229.167
 20
2330.125
 11
1229.167
 21
2221.7919
  0
LINE
  8
1-5
  6
CONTINUOUS
 62
    4
 10
1220.8337
 20
2330.125
 11
1220.8337
 21
2221.7919
  0
LINE
  8
1-5
  6
CONTINUOUS
 62
    4
 10
1212.5003
 20
2330.125
 11
1212.5003
 21
2221.7919
  0
LINE
  8
1-5
  6
CONTINUOUS
 62
    4
 10
1204.167
 20
2330.125
 11
1204.167
 21
2221.7919
  0
LINE
  8
1-5
  6
CONTINUOUS
 62
    4
 10
1195.8336
 20
2330.125
 11
1195.8336
 21
2221.7919
  0
LINE
  8
1-5
  6
CONTINUOUS
 62
    4
 10
1187.5003
 20
2330.125
 11
1187.5003
 21
2221.7919
  0
LINE
  8
1-5
  6
CONTINUOUS
 62
    4
 10
1179.1669
 20
2330.125
 11
1179.1669
 21
2221.7919
  0
LINE
  8
1-5
  6
CONTINUOUS
 62
    4
 10
1170.8337
 20
2330.125
 11
1170.8337
 21
2221.7919
  0
LINE
  8
1-5
  6
CONTINUOUS
 62
    4
 10
1162.5003
 20
2330.125
 11
1162.5003
 21
2221.7919
  0
LINE
  8
1-5
  6
CONTINUOUS
 62
    4
 10
1154.167
 20
2330.125
 11
1154.167
 21
2221.7919
  0
LINE
  8
1-5
  6
CONTINUOUS
 62
    4
 10
1145.8337
 20
2330.125
 11
1145.8337
 21
2221.7919
  0
LINE
  8
1-5
  6
CONTINUOUS
 62
    4
 10
1137.5004
 20
2330.125
 11
1137.5004
 21
2221.7919
  0
LINE
  8
1-5
  6
CONTINUOUS
 62
    4
 10
1129.167
 20
2330.125
 11
1129.167
 21
2221.7919
  0
LINE
  8
1-5
  6
CONTINUOUS
 62
    4
 10
1120.8337
 20
2330.125
 11
1120.8337
 21
2221.7919
  0
LINE
  8
1-5
  6
CONTINUOUS
 62
    4
 10
1112.5003
 20
2330.125
 11
1112.5003
 21
2221.7919
  0
LINE
  8
1-5
  6
CONTINUOUS
 62
    4
 10
1104.1671
 20
2330.125
 11
1104.1671
 21
2221.7919
  0
LINE
  8
1-5
  6
CONTINUOUS
 62
    4
 10
1095.8337
 20
2330.125
 11
1095.8337
 21
2221.7919
  0
LINE
  8
1-5
  6
CONTINUOUS
 62
    4
 10
1087.5004
 20
2330.125
 11
1087.5004
 21
2221.7919
  0
LINE
  8
1-5
  6
CONTINUOUS
 62
    4
 10
1079.167
 20
2330.125
 11
1079.167
 21
2221.7919
  0
LINE
  8
1-5
  6
CONTINUOUS
 62
    4
 10
1070.8337
 20
2330.125
 11
1070.8337
 21
2221.7919
  0
LINE
  8
1-5
  6
CONTINUOUS
 62
    4
 10
1062.5004
 20
2330.125
 11
1062.5004
 21
2221.7919
  0
LINE
  8
1-5
  6
CONTINUOUS
 62
    4
 10
1054.1671
 20
2330.125
 11
1054.1671
 21
2221.7919
  0
ARC
  8
1-2
  6
CONTINUOUS
 62
    3
 10
704.16675
 20
1690.6252
 40
10.832832
 50
90
 51
270
  0
ARC
  8
1-2
  6
CONTINUOUS
 62
    3
 10
704.16675
 20
1760.6257
 40
10.832832
 50
90
 51
270
  0
ARC
  8
1-2
  6
CONTINUOUS
 62
    3
 10
1395.8335
 20
1690.6252
 40
10.832832
 50
270
 51
90
  0
ARC
  8
1-2
  6
CONTINUOUS
 62
    3
 10
1395.8335
 20
1760.6257
 40
10.832832
 50
270
 51
90
  0
ARC
  8
1-2
  6
CONTINUOUS
 62
    3
 10
525.00002
 20
1907.7076
 40
10.832832
 50
90
 51
270
  0
ARC
  8
1-2
  6
CONTINUOUS
 62
    3
 10
525.00002
 20
1848.9582
 40
10.832832
 50
90
 51
270
  0
ARC
  8
1-2
  6
CONTINUOUS
 62
    3
 10
1574.9985
 20
1907.7079
 40
10.832832
 50
270
 51
90
  0
ARC
  8
1-2
  6
CONTINUOUS
 62
    3
 10
1574.9985
 20
1848.9586
 40
10.832832
 50
270
 51
90
  0
ARC
  8
1-2
  6
CONTINUOUS
 62
    3
 10
525.00015
 20
2368.9592
 40
10.832832
 50
90
 51
270
  0
ARC
  8
1-2
  6
CONTINUOUS
 62
    3
 10
525.00015
 20
2310.2101
 40
10.832832
 50
90
 51
270
  0
ARC
  8
1-2
  6
CONTINUOUS
 62
    3
 10
1574.9988
 20
2368.9597
 40
10.832832
 50
270
 51
90
  0
ARC
  8
1-2
  6
CONTINUOUS
 62
    3
 10
1574.9988
 20
2310.2106
 40
10.832832
 50
270
 51
90
  0
ARC
  8
1-2
  6
CONTINUOUS
 62
    3
 10
1394.525
 20
2217.625
 40
4.3672831
 50
287.43554
 51
72.564453
  0
TEXT
  8
1-d
 10
254.9998
 20
157.4999
 40
25
 41
1
 50
0
  1
図
  0
TEXT
  8
1-d
 10
254.9998
 20
97.499963
 40
25
 41
1
 50
0
  1
番
  0
TEXT
  8
1-d
 10
655.00046
 20
157.4999
 40
25
 41
1
 50
0
  1
承
  0
TEXT
  8
1-d
 10
655.00046
 20
97.499963
 40
25
 41
1
 50
0
  1
認
  0
TEXT
  8
1-d
 10
1020.0003
 20
237.49994
 40
25
 41
1
 50
0
  1
尺
  0
TEXT
  8
1-d
 10
1020.0003
 20
197.49978
 40
25
 41
1
 50
0.0000762
  1
度
  0
TEXT
  8
1-d
 10
855.00014
 20
157.4999
 40
25
 41
1
 50
0
  1
製
  0
TEXT
  8
1-d
 10
855.00014
 20
97.499963
 40
25
 41
1
 50
0
  1
図
  0
TEXT
  8
1-d
 10
1555.0001
 20
237.49994
 40
25
 41
1
 50
0
  1
日
  0
TEXT
  8
1-d
 10
1555.0001
 20
197.49978
 40
25
 41
1
 50
0.0000762
  1
付
  0
TEXT
  8
1-d
 10
1111.4263
 20
163.48226
 40
20
 41
1
 50
0
  1
株式
  0
TEXT
  8
1-d
 10
1111.4263
 20
141.85179
 40
20
 41
1
 50
0.0000152
  1
会社
  0
TEXT
  8
1-d
 10
1174.2247
 20
143.24712
 40
40
 41
1
 50
0
  1
スズキベンチレーター
  0
TEXT
  8
1-d
 10
1237.9182
 20
94.024183
 40
20
 41
1
 50
0
  1
TEL(054)296-7000  FAX(054)296-7001
  0
TEXT
  8
1-d
 10
1084.349
 20
210.10065
 40
40
 41
1
 50
0
  1
１／６
  0
TEXT
  8
1-8
 10
1001.6668
 20
1585.5598
 40
30
 41
1
 50
0
  1
415φ
  0
TEXT
  8
1-8
 10
217.50097
 20
1956.4567
 40
30
 41
1
 50
90
  1
510
  0
TEXT
  8
1-8
 10
1028.7502
 20
2593.3394
 40
30
 41
1
 50
0
  1
630
  0
TEXT
  8
1-d
 10
255.00005
 20
2776.1895
 40
50
 41
1
 50
0
  1
ＤＳ－４００　自然換気　直付型（網付）断面
  0
TEXT
  8
1-d
 10
263.80204
 20
215.15335
 40
30
 41
1
 50
0
  1
ＤＳ－４００ 自然換気 直付型（網付）断面
  0
TEXT
  8
1-d
 10
308.45927
 20
140.30214
 40
30
 41
1
 50
0
  1
40-B09a
  0
TEXT
  8
1-d
 10
1235.6792
 20
118.64593
 40
20
 41
1
 50
0
  1
〒421-2114　静岡市葵区安倍口新田１５２番地
  0
POINT
  8
1-8
 62
    2
 10
250.00096
 20
1679.792
  0
POINT
  8
1-8
 62
    2
 10
250.00096
 20
2379.7927
  0
POINT
  8
1-8
 62
    2
 10
525.00015
 20
2583.3394
  0
POINT
  8
1-8
 62
    2
 10
1575.0003
 20
2583.3394
  0
POINT
  8
1-8
 62
    2
 10
704.16675
 20
1563.8927
  0
POINT
  8
1-8
 62
    2
 10
1395.8335
 20
1563.8927
  0
ENDSEC
  0
EOF
