  0
SECTION
  2
HEADER
  9
$EXTMIN
 10
0
 20
0
  9
$EXTMAX
 10
4200
 20
2970
  0
ENDSEC
  0
SECTION
  2
TABLES
  0
TABLE
  2
LTYPE
 70
     9
  0
LTYPE
  2
CONTINUOUS
 70
    64
  3
実線
 72
    65
 73
     0
 40
0.0
  0
LTYPE
  2
DASHED1
 70
    64
  3
--  --  --  --  --  --  --  --  
 72
    65
 73
     2
 40
2.5
 49
1.25
 49
-1.25
  0
LTYPE
  2
DASHED2
 70
    64
  3
----    ----    ----    ----    
 72
    65
 73
     2
 40
5.0
 49
2.5
 49
-2.5
  0
LTYPE
  2
DASHED3
 70
    64
  3
------  ------  ------  ------  
 72
    65
 73
     2
 40
5.0
 49
3.75
 49
-1.25
  0
LTYPE
  2
CENTER1
 70
    64
  3
----- - ----- - ----- - ----- - 
 72
    65
 73
     4
 40
10.0
 49
6.25
 49
-1.25
 49
1.25
 49
-1.25
  0
LTYPE
  2
CENTER2
 70
    64
  3
----------  --  ----------  --  
 72
    65
 73
     4
 40
20.0
 49
12.5
 49
-2.5
 49
2.5
 49
-2.5
  0
LTYPE
  2
PHANTOM1
 70
    64
  3
--- - - --- - - --- - - --- - - 
 72
    65
 73
     6
 40
10.0
 49
3.25
 49
-1.25
 49
1.25
 49
-1.25
 49
1.25
 49
-1.25
  0
LTYPE
  2
PHANTOM2
 70
    64
  3
--------  -  -  --------  -  -  
 72
    65
 73
     6
 40
20.0
 49
10.0
 49
-2.5
 49
1.25
 49
-2.5
 49
1.25
 49
-2.5
  0
LTYPE
  2
DOT
 70
    64
  3
-   -   -   -   -   -   -   -   
 72
    65
 73
     2
 40
2.5
 49
0.625
 49
-1.875
  0
ENDTAB
  0
TABLE
  2
STYLE
 70
    1
  0
STYLE
  2
STANDARD
 70
    64
 40
0.0
 41
1.0
 42
0.0
 50
0.0
 71
     0
  3
TXT
  4
BIGFONT
  0
ENDTAB
  0
TABLE
  2
LAYER
 70
    5
  0
LAYER
  2
0-1
 70
   64
 62
    7
  6
CONTINUOUS
  0
LAYER
  2
0-2
 70
   64
 62
    7
  6
CONTINUOUS
  0
LAYER
  2
0-8
 70
   64
 62
    7
  6
CONTINUOUS
  0
LAYER
  2
0-d
 70
   64
 62
    7
  6
CONTINUOUS
  0
LAYER
  2
ADD_LINE
 70
   64
 62
    7
  6
CONTINUOUS
  0
ENDTAB
  0
ENDSEC
  0
SECTION
  2
ENTITIES
  0
LINE
  8
0-d
  6
CONTINUOUS
 62
    7
 10
250.00004
 20
2757.7013
 11
1850.0001
 21
2757.7013
  0
LINE
  8
0-d
  6
CONTINUOUS
 62
    7
 10
250.00004
 20
2767.7016
 11
1850.0001
 21
2767.7016
  0
LINE
  8
0-d
  6
CONTINUOUS
 62
    7
 10
249.99967
 20
189.99989
 11
1850.0003
 21
189.99989
  0
LINE
  8
0-d
  6
CONTINUOUS
 62
    7
 10
249.99967
 20
89.999806
 11
249.99967
 21
269.99991
  0
LINE
  8
0-d
  6
CONTINUOUS
 62
    7
 10
249.99967
 20
89.999806
 11
1850.0003
 21
89.999806
  0
LINE
  8
0-d
  6
CONTINUOUS
 62
    7
 10
1850.0003
 20
269.99991
 11
1850.0003
 21
89.999806
  0
LINE
  8
0-d
  6
CONTINUOUS
 62
    7
 10
249.99967
 20
269.99991
 11
1850.0003
 21
269.99991
  0
LINE
  8
0-d
  6
CONTINUOUS
 62
    7
 10
1050
 20
269.99991
 11
1050
 21
89.999806
  0
LINE
  8
0-d
  6
CONTINUOUS
 62
    7
 10
650.00019
 20
89.999806
 11
650.00019
 21
189.99989
  0
LINE
  8
0-d
  6
CONTINUOUS
 62
    7
 10
1050
 20
189.99989
 11
1050
 21
269.99991
  0
LINE
  8
0-d
  6
CONTINUOUS
 62
    7
 10
849.99975
 20
89.999806
 11
849.99975
 21
189.99989
  0
LINE
  8
0-d
  6
CONTINUOUS
 62
    7
 10
285.00002
 20
89.999806
 11
285.00002
 21
189.99989
  0
LINE
  8
0-d
  6
CONTINUOUS
 62
    7
 10
685.00006
 20
89.999806
 11
685.00006
 21
189.99989
  0
LINE
  8
0-d
  6
CONTINUOUS
 62
    7
 10
885.00011
 20
89.999806
 11
885.00011
 21
189.99989
  0
LINE
  8
0-d
  6
CONTINUOUS
 62
    7
 10
1015
 20
189.99989
 11
1015
 21
269.99991
  0
LINE
  8
0-d
  6
CONTINUOUS
 62
    7
 10
1550.0004
 20
189.99989
 11
1550.0004
 21
269.99991
  0
LINE
  8
0-d
  6
CONTINUOUS
 62
    7
 10
1585.0002
 20
189.99989
 11
1585.0002
 21
269.99991
  0
LINE
  8
0-8
  6
CONTINUOUS
 62
    7
 10
682.75145
 20
2015.1062
 11
370.00062
 21
2015.1062
  0
LINE
  8
0-8
  6
CONTINUOUS
 62
    7
 10
735.00011
 20
2607.2346
 11
1365.0002
 21
2607.2346
  0
LINE
  8
0-8
  6
CONTINUOUS
 62
    7
 10
842.5001
 20
1945.5667
 11
1257.5002
 21
1945.5667
  0
LINE
  8
0-2
  6
CONTINUOUS
 62
    3
 10
735.00011
 20
2145.3555
 11
1365.0002
 21
2145.3558
  0
LINE
  8
0-2
  6
CONTINUOUS
 62
    3
 10
735.00011
 20
2158.3553
 11
1365.0002
 21
2158.3555
  0
LINE
  8
0-2
  6
CONTINUOUS
 62
    3
 10
735.00011
 20
2123.106
 11
1365.0002
 21
2123.1062
  0
LINE
  8
0-2
  6
CONTINUOUS
 62
    3
 10
735.00011
 20
2145.3555
 11
735.00011
 21
2123.1057
  0
LINE
  8
0-2
  6
CONTINUOUS
 62
    3
 10
842.5001
 20
2057.1066
 11
1257.5012
 21
2057.1066
  0
LINE
  8
0-2
  6
CONTINUOUS
 62
    3
 10
842.5001
 20
2070.1064
 11
1257.5012
 21
2070.1064
  0
LINE
  8
0-2
  6
CONTINUOUS
 62
    3
 10
842.5001
 20
2028.1062
 11
1257.5012
 21
2028.1062
  0
LINE
  8
0-2
  6
CONTINUOUS
 62
    3
 10
842.5001
 20
2015.1064
 11
1257.5012
 21
2015.1064
  0
LINE
  8
0-2
  6
CONTINUOUS
 62
    3
 10
842.5001
 20
2057.1066
 11
842.5001
 21
2028.1059
  0
LINE
  8
0-2
  6
CONTINUOUS
 62
    3
 10
1257.5002
 20
2057.1066
 11
1257.5002
 21
2028.1059
  0
LINE
  8
0-2
  6
CONTINUOUS
 62
    3
 10
842.5001
 20
2110.1065
 11
842.5001
 21
2070.1064
  0
LINE
  8
0-2
  6
CONTINUOUS
 62
    3
 10
1257.5002
 20
2110.1065
 11
1257.5002
 21
2070.1064
  0
LINE
  8
0-8
  6
CONTINUOUS
 62
    7
 10
735.00011
 20
2485.1065
 11
735.00011
 21
2607.2346
  0
LINE
  8
0-8
  6
CONTINUOUS
 62
    7
 10
1365.0002
 20
2485.1065
 11
1365.0002
 21
2607.2346
  0
LINE
  8
0-2
  6
CONTINUOUS
 62
    3
 10
1257.5002
 20
2057.1066
 11
1257.5002
 21
2028.1059
  0
LINE
  8
0-2
  6
CONTINUOUS
 62
    3
 10
1364.9992
 20
2145.3558
 11
1364.9992
 21
2123.106
  0
LINE
  8
0-2
  6
CONTINUOUS
 62
    3
 10
735.00011
 20
2110.1062
 11
1365.0002
 21
2110.1065
  0
LINE
  8
0-8
  6
CONTINUOUS
 62
    7
 10
682.75145
 20
1517.4213
 11
370.00062
 21
1517.4213
  0
LINE
  8
0-8
  6
CONTINUOUS
 62
    7
 10
682.75145
 20
1727.4212
 11
370.00062
 21
1727.4212
  0
LINE
  8
0-8
  6
CONTINUOUS
 62
    7
 10
682.75145
 20
1787.4209
 11
370.00062
 21
1787.4209
  0
LINE
  8
0-2
  6
CONTINUOUS
 62
    3
 10
800.00008
 20
534.01203
 11
800.00008
 21
1034.0119
  0
LINE
  8
0-2
  6
CONTINUOUS
 62
    3
 10
800.00008
 20
1034.0119
 11
1300.0002
 21
1034.0119
  0
LINE
  8
0-2
  6
CONTINUOUS
 62
    3
 10
1300.0002
 20
1034.0119
 11
1300.0002
 21
534.01203
  0
LINE
  8
0-2
  6
CONTINUOUS
 62
    3
 10
1300.0002
 20
534.01203
 11
800.00008
 21
534.01203
  0
LINE
  8
0-2
  6
CONTINUOUS
 62
    3
 10
602.50028
 20
336.51198
 11
602.50028
 21
1231.512
  0
LINE
  8
0-2
  6
CONTINUOUS
 62
    3
 10
602.50028
 20
1231.512
 11
1497.4998
 21
1231.512
  0
LINE
  8
0-2
  6
CONTINUOUS
 62
    3
 10
1497.4998
 20
1231.512
 11
1497.4998
 21
336.51198
  0
LINE
  8
0-2
  6
CONTINUOUS
 62
    3
 10
1497.4998
 20
336.51198
 11
602.50028
 21
336.51198
  0
LINE
  8
0-8
  6
CONTINUOUS
 62
    7
 10
370.00062
 20
336.51198
 11
370.00062
 21
1231.512
  0
LINE
  8
0-8
  6
CONTINUOUS
 62
    7
 10
1730.0007
 20
534.01203
 11
1730.0007
 21
1034.0119
  0
LINE
  8
0-8
  6
CONTINUOUS
 62
    7
 10
800.00008
 20
1385.5478
 11
1300.0002
 21
1385.5478
  0
LINE
  8
0-2
  6
CONTINUOUS
 62
    3
 10
800.00008
 20
1034.0119
 11
868.943
 21
965.0688
  0
LINE
  8
0-2
  6
CONTINUOUS
 62
    3
 10
1300.0002
 20
1034.0119
 11
1231.0573
 21
965.0688
  0
LINE
  8
0-2
  6
CONTINUOUS
 62
    3
 10
800.00008
 20
534.01203
 11
868.943
 21
602.9547
  0
LINE
  8
0-2
  6
CONTINUOUS
 62
    3
 10
1300.0002
 20
534.01203
 11
1231.0573
 21
602.9547
  0
LINE
  8
0-2
  6
CONTINUOUS
 62
    3
 10
847.50011
 20
1727.4212
 11
1252.5002
 21
1727.4212
  0
LINE
  8
0-2
  6
CONTINUOUS
 62
    3
 10
847.50011
 20
1787.4209
 11
1252.5002
 21
1787.4209
  0
LINE
  8
0-8
  6
CONTINUOUS
 62
    7
 10
847.50011
 20
1851.0668
 11
1252.5002
 21
1851.0668
  0
LINE
  8
0-8
  6
CONTINUOUS
 62
    7
 10
800.00008
 20
1451.9754
 11
800.00008
 21
1385.5478
  0
LINE
  8
0-8
  6
CONTINUOUS
 62
    7
 10
1300.0002
 20
1451.9754
 11
1300.0002
 21
1385.5478
  0
LINE
  8
0-8
  6
CONTINUOUS
 62
    7
 10
532.15041
 20
1231.512
 11
370.00062
 21
1231.512
  0
LINE
  8
0-8
  6
CONTINUOUS
 62
    7
 10
532.15041
 20
336.51198
 11
370.00062
 21
336.51198
  0
LINE
  8
0-8
  6
CONTINUOUS
 62
    7
 10
1567.26
 20
1034.0119
 11
1730.0007
 21
1034.0119
  0
LINE
  8
0-8
  6
CONTINUOUS
 62
    7
 10
1567.26
 20
534.01203
 11
1730.0007
 21
534.01203
  0
LINE
  8
0-2
  6
CONTINUOUS
 62
    3
 10
847.50011
 20
1774.4208
 11
1252.5002
 21
1774.4208
  0
LINE
  8
0-2
  6
CONTINUOUS
 62
    3
 10
847.50011
 20
1787.4209
 11
847.50011
 21
1774.4208
  0
LINE
  8
0-2
  6
CONTINUOUS
 62
    3
 10
847.50011
 20
1761.4207
 11
847.50011
 21
1727.4212
  0
LINE
  8
0-2
  6
CONTINUOUS
 62
    3
 10
847.50011
 20
1761.4208
 11
1252.5002
 21
1761.4208
  0
LINE
  8
0-2
  6
CONTINUOUS
 62
    3
 10
1252.5002
 20
1761.4208
 11
1252.5002
 21
1727.4212
  0
LINE
  8
0-2
  6
CONTINUOUS
 62
    3
 10
1252.5004
 20
1787.4209
 11
1252.5004
 21
1774.4208
  0
LINE
  8
0-d
  6
CONTINUOUS
 62
    7
 10
403.4619
 20
1430.8387
 11
494.2023
 21
1430.8387
  0
LINE
  8
0-d
  6
CONTINUOUS
 62
    7
 10
403.4619
 20
1430.8387
 11
494.2023
 21
1458.0597
  0
LINE
  8
0-d
  6
CONTINUOUS
 62
    7
 10
494.2023
 20
1430.8387
 11
494.2023
 21
1458.0597
  0
LINE
  8
0-8
  6
CONTINUOUS
 62
    7
 10
858.88507
 20
717.07012
 11
1241.1155
 21
850.95326
  0
LINE
  8
0-2
  6
CONTINUOUS
 62
    3
 10
847.50011
 20
1727.4212
 11
803.09654
 21
1517.4213
  0
LINE
  8
0-2
  6
CONTINUOUS
 62
    3
 10
1252.5002
 20
1727.4212
 11
1296.8716
 21
1517.2769
  0
LINE
  8
0-8
  6
CONTINUOUS
 62
    7
 10
842.5001
 20
1999.325
 11
842.5001
 21
1945.5667
  0
LINE
  8
0-8
  6
CONTINUOUS
 62
    7
 10
1257.5002
 20
1999.325
 11
1257.5002
 21
1945.5667
  0
LINE
  8
0-8
  6
CONTINUOUS
 62
    7
 10
847.50011
 20
1807.8819
 11
847.50011
 21
1851.0668
  0
LINE
  8
0-8
  6
CONTINUOUS
 62
    7
 10
1252.5002
 20
1807.8819
 11
1252.5002
 21
1851.0668
  0
LINE
  8
0-2
  6
CONTINUOUS
 62
    3
 10
735.00011
 20
2422.1066
 11
1365.0002
 21
2422.1068
  0
LINE
  8
0-2
  6
CONTINUOUS
 62
    3
 10
735.00011
 20
2435.1063
 11
1365.0002
 21
2435.1066
  0
LINE
  8
0-2
  6
CONTINUOUS
 62
    3
 10
735.00011
 20
2399.8571
 11
1365.0002
 21
2399.8573
  0
LINE
  8
0-2
  6
CONTINUOUS
 62
    3
 10
735.00011
 20
2422.1066
 11
735.00011
 21
2399.8568
  0
LINE
  8
0-2
  6
CONTINUOUS
 62
    3
 10
1364.9992
 20
2422.1068
 11
1364.9992
 21
2399.8571
  0
LINE
  8
0-2
  6
CONTINUOUS
 62
    3
 10
735.00011
 20
2386.8573
 11
1365.0002
 21
2386.8576
  0
LINE
  8
0-2
  6
CONTINUOUS
 62
    3
 10
735.00011
 20
2386.8573
 11
735.00011
 21
2158.3553
  0
LINE
  8
0-2
  6
CONTINUOUS
 62
    3
 10
1365.0002
 20
2386.8576
 11
1365.0002
 21
2158.3555
  0
LINE
  8
0-8
  6
CONTINUOUS
 62
    7
 10
682.75145
 20
2525.1064
 11
370.00062
 21
2525.1064
  0
LINE
  8
0-2
  6
CONTINUOUS
 62
    3
 10
1050.0001
 20
2525.1064
 11
894.11605
 21
2435.1066
  0
LINE
  8
0-2
  6
CONTINUOUS
 62
    3
 10
1050.0001
 20
2525.1064
 11
1205.8843
 21
2435.1066
  0
LINE
  8
0-8
  6
CONTINUOUS
 62
    7
 10
370.00062
 20
2015.1062
 11
370.00062
 21
2525.1064
  0
LINE
  8
0-1
  6
CENTER2
 62
    7
 10
602.50028
 20
784.01188
 11
1497.4998
 21
784.01188
  0
LINE
  8
0-1
  6
CENTER2
 62
    7
 10
1050.0001
 20
2525.1064
 11
1050.0001
 21
336.51198
  0
LINE
  8
0-8
  6
CONTINUOUS
 62
    7
 10
370.00062
 20
1517.4213
 11
370.00062
 21
1787.4209
  0
LINE
  8
0-2
  6
CONTINUOUS
 62
    3
 10
1497.4998
 20
1456.9658
 11
1050.0001
 21
1591.4893
  0
LINE
  8
0-2
  6
CONTINUOUS
 62
    3
 10
1050.0001
 20
1591.4893
 11
602.50028
 21
1457.2449
  0
ARC
  8
0-2
  6
CONTINUOUS
 62
    3
 10
842.5001
 20
2021.6062
 40
6.4996998
 50
90
 51
270
  0
ARC
  8
0-2
  6
CONTINUOUS
 62
    3
 10
842.5001
 20
2063.6064
 40
6.4996998
 50
90
 51
270
  0
ARC
  8
0-2
  6
CONTINUOUS
 62
    3
 10
1257.5002
 20
2021.6062
 40
6.4996998
 50
270
 51
90
  0
ARC
  8
0-2
  6
CONTINUOUS
 62
    3
 10
1257.5002
 20
2063.6064
 40
6.4996998
 50
270
 51
90
  0
ARC
  8
0-2
  6
CONTINUOUS
 62
    3
 10
735.00011
 20
2151.8555
 40
6.4996998
 50
90
 51
270
  0
ARC
  8
0-2
  6
CONTINUOUS
 62
    3
 10
735.00011
 20
2116.606
 40
6.4996998
 50
90
 51
270
  0
ARC
  8
0-2
  6
CONTINUOUS
 62
    3
 10
1364.9992
 20
2151.8558
 40
6.4996998
 50
270
 51
90
  0
ARC
  8
0-2
  6
CONTINUOUS
 62
    3
 10
1364.9992
 20
2116.6062
 40
6.4996998
 50
270
 51
90
  0
ARC
  8
0-2
  6
CONTINUOUS
 62
    3
 10
1252.5004
 20
1767.9208
 40
6.4996998
 50
90
 51
270
  0
ARC
  8
0-2
  6
CONTINUOUS
 62
    3
 10
847.49986
 20
1767.9208
 40
6.4996998
 50
270
 51
90
  0
CIRCLE
  8
0-2
  6
CONTINUOUS
 62
    3
 10
1050.0001
 20
784.01212
 40
202.49999
  0
ARC
  8
0-2
  6
CONTINUOUS
 62
    3
 10
735.00011
 20
2428.6066
 40
6.4996998
 50
90
 51
270
  0
ARC
  8
0-2
  6
CONTINUOUS
 62
    3
 10
735.00011
 20
2393.3571
 40
6.4996998
 50
90
 51
270
  0
ARC
  8
0-2
  6
CONTINUOUS
 62
    3
 10
1364.9992
 20
2428.6068
 40
6.4996998
 50
270
 51
90
  0
ARC
  8
0-2
  6
CONTINUOUS
 62
    3
 10
1364.9992
 20
2393.3573
 40
6.4996998
 50
270
 51
90
  0
TEXT
  8
0-d
 10
254.9998
 20
157.4999
 40
25
 41
1
 50
0
  1
図
  0
TEXT
  8
0-d
 10
254.9998
 20
97.499963
 40
25
 41
1
 50
0
  1
番
  0
TEXT
  8
0-d
 10
655.00046
 20
157.4999
 40
25
 41
1
 50
0
  1
承
  0
TEXT
  8
0-d
 10
655.00046
 20
97.499963
 40
25
 41
1
 50
0
  1
認
  0
TEXT
  8
0-d
 10
1020.0003
 20
237.49994
 40
25
 41
1
 50
0
  1
尺
  0
TEXT
  8
0-d
 10
1020.0003
 20
197.49978
 40
25
 41
1
 50
0.0000762
  1
度
  0
TEXT
  8
0-d
 10
855.00014
 20
157.4999
 40
25
 41
1
 50
0
  1
製
  0
TEXT
  8
0-d
 10
855.00014
 20
97.499963
 40
25
 41
1
 50
0
  1
図
  0
TEXT
  8
0-d
 10
1555.0001
 20
237.49994
 40
25
 41
1
 50
0
  1
日
  0
TEXT
  8
0-d
 10
1555.0001
 20
197.49978
 40
25
 41
1
 50
0.0000762
  1
付
  0
TEXT
  8
0-d
 10
1111.4263
 20
163.48226
 40
20
 41
1
 50
0
  1
株式
  0
TEXT
  8
0-d
 10
1111.4263
 20
141.85179
 40
20
 41
1
 50
0.0000152
  1
会社
  0
TEXT
  8
0-d
 10
1174.2247
 20
143.24712
 40
40
 41
1
 50
0
  1
スズキベンチレーター
  0
TEXT
  8
0-d
 10
1237.9182
 20
94.024183
 40
20
 41
1
 50
0
  1
TEL(054)296-7000  FAX(054)296-7001
  0
TEXT
  8
0-d
 10
510.82481
 20
1431.0869
 40
30
 41
1
 50
0
  1
3
  0
TEXT
  8
0-d
 10
437.83155
 20
1395.3406
 40
30
 41
1
 50
0.0002136
  1
10
  0
TEXT
  8
0-8
 10
1004.5001
 20
1958.5668
 40
30
 41
1
 50
0
  1
415φ
  0
TEXT
  8
0-8
 10
1004.5001
 20
1864.0669
 40
30
 41
1
 50
0
  1
405φ
  0
TEXT
  8
0-8
 10
350.50062
 20
1742.046
 40
30
 41
1
 50
90
  1
60
  0
TEXT
  8
0-8
 10
350.50062
 20
1596.3571
 40
30
 41
1
 50
90
  1
210
  0
TEXT
  8
0-8
 10
1022.3534
 20
1398.5478
 40
30
 41
1
 50
0
  1
500
  0
TEXT
  8
0-8
 10
1717.0002
 20
756.3872
 40
30
 41
1
 50
90
  1
500
  0
TEXT
  8
0-8
 10
1002.7609
 20
781.23956
 40
30
 41
1
 50
19.303863
  1
405φ
  0
TEXT
  8
0-8
 10
352.39574
 20
2272.2078
 40
30
 41
1
 50
90
  1
510
  0
TEXT
  8
0-8
 10
1022.3752
 20
2626.7354
 40
30
 41
1
 50
0
  1
630
  0
TEXT
  8
0-d
 10
308.45927
 20
140.30214
 40
30
 41
1
 50
0
  1
40-B07
  0
TEXT
  8
0-d
 10
1084.349
 20
210.10065
 40
40
 41
1
 50
0
  1
１／１０
  0
TEXT
  8
0-8
 10
357.00062
 20
756.3872
 40
30
 41
1
 50
90
  1
≒ 895
  0
TEXT
  8
0-d
 10
255.00005
 20
2776.1895
 40
50
 41
1
 50
0
  1
ＤＳ－４００　自然換気　直付型立面、直付袴立面・平面
  0
TEXT
  8
0-8
 10
263.73943
 20
233.57669
 40
30
 41
1
 50
0
  1
ＤＳ－４００　自然換気　直付型立面、
  0
TEXT
  8
0-d
 10
684.50716
 20
195.02708
 40
30
 41
1
 50
0
  1
直付袴立面・平面
  0
TEXT
  8
0-d
 10
1235.6792
 20
118.64593
 40
20
 41
1
 50
0
  1
〒421-2114　静岡市葵区安倍口新田１５２番地
  0
POINT
  8
0-8
 62
    2
 10
370.00062
 20
2015.1062
  0
POINT
  8
0-8
 62
    2
 10
370.00062
 20
2525.1064
  0
POINT
  8
0-8
 62
    2
 10
735.00011
 20
2607.2346
  0
POINT
  8
0-8
 62
    2
 10
1365.0002
 20
2607.2346
  0
POINT
  8
0-8
 62
    2
 10
842.5001
 20
1945.5667
  0
POINT
  8
0-8
 62
    2
 10
1257.5002
 20
1945.5667
  0
POINT
  8
0-8
 62
    2
 10
370.00062
 20
1517.4213
  0
POINT
  8
0-8
 62
    2
 10
370.00062
 20
1727.4212
  0
POINT
  8
0-8
 62
    2
 10
370.00062
 20
1787.4209
  0
POINT
  8
0-8
 62
    2
 10
370.00062
 20
336.51198
  0
POINT
  8
0-8
 62
    2
 10
370.00062
 20
1231.512
  0
POINT
  8
0-8
 62
    2
 10
1730.0007
 20
534.01203
  0
POINT
  8
0-8
 62
    2
 10
1730.0007
 20
1034.0119
  0
POINT
  8
0-8
 62
    2
 10
800.00008
 20
1385.5478
  0
POINT
  8
0-8
 62
    2
 10
1300.0002
 20
1385.5478
  0
POINT
  8
0-8
 62
    2
 10
858.88507
 20
717.07012
  0
POINT
  8
0-8
 62
    2
 10
1241.1155
 20
850.95326
  0
POINT
  8
0-8
 62
    2
 10
847.50011
 20
1851.0668
  0
POINT
  8
0-8
 62
    2
 10
1252.5002
 20
1851.0668
  0
ENDSEC
  0
EOF
